  0
SECTION
  2
HEADER
  9
$ACADVER
  1
AC1009
  9
$INSBASE
 10
3518.2266585985671554
 20
143.7664271166918866
 30
0.0
  9
$EXTMIN
 10
3509.7658103804387792
 20
143.7585619328816051
 30
-0.0015258207003583
  9
$EXTMAX
 10
3525.9068658719438645
 20
173.2807869275104053
 30
0.0000000349246037
  9
$LIMMIN
 10
0.0
 20
0.0
  9
$LIMMAX
 10
11.6929133858000007
 20
8.2677165353999982
  9
$ORTHOMODE
 70
     0
  9
$REGENMODE
 70
     1
  9
$FILLMODE
 70
     1
  9
$QTEXTMODE
 70
     0
  9
$MIRRTEXT
 70
     0
  9
$DRAGMODE
 70
     2
  9
$LTSCALE
 40
0.6431102362
  9
$OSMODE
 70
  4095
  9
$ATTMODE
 70
     1
  9
$TEXTSIZE
 40
0.2
  9
$TRACEWID
 40
0.05
  9
$TEXTSTYLE
  7
STANDARD
  9
$CLAYER
  8
0
  9
$CELTYPE
  6
BYLAYER
  9
$CECOLOR
 62
   256
  9
$DIMSCALE
 40
1.0
  9
$DIMASZ
 40
0.1875
  9
$DIMEXO
 40
0.0625
  9
$DIMDLI
 40
0.4443307087
  9
$DIMRND
 40
0.0
  9
$DIMDLE
 40
0.0
  9
$DIMEXE
 40
0.125
  9
$DIMTP
 40
0.01
  9
$DIMTM
 40
0.01
  9
$DIMTXT
 40
2.0
  9
$DIMCEN
 40
0.1052362205
  9
$DIMTSZ
 40
0.0
  9
$DIMTOL
 70
     1
  9
$DIMLIM
 70
     0
  9
$DIMTIH
 70
     1
  9
$DIMTOH
 70
     1
  9
$DIMSE1
 70
     0
  9
$DIMSE2
 70
     0
  9
$DIMTAD
 70
     0
  9
$DIMZIN
 70
     0
  9
$DIMBLK
  1

  9
$DIMASO
 70
     1
  9
$DIMSHO
 70
     1
  9
$DIMPOST
  1
\X
  9
$DIMAPOST
  1

  9
$DIMALT
 70
     1
  9
$DIMALTD
 70
     2
  9
$DIMALTF
 40
25.3999999999999986
  9
$DIMLFAC
 40
1.0
  9
$DIMTOFL
 70
     0
  9
$DIMTVP
 40
0.0
  9
$DIMTIX
 70
     0
  9
$DIMSOXD
 70
     0
  9
$DIMSAH
 70
     0
  9
$DIMBLK1
  1

  9
$DIMBLK2
  1

  9
$DIMSTYLE
  2
STANDARD
  9
$DIMCLRD
 70
     0
  9
$DIMCLRE
 70
     0
  9
$DIMCLRT
 70
     0
  9
$DIMTFAC
 40
1.0
  9
$DIMGAP
 40
0.09
  9
$LUNITS
 70
     2
  9
$LUPREC
 70
     4
  9
$SKETCHINC
 40
0.1
  9
$FILLETRAD
 40
0.0
  9
$AUNITS
 70
     0
  9
$AUPREC
 70
     0
  9
$MENU
  1
.
  9
$ELEVATION
 40
0.0
  9
$PELEVATION
 40
0.0
  9
$THICKNESS
 40
0.0
  9
$LIMCHECK
 70
     0
  9
$BLIPMODE
 70
     0
  9
$CHAMFERA
 40
0.0
  9
$CHAMFERB
 40
0.0
  9
$SKPOLY
 70
     0
  9
$TDCREATE
 40
2458060.468368056230247
  9
$TDUPDATE
 40
2459726.9653587960638106
  9
$TDINDWG
 40
1.0276112269
  9
$TDUSRTIMER
 40
1.0276112269
  9
$USRTIMER
 70
     1
  9
$ANGBASE
 50
0.0
  9
$ANGDIR
 70
     0
  9
$PDMODE
 70
     0
  9
$PDSIZE
 40
0.3125
  9
$PLINEWID
 40
0.0
  9
$COORDS
 70
     1
  9
$SPLFRAME
 70
     0
  9
$SPLINETYPE
 70
     6
  9
$SPLINESEGS
 70
     8
  9
$ATTDIA
 70
     1
  9
$ATTREQ
 70
     1
  9
$HANDLING
 70
     1
  9
$HANDSEED
  5
2CAF1
  9
$SURFTAB1
 70
     6
  9
$SURFTAB2
 70
     6
  9
$SURFTYPE
 70
     6
  9
$SURFU
 70
     6
  9
$SURFV
 70
     6
  9
$UCSNAME
  2

  9
$UCSORG
 10
0.0
 20
0.0
 30
0.0
  9
$UCSXDIR
 10
1.0
 20
0.0
 30
0.0
  9
$UCSYDIR
 10
0.0
 20
1.0
 30
0.0
  9
$PUCSNAME
  2

  9
$PUCSORG
 10
0.0
 20
0.0
 30
0.0
  9
$PUCSXDIR
 10
1.0
 20
0.0
 30
0.0
  9
$PUCSYDIR
 10
0.0
 20
1.0
 30
0.0
  9
$USERI1
 70
     0
  9
$USERI2
 70
     0
  9
$USERI3
 70
     0
  9
$USERI4
 70
     0
  9
$USERI5
 70
     0
  9
$USERR1
 40
0.0
  9
$USERR2
 40
0.0
  9
$USERR3
 40
0.0
  9
$USERR4
 40
0.0
  9
$USERR5
 40
0.0
  9
$WORLDVIEW
 70
     1
  9
$SHADEDGE
 70
     3
  9
$SHADEDIF
 70
    70
  9
$TILEMODE
 70
     1
  9
$MAXACTVP
 70
    64
  9
$PLIMCHECK
 70
     0
  9
$PEXTMIN
 10
1.0000000000000000E+20
 20
1.0000000000000000E+20
 30
1.0000000000000000E+20
  9
$PEXTMAX
 10
-1.0000000000000000E+20
 20
-1.0000000000000000E+20
 30
-1.0000000000000000E+20
  9
$PLIMMIN
 10
0.0
 20
0.0
  9
$PLIMMAX
 10
12.0
 20
9.0
  9
$UNITMODE
 70
     0
  9
$VISRETAIN
 70
     1
  9
$PLINEGEN
 70
     0
  9
$PSLTSCALE
 70
     1
  0
ENDSEC
  0
SECTION
  2
TABLES
  0
TABLE
  2
VPORT
 70
     1
  0
VPORT
  2
*ACTIVE
 70
     0
 10
0.0
 20
0.0
 11
1.0
 21
1.0
 12
254.4473000402541061
 22
6.7979718545124683
 13
0.0
 23
0.0
 14
1.0
 24
1.0
 15
0.0
 25
0.0
 16
0.0
 26
0.0
 36
92.3385285193394054
 17
3263.3890380859379547
 27
151.7217025756835938
 37
0.0
 40
29.752567452324211
 41
2.481770833333333
 42
50.0
 43
0.0
 44
0.0
 50
0.0
 51
0.0
 71
     0
 72
   100
 73
     1
 74
     1
 75
     0
 76
     0
 77
     0
 78
     0
  0
ENDTAB
  0
TABLE
  2
LTYPE
 70
     2
  0
LTYPE
  2
CONTINUOUS
 70
     0
  3
Solid line
 72
    65
 73
     0
 40
0.0
  0
LTYPE
  2
PHANTOM2
 70
     0
  3
___ _ _ ___ _ _ ___ _ _ ___ _ _
 72
    65
 73
     6
 40
1.25
 49
0.625
 49
-0.125
 49
0.125
 49
-0.125
 49
0.125
 49
-0.125
  0
ENDTAB
  0
TABLE
  2
LAYER
 70
     2
  0
LAYER
  2
0
 70
     0
 62
   255
  6
CONTINUOUS
  0
LAYER
  2
DEFPOINTS
 70
     0
 62
     7
  6
CONTINUOUS
  0
ENDTAB
  0
TABLE
  2
STYLE
 70
     1
  0
STYLE
  2
STANDARD
 70
     0
 40
0.0
 41
0.8
 50
0.0
 71
     0
 42
0.2
  3
txt
  4

  0
ENDTAB
  0
TABLE
  2
VIEW
 70
     0
  0
ENDTAB
  0
TABLE
  2
UCS
 70
     0
  0
ENDTAB
  0
TABLE
  2
APPID
 70
    10
  0
APPID
  2
ACAD
 70
     0
  0
APPID
  2
ACAD_MLEADERVER
 70
     0
  0
APPID
  2
ACAD_EXEMPT_FROM_CAD_STANDARDS
 70
     0
  0
APPID
  2
ACAD_NAV_VCDISPLAY
 70
     0
  0
APPID
  2
ACAECLAYERSTANDARD
 70
     0
  0
APPID
  2
ACCMTRANSPARENCY
 70
     0
  0
APPID
  2
ACAD_DSTYLE_DIMJAG
 70
     0
  0
APPID
  2
ACAD_DSTYLE_DIMTALN
 70
     0
  0
APPID
  2
ACDBATTR
 70
     0
  0
APPID
  2
ACADANNOTATIVE
 70
     0
  0
ENDTAB
  0
TABLE
  2
DIMSTYLE
 70
     1
  0
DIMSTYLE
  2
STANDARD
 70
     0
  3

  4

  5

  6

  7

 40
1.0
 41
0.1875
 42
0.0625
 43
0.38
 44
0.125
 45
0.0
 46
0.0
 47
0.01
 48
0.01
140
0.15625
141
0.09
142
0.0
143
25.3999999999999986
144
1.0
145
0.0
146
1.0
147
0.09
 71
     1
 72
     0
 73
     1
 74
     1
 75
     0
 76
     0
 77
     0
 78
     4
170
     0
171
     2
172
     0
173
     0
174
     0
175
     0
176
     0
177
     0
178
     0
  0
ENDTAB
  0
ENDSEC
  0
SECTION
  2
BLOCKS
  0
BLOCK
  8
0
  2
$MODEL_SPACE
 70
     0
 10
0.0
 20
0.0
 30
0.0
  3
$MODEL_SPACE
  1

  0
ENDBLK
  5
21
  8
0
  0
BLOCK
 67
     1
  8
0
  2
$PAPER_SPACE
 70
     0
 10
0.0
 20
0.0
 30
0.0
  3
$PAPER_SPACE
  1

  0
ENDBLK
  5
1D
 67
     1
  8
0
  0
ENDSEC
  0
SECTION
  2
ENTITIES
  0
ATTDEF
  5
2143C
  8
DEFPOINTS
 10
3518.2210419404741515
 20
143.7646398423447067
 30
0.0
 40
0.001
  1
K-EX22384T-SL
  3

  2
MODELNUMBER
 70
     0
1001
ACDBATTR
1070
     0
1070
     1
  0
ATTDEF
  5
2143D
  8
DEFPOINTS
 10
3518.2210419404741515
 20
143.7629731756780131
 30
0.0
 40
0.001
  1
BRAZN 
  3

  2
TRADENAME
 70
     0
1001
ACDBATTR
1070
     0
1070
     1
  0
ATTDEF
  5
2143E
  8
DEFPOINTS
 10
3518.2210419404741515
 20
143.7613065090112912
 30
0.0
 40
0.001
  1
TOILET
  3

  2
PRODUCT
 70
     0
1001
ACDBATTR
1070
     0
1070
     1
  0
LINE
  5
2C993
  8
0
 10
3518.2266585985671554
 20
143.7664271166918866
 30
0.0
 11
3513.2272497814651615
 21
143.7664271166918866
 31
0.0
  0
LINE
  5
2C994
  8
0
 10
3513.2272497814651615
 20
143.7664271166918866
 30
0.0
 11
3511.1910921772641814
 21
156.5439446885918926
 31
0.0
  0
ARC
  5
2C995
  8
0
 10
3545.7652328999811289
 20
162.208790664070392
 30
0.0
 40
35.0351493023804608
 50
184.7772366532965975
 51
189.3050245106921921
  0
ARC
  5
2C996
  8
0
 10
3510.7379862500988565
 20
173.1571937844038871
 30
0.0
 40
0.1190409049942235
 50
90.4412497594399412
 51
179.6814231648073132
  0
LINE
  5
2C997
  8
0
 10
3510.6189471852330826
 20
173.1578556739825956
 30
0.0
 11
3510.6189471852330826
 21
172.8943388877129905
 31
0.0
  0
ARC
  5
2C998
  8
0
 10
3510.8087095837458946
 20
172.9234532011712986
 30
0.0
 40
0.1919828407378456
 50
188.7225935131507981
 51
202.9112181495833909
  0
ARC
  5
2C999
  8
0
 10
3510.7542643135898288
 20
173.153823276824312
 30
0.0
 40
0.1224118596658003
 50
90.4618656648788146
 51
158.7505455682006072
  0
ARC
  5
2C99A
  8
0
 10
3510.7502457290488564
 20
173.1583976437810009
 30
0.0
 40
0.1170422719056025
 50
160.1247455746336072
 51
180.1319355551486865
  0
LINE
  5
2C99B
  8
0
 10
3510.6332037674501407
 20
173.15812812962821
 30
0.0
 11
3510.6189471852330826
 21
163.8077213914536117
 31
0.0
  0
ARC
  5
2C99C
  8
0
 10
3503.8994461244187733
 20
160.6696935256871086
 30
0.0
 40
6.931502171826061
 50
355.0646815989009042
 51
356.6552291600650051
  0
LINE
  5
2C99D
  8
0
 10
3510.7751983729672247
 20
160.3489063238918959
 30
0.0
 11
3510.8077868635668892
 21
159.3995637927918949
 31
0.0
  0
ARC
  5
2C99E
  8
0
 10
3511.4928860049890318
 20
159.2672788942230113
 30
0.0
 40
0.0173812780151496
 50
181.9999999219062943
 51
248.2682560848705009
  0
ARC
  5
2C99F
  8
0
 10
3511.9273253269739143
 20
160.3274369390304912
 30
0.0
 40
1.1630997370259739
 50
247.7250444871158095
 51
292.2749555128842189
  0
ARC
  5
2C9A0
  8
0
 10
3512.3617311733328279
 20
159.2675753624087065
 30
0.0
 40
0.0176692453771356
 50
291.4766271304014253
 51
357.0703661620815978
  0
ARC
  5
2C9A1
  8
0
 10
3512.4723440126658716
 20
159.1523482030056016
 30
0.0
 40
0.4102249611886351
 50
3.2424261739939011
 51
19.4804278750431585
  0
ARC
  5
2C9A2
  8
0
 10
3512.8938906305579621
 20
159.1763114130197891
 30
0.0
 40
0.0120024838641312
 50
183.6330572016015026
 51
266.0648645367597283
  0
LINE
  5
2C9A3
  8
0
 10
3512.8920132497642044
 20
159.1643372264244931
 30
0.0
 11
3512.8928384049631859
 21
159.1406880534173069
 31
0.0
  0
ARC
  5
2C9A4
  8
0
 10
3512.910210609681144
 20
159.1412948920340966
 30
0.0
 40
0.0173828004030615
 50
182.0006188327180894
 51
218.12283698085011
  0
ARC
  5
2C9A5
  8
0
 10
3514.0903895392420964
 20
159.1501722037278057
 30
0.0
 40
0.283794866981013
 50
150.6778711453264918
 51
174.9026777218616076
  0
ARC
  5
2C9A6
  8
0
 10
3513.7956267702547848
 20
159.1764442767332923
 30
0.0
 40
0.0121364121224724
 50
273.9863140279784943
 51
355.0010400772841876
  0
LINE
  5
2C9A7
  8
0
 10
3513.7975250607651105
 20
159.1643372264244931
 30
0.0
 11
3513.7967001606639315
 21
159.1406880444918954
 31
0.0
  0
LINE
  5
2C9A8
  8
0
 10
3510.6300433499559404
 20
171.0853179301589932
 30
0.0
 11
3510.5995862866670905
 21
171.0915901366919059
 31
0.0
  0
ARC
  5
2C9A9
  8
0
 10
3510.5955192867018013
 20
171.0718412852043002
 30
0.0
 40
0.0201632741336877
 50
78.3634159243176924
 51
172.5259710866164085
  0
LINE
  5
2C9AA
  8
0
 10
3510.5755273212671455
 20
171.0744640588918912
 30
0.0
 11
3510.5755268273669571
 21
171.0348215483919034
 31
0.0
  0
ARC
  5
2C9AB
  8
0
 10
3510.5877953231101856
 20
171.0395474953137978
 30
0.0
 40
0.0131472644341012
 50
201.0671824198090007
 51
266.20720498875761
  0
LINE
  5
2C9AC
  8
0
 10
3510.5869256522669275
 20
171.026429026091904
 30
0.0
 11
3510.5952100501431232
 21
171.0265465507191891
 31
0.0
  0
ARC
  5
2C9AD
  8
0
 10
3510.5970196096959626
 20
171.0160522969285068
 30
0.0
 40
0.0106491252412141
 50
17.3812659791397408
 51
99.7834963565107955
  0
ARC
  5
2C9AE
  8
0
 10
3510.6267017147338265
 20
171.0279790709099075
 30
0.0
 40
0.0213889171405389
 50
204.1347132330843976
 51
262.6000385061518045
  0
LINE
  5
2C9AF
  8
0
 10
3510.6070228903658972
 20
170.4380530195878123
 30
0.0
 11
3510.6070228903658972
 21
171.0197044530370931
 31
0.0
  0
LINE
  5
2C9B0
  8
0
 10
3510.6070228903658972
 20
171.0900586720898104
 30
0.0
 11
3510.6070228903658972
 21
171.1620556349919013
 31
0.0
  0
ARC
  5
2C9B1
  8
0
 10
3510.5952009353218273
 20
171.1620556349919013
 30
0.0
 40
0.0118219550452077
 50
359.9999999999984084
 51
88.9532703739128863
  0
LINE
  5
2C9B2
  8
0
 10
3510.5954168971661602
 20
171.1738756172919125
 30
0.0
 11
3510.5479677722669294
 21
171.1722186573919089
 31
0.0
  0
LINE
  5
2C9B3
  8
0
 10
3510.5479677722669294
 20
171.2337967368918896
 30
0.0
 11
3510.5479677722669294
 21
170.2241765676918988
 31
0.0
  0
LINE
  5
2C9B4
  8
0
 10
3510.5479677722669294
 20
170.2241765676918988
 30
0.0
 11
3510.0256662905208032
 21
170.2287346236199141
 31
0.0
  0
ARC
  5
2C9B5
  8
0
 10
3510.0280757251907744
 20
170.2599579806908991
 30
0.0
 40
0.0313161843495656
 50
182.3850773092061104
 51
265.5873614477840761
  0
LINE
  5
2C9B6
  8
0
 10
3509.9967866699671504
 20
170.2586547441918867
 30
0.0
 11
3509.996786669867106
 21
171.2001059319919136
 31
0.0
  0
ARC
  5
2C9B7
  8
0
 10
3510.0259205281340655
 20
171.2001059320622005
 30
0.0
 40
0.0291338582673441
 50
90.4954744337239276
 51
180.0000001383687902
  0
LINE
  5
2C9B8
  8
0
 10
3510.025668591566955
 20
171.2292387009919139
 30
0.0
 11
3510.5479677722669294
 21
171.2337967368918896
 31
0.0
  0
LINE
  5
2C9B9
  8
0
 10
3510.6289564107200931
 20
170.3724315028794081
 30
0.0
 11
3510.5995862866670905
 21
170.366383136291887
 31
0.0
  0
ARC
  5
2C9BA
  8
0
 10
3510.5955192867018013
 20
170.3861319877794926
 30
0.0
 40
0.0201632741336877
 50
187.4740289133819999
 51
281.6365840756823218
  0
LINE
  5
2C9BB
  8
0
 10
3510.5755273212671455
 20
170.383509214091788
 30
0.0
 11
3510.5755268273669571
 21
170.4231517245918894
 31
0.0
  0
ARC
  5
2C9BC
  8
0
 10
3510.5877953231101856
 20
170.4184257776699951
 30
0.0
 40
0.0131472644341012
 50
93.7927950112424185
 51
158.932817580190914
  0
LINE
  5
2C9BD
  8
0
 10
3510.5869256522669275
 20
170.4315442468918889
 30
0.0
 11
3510.5952100501431232
 21
170.4314267222644901
 31
0.0
  0
ARC
  5
2C9BE
  8
0
 10
3510.5970196096959626
 20
170.441920976055286
 30
0.0
 40
0.0106491252412141
 50
260.2165036434892045
 51
342.6187340208603018
  0
ARC
  5
2C9BF
  8
0
 10
3510.6267017147338265
 20
170.4299942020738001
 30
0.0
 40
0.0213889171405389
 50
83.6251428634598852
 51
155.8652867669156024
  0
LINE
  5
2C9C0
  8
0
 10
3510.6070228903658972
 20
170.3678822250917904
 30
0.0
 11
3510.6070228903658972
 21
170.2959176379918915
 31
0.0
  0
ARC
  5
2C9C1
  8
0
 10
3510.5952009353218273
 20
170.2959176379918915
 30
0.0
 40
0.0118219550452077
 50
271.0467296260870853
 51
0.0000000000016284
  0
LINE
  5
2C9C2
  8
0
 10
3510.5954168971661602
 20
170.2840976556919088
 30
0.0
 11
3510.5479677722669294
 21
170.2856650188747949
 31
0.0
  0
ARC
  5
2C9C3
  8
0
 10
3511.8039008976729747
 20
158.5615300954592897
 30
0.0
 40
2.6169603775531369
 50
90.6182189654504668
 51
96.7858972266694764
  0
ARC
  5
2C9C4
  8
0
 10
3511.6465932290188903
 20
159.8836228754717865
 30
0.0
 40
1.2855419529868799
 50
96.7864421935768888
 51
112.8042704662014017
  0
ARC
  5
2C9C5
  8
0
 10
3511.3333582934451442
 20
160.6286238997184057
 30
0.0
 40
0.4773695388375633
 50
112.8042704662014017
 51
139.9469635085648918
  0
ARC
  5
2C9C6
  8
0
 10
3511.3362320872820419
 20
160.6262079636975955
 30
0.0
 40
0.4811239279853309
 50
139.9469635085648918
 51
166.6714454059060131
  0
ARC
  5
2C9C7
  8
0
 10
3512.8603016152710552
 20
160.3621834065075973
 30
0.0
 40
2.0272090077576048
 50
169.3415521008784026
 51
177.4213467975868923
  0
ARC
  5
2C9C8
  8
0
 10
3505.5724745092520607
 20
160.806414395928698
 30
0.0
 40
5.2744982004851613
 50
354.1114211240940222
 51
356.1622911113394139
  0
ARC
  5
2C9C9
  8
0
 10
8870.0943257794842793
 20
220.0167926236518952
 30
0.0
 40
5359.7701250563713984
 50
180.6008842754820876
 51
180.635305730760507
  0
ARC
  5
2C9CA
  8
0
 10
3513.7796207708861402
 20
159.1412864025311933
 30
0.0
 40
0.017089867978801
 50
321.1389003372519255
 51
357.9935246599605989
  0
LINE
  5
2C9CB
  8
0
 10
3512.8920132497642044
 20
159.1643372264244931
 30
0.0
 11
3513.7975250607651105
 21
159.1643372264244931
 31
0.0
  0
LINE
  5
2C9CC
  8
0
 10
3513.2272497814651615
 20
143.7664271166918866
 30
0.0
 11
3518.2266585985671554
 21
143.7664271166918866
 31
0.0
  0
LINE
  5
2C9CD
  8
0
 10
3513.0806952566517793
 20
144.6183267166958046
 30
0.0
 11
3513.091409520293837
 21
144.6157295597868142
 31
0.0
  0
LINE
  5
2C9CE
  8
0
 10
3511.8731339009959811
 20
151.7556034789396904
 30
0.0
 11
3511.9352319174959121
 21
151.5621555976397019
 31
0.0
  0
LINE
  5
2C9CF
  8
0
 10
3511.7739071320947915
 20
152.1022664746396913
 30
0.0
 11
3511.6737057022960471
 21
152.7310616987396941
 31
0.0
  0
LINE
  5
2C9D0
  8
0
 10
3511.8731339009959811
 20
151.7556034789396904
 30
0.0
 11
3511.6602692151959673
 21
153.0913957728396895
 31
0.0
  0
LINE
  5
2C9D1
  8
0
 10
3511.6591647370960345
 20
153.2945632568396945
 30
0.0
 11
3511.9352319174959121
 21
151.5621555976397019
 31
0.0
  0
LINE
  5
2C9D2
  8
0
 10
3513.066757783652065
 20
144.6305379968958107
 30
0.0
 11
3512.9014723516520462
 21
145.6677556334958012
 31
0.0
  0
LINE
  5
2C9D3
  8
0
 10
3511.9572969569949237
 20
151.548894961839693
 30
0.0
 11
3511.9863393761411317
 21
151.5535230057668912
 31
0.0
  0
LINE
  5
2C9D4
  8
0
 10
3511.8683868288958365
 20
151.7663131066397
 30
0.0
 11
3511.8713519756151982
 21
151.7667856164677005
 31
0.0
  0
LINE
  5
2C9D5
  8
0
 10
3511.6590859937959976
 20
153.0797411254397105
 30
0.0
 11
3511.6620511405808429
 21
153.0802136352783123
 31
0.0
  0
LINE
  5
2C9D6
  8
0
 10
3511.6760152710949114
 20
153.3140252694396963
 30
0.0
 11
3511.7050575517901052
 21
153.3186532913040878
 31
0.0
  0
LINE
  5
2C9D7
  8
0
 10
3512.9109240347520426
 20
145.683694084095805
 30
0.0
 11
3512.9203003019738389
 21
145.6894927236008073
 31
0.0
  0
ARC
  5
2C9D8
  8
0
 10
3511.9541495759890495
 20
151.5686457591073122
 30
0.0
 40
0.0199999999690326
 50
198.9357744652992892
 51
279.0542192951332936
  0
ARC
  5
2C9D9
  8
0
 10
3511.6791626521221588
 20
153.29427447209261
 30
0.0
 40
0.0200000000506331
 50
99.0542193156857564
 51
179.1726638918073036
  0
ARC
  5
2C9DA
  8
0
 10
3511.6603251204151093
 20
153.07196522087429
 30
0.0
 40
0.0078740159124191
 50
99.0542209118826236
 51
181.6559210653591947
  0
ARC
  5
2C9DB
  8
0
 10
3511.8671477026591674
 20
151.7740890111543024
 30
0.0
 40
0.0078740158019326
 50
196.4525169993405029
 51
279.0542182142921774
  0
ARC
  5
2C9DC
  8
0
 10
3516.7614424041971688
 20
153.2194346605805038
 30
0.0
 40
5.111122469451467
 50
181.6559164216496072
 51
185.4830351694803028
  0
ARC
  5
2C9DD
  8
0
 10
3516.7614424563521425
 20
153.2194347595093973
 30
0.0
 40
5.1111225369211262
 50
192.6254033931224114
 51
196.4525220923586915
  0
ARC
  5
2C9DE
  8
0
 10
3516.7697557011861136
 20
153.2207591858326055
 30
0.0
 40
5.1111238532383494
 50
179.1726264383005116
 51
181.4503207879353113
  0
ARC
  5
2C9DF
  8
0
 10
3515.3978804940511509
 20
145.5337915100957957
 30
0.0
 40
2.5
 50
176.9282972237004117
 51
201.1801413019038876
  0
ARC
  5
2C9E0
  8
0
 10
3513.0854068452667889
 20
144.6377638186125125
 30
0.0
 40
0.0199999999549493
 50
201.1795070174499926
 51
256.3742192837190146
  0
ARC
  5
2C9E1
  8
0
 10
3512.9214436286129057
 20
145.6666841416119098
 30
0.0
 40
0.0199999999574552
 50
121.7342192236879015
 51
176.9289315448044988
  0
ARC
  5
2C9E2
  8
0
 10
3510.8692451904021254
 20
159.3460042525198048
 30
0.0
 40
0.057710158739511
 50
189.2072291635161889
 51
260.1082628644120973
  0
ARC
  5
2C9E3
  8
0
 10
3511.2558149524370492
 20
159.4000544306641132
 30
0.0
 40
0.448028357519952
 50
180.0627448787398066
 51
188.1202014834738918
  0
LINE
  5
2C9E4
  8
0
 10
3525.7002208408889601
 20
173.2762311592919104
 30
0.0
 11
3510.7370509716201923
 21
173.2762311592919104
 31
0.0
  0
LINE
  5
2C9E5
  8
0
 10
3525.5952661731689659
 20
160.4736567366147142
 30
0.0
 11
3510.7717210019009144
 21
160.4736567366147995
 31
0.0
  0
LINE
  5
2C9E6
  8
0
 10
3524.6776526400522016
 20
161.1783381370917994
 30
0.0
 11
3511.7756645570811997
 21
161.1783381370917994
 31
0.0
  0
LINE
  5
2C9E7
  8
0
 10
3525.5894772887509134
 20
160.1356145353919089
 30
0.0
 11
3510.8638399083820332
 21
160.1356145353919089
 31
0.0
  0
LINE
  5
2C9E8
  8
0
 10
3525.5939858636029385
 20
159.289152006621606
 30
0.0
 11
3510.8593313335300081
 21
159.289152006621606
 31
0.0
  0
LINE
  5
2C9E9
  8
0
 10
3523.5567814456840097
 20
159.1305636291907888
 30
0.0
 11
3512.8965357514489369
 21
159.1305636291907888
 31
0.0
  0
LINE
  5
2C9EA
  8
0
 10
3510.6189471852330826
 20
172.6581171030919108
 30
0.0
 11
3510.6189471852330826
 21
171.087600931508689
 31
0.0
  0
ARC
  5
2C9EB
  8
0
 10
3510.7372650855650136
 20
172.6580472481223012
 30
0.0
 40
0.1183179209523987
 50
153.6087274172469108
 51
179.9661725363770017
  0
ARC
  5
2C9EC
  8
0
 10
3510.7717210019009144
 20
160.5917567366147978
 30
0.0
 40
0.1181
 50
181.8559383944069907
 51
270.0
  0
LINE
  5
2C9ED
  8
0
 10
3511.4755160516237993
 20
159.2666723344975992
 30
0.0
 11
3511.4747298223192047
 21
159.289152006621606
 31
0.0
  0
LINE
  5
2C9EE
  8
0
 10
3512.379377326004942
 20
159.2666722964837049
 30
0.0
 11
3512.3801619765868054
 21
159.289152006621606
 31
0.0
  0
ARC
  5
2C9EF
  8
0
 10
3510.8931237434298964
 20
160.3557195510597069
 30
0.0
 40
0.1181263899244922
 50
119.2552214109571054
 51
183.3942156751392076
  0
LINE
  5
2C9F0
  8
0
 10
3510.8044496418669951
 20
160.0417375500919093
 30
0.0
 11
3510.8063666877719697
 21
159.4409352481422957
 31
0.0
  0
ARC
  5
2C9F1
  8
0
 10
3511.3304065450902272
 20
160.0442646704078982
 30
0.0
 40
0.5259629743488459
 50
176.827906806663492
 51
180.2752929248040061
  0
ARC
  5
2C9F2
  8
0
 10
3534.0468614718770368
 20
160.7016883927364859
 30
0.0
 40
23.18993161752433
 50
180.0726884491450051
 51
181.3987477550614926
  0
LINE
  5
2C9F3
  8
0
 10
3510.6239469306460705
 20
171.0067682967356859
 30
0.0
 11
3510.6299235851870435
 21
171.0067682967356859
 31
0.0
  0
LINE
  5
2C9F4
  8
0
 10
3510.883496376750827
 20
158.9337114644089866
 30
0.0
 11
3525.5698208203830291
 21
158.9337114644089866
 31
0.0
  0
LINE
  5
2C9F5
  8
0
 10
3518.2266585985671554
 20
143.7664271166918866
 30
0.0
 11
3523.2260674156691493
 21
143.7664271166918866
 31
0.0
  0
LINE
  5
2C9F6
  8
0
 10
3523.2260674156691493
 20
143.7664271166918866
 30
0.0
 11
3525.26222501986922
 21
156.5439446885918926
 31
0.0
  0
ARC
  5
2C9F7
  8
0
 10
3490.688084297153182
 20
162.208790664070392
 30
0.0
 40
35.0351493023804608
 50
350.6949754893078079
 51
355.2227633467034025
  0
ARC
  5
2C9F8
  8
0
 10
3525.7162340362438044
 20
173.1580949421241087
 30
0.0
 40
0.118136217958303
 50
359.8839554516853241
 51
89.9933716240360724
  0
LINE
  5
2C9F9
  8
0
 10
3525.834370011899864
 20
173.1578556739825956
 30
0.0
 11
3525.834370011899864
 21
172.8943388877129905
 31
0.0
  0
ARC
  5
2C9FA
  8
0
 10
3525.6446687469210701
 20
172.9234377771014124
 30
0.0
 40
0.191920075287467
 50
336.4381219916130021
 51
351.2791901845735083
  0
ARC
  5
2C9FB
  8
0
 10
3525.6998061857898392
 20
173.154914997603413
 30
0.0
 40
0.1213163863196209
 50
20.8978475035913611
 51
89.8897412633401132
  0
ARC
  5
2C9FC
  8
0
 10
3525.7030714680849997
 20
173.1583976437810009
 30
0.0
 40
0.1170422719056025
 50
359.8680644448511998
 51
19.8752544253663608
  0
LINE
  5
2C9FD
  8
0
 10
3525.8201134296828059
 20
173.15812812962821
 30
0.0
 11
3525.8207919962369488
 21
172.7130794368713111
 31
0.0
  0
ARC
  5
2C9FE
  8
0
 10
3532.5538710727141734
 20
160.6696935256871086
 30
0.0
 40
6.931502171826061
 50
183.3447708399349949
 51
184.9353184010990958
  0
LINE
  5
2C9FF
  8
0
 10
3525.6781188241670861
 20
160.3489063238918959
 30
0.0
 11
3525.6455303335660574
 21
159.3995637927918949
 31
0.0
  0
ARC
  5
2CA00
  8
0
 10
3524.9604311921448243
 20
159.2672788942230113
 30
0.0
 40
0.017381278015149
 50
290.8142287546436933
 51
358.0000000780985943
  0
ARC
  5
2CA01
  8
0
 10
3524.5261086363771028
 20
160.3267786344461001
 30
0.0
 40
1.1624414385346351
 50
247.7055327785101042
 51
292.2682120896490119
  0
ARC
  5
2CA02
  8
0
 10
3524.0912995346629941
 20
159.2674751706817062
 30
0.0
 40
0.0173782198456662
 50
182.6480090420479883
 51
249.1595161135095111
  0
ARC
  5
2CA03
  8
0
 10
3523.9809731844679845
 20
159.1523482030056016
 30
0.0
 40
0.4102249611886351
 50
160.5195721249567953
 51
176.7575738260061087
  0
ARC
  5
2CA04
  8
0
 10
3523.5594265665749845
 20
159.1763114130197891
 30
0.0
 40
0.0120024838641312
 50
270.7974598360927985
 51
356.3669427983984974
  0
LINE
  5
2CA05
  8
0
 10
3523.561303947369197
 20
159.1643100916919025
 30
0.0
 11
3523.5604787921702155
 21
159.1406880534173069
 31
0.0
  0
ARC
  5
2CA06
  8
0
 10
3523.5431065874531669
 20
159.1412948920340966
 30
0.0
 40
0.0173828004030615
 50
321.8771630191499185
 51
357.9993811672819106
  0
ARC
  5
2CA07
  8
0
 10
3522.3629276578908502
 20
159.1501722037278057
 30
0.0
 40
0.283794866981013
 50
5.0973222781384093
 51
29.3221288546734584
  0
ARC
  5
2CA08
  8
0
 10
3522.6577450731961108
 20
159.1764700690769985
 30
0.0
 40
0.0121931160332331
 50
185.0973222781383924
 51
265.7748115825181117
  0
LINE
  5
2CA09
  8
0
 10
3522.6557921363692003
 20
159.1643100916919025
 30
0.0
 11
3522.6566170364690151
 21
159.1406880444918954
 31
0.0
  0
ARC
  5
2CA0A
  8
0
 10
3524.6494162994599719
 20
158.5615300954592897
 30
0.0
 40
2.6169603775531369
 50
83.2141027733305663
 51
89.3817810345495474
  0
ARC
  5
2CA0B
  8
0
 10
3524.8067239681149658
 20
159.8836228754717865
 30
0.0
 40
1.2855419529868799
 50
67.195729533798584
 51
83.2135578064231254
  0
ARC
  5
2CA0C
  8
0
 10
3525.1199589036878024
 20
160.6286238997184057
 30
0.0
 40
0.4773695388375633
 50
40.053036491435023
 51
67.195729533798584
  0
ARC
  5
2CA0D
  8
0
 10
3525.1170851098509047
 20
160.6262079636975955
 30
0.0
 40
0.4811239279853309
 50
13.3285545940939603
 51
40.053036491435023
  0
ARC
  5
2CA0E
  8
0
 10
3523.5930155818618914
 20
160.3621834065075973
 30
0.0
 40
2.0272090077576048
 50
2.5786532024130699
 51
10.6584478991216294
  0
ARC
  5
2CA0F
  8
0
 10
3530.8808426878808859
 20
160.806414395928698
 30
0.0
 40
5.2744982004851613
 50
183.8377088886605009
 51
185.8885788759058926
  0
ARC
  5
2CA10
  8
0
 10
3387.4539617551731681
 20
163.6905163658942968
 30
0.0
 40
138.3804578917001891
 50
358.7152817968784007
 51
0.0485281968830379
  0
ARC
  5
2CA11
  8
0
 10
3522.6736964262468064
 20
159.1412864025311933
 30
0.0
 40
0.017089867978801
 50
182.0064753400394011
 51
218.8610996627481029
  0
LINE
  5
2CA12
  8
0
 10
3523.561303947369197
 20
159.1643100916919025
 30
0.0
 11
3522.6557921363692003
 21
159.1643100916919025
 31
0.0
  0
LINE
  5
2CA13
  8
0
 10
3523.2260674156691493
 20
143.7664271166918866
 30
0.0
 11
3518.2266585985671554
 21
143.7664271166918866
 31
0.0
  0
LINE
  5
2CA14
  8
0
 10
3523.3726219404811673
 20
144.6183267166958046
 30
0.0
 11
3523.3619076768391096
 21
144.6157295597868142
 31
0.0
  0
LINE
  5
2CA15
  8
0
 10
3523.3865594134808816
 20
144.6305379968958107
 30
0.0
 11
3523.5518448454809004
 21
145.6677556334958012
 31
0.0
  0
LINE
  5
2CA16
  8
0
 10
3523.5423931623818135
 20
145.683694084095805
 30
0.0
 11
3523.5330168951591077
 21
145.6894927236008073
 31
0.0
  0
ARC
  5
2CA17
  8
0
 10
3521.0554367030817957
 20
145.5337915100957957
 30
0.0
 40
2.5
 50
338.819858698096084
 51
3.0717027762996132
  0
ARC
  5
2CA18
  8
0
 10
3523.3679103518661577
 20
144.6377638186125125
 30
0.0
 40
0.0199999999549493
 50
283.6257807162809854
 51
338.8204929825499789
  0
ARC
  5
2CA19
  8
0
 10
3523.5318735685209504
 20
145.6666841416119098
 30
0.0
 40
0.0199999999574552
 50
3.0710684551954892
 51
58.2657807763121269
  0
ARC
  5
2CA1A
  8
0
 10
3525.5840720067308212
 20
159.3460042525198048
 30
0.0
 40
0.057710158739511
 50
279.8917371355879027
 51
350.7927708364837827
  0
ARC
  5
2CA1B
  8
0
 10
3525.1975022446958974
 20
159.4000544306641132
 30
0.0
 40
0.448028357519952
 50
351.8797985165260798
 51
359.9372551212601934
  0
ARC
  5
2CA1C
  8
0
 10
3525.7160715240738682
 20
172.6580507231113017
 30
0.0
 40
0.1182985064498257
 50
0.0321499657570801
 51
27.72111392491232
  0
ARC
  5
2CA1D
  8
0
 10
3525.6815961952320322
 20
160.5917567366147978
 30
0.0
 40
0.1181
 50
270.0
 51
358.1440616055929809
  0
LINE
  5
2CA1E
  8
0
 10
3524.9778011455091473
 20
159.2666723344975992
 30
0.0
 11
3524.9785873748141967
 21
159.289152006621606
 31
0.0
  0
LINE
  5
2CA1F
  8
0
 10
3524.0739398711280046
 20
159.2666722964837049
 30
0.0
 11
3524.0731552205470507
 21
159.289152006621606
 31
0.0
  0
ARC
  5
2CA20
  8
0
 10
3525.5601934537030502
 20
160.3557195510597069
 30
0.0
 40
0.1181263899244922
 50
356.6057843248607924
 51
60.7447785890428591
  0
LINE
  5
2CA21
  8
0
 10
3525.648867555266861
 20
160.0417375500919093
 30
0.0
 11
3525.6469505093609769
 21
159.4409352481422957
 31
0.0
  0
ARC
  5
2CA22
  8
0
 10
3525.1229106520431742
 20
160.0442646704078982
 30
0.0
 40
0.5259629743488459
 50
359.7247070751960223
 51
3.172093193336516
  0
ARC
  5
2CA23
  8
0
 10
3502.4064557252559098
 20
160.7016883927364859
 30
0.0
 40
23.18993161752433
 50
358.6012522449385074
 51
359.9273115508549949
  0
LINE
  5
2CA25
  8
0
 10
3525.617157428174778
 20
160.473656036060504
 30
0.0
 11
3525.6815961952320322
 21
160.4736567366147142
 31
0.0
  0
LINE
  5
2CA26
  8
0
 10
3524.085116930570166
 20
159.2512339289918941
 30
0.0
 11
3524.9666074399137869
 21
159.25103196254571
 31
0.0
  0
LINE
  5
2CA27
  8
0
 10
3512.3682002665641448
 20
159.2511329457686884
 30
0.0
 11
3511.4864503873841386
 21
159.2511329457686884
 31
0.0
  0
LINE
  5
2CA28
  8
0
 10
3525.834370011899864
 20
163.8077213914581876
 30
0.0
 11
3525.834370011899864
 21
172.6581171030919108
 31
0.0
  0
ENDSEC
  0
EOF
