  0
SECTION
  2
HEADER
  9
$ACADVER
  1
AC1009
  9
$INSBASE
 10
3727.0128115297898148
 20
315.8566345772654813
 30
0.0
  9
$EXTMIN
 10
3703.2475392810429184
 20
293.6038317262535884
 30
-0.0000000349181948
  9
$EXTMAX
 10
3750.6361053616587924
 20
318.3608628858532938
 30
0.0000000814935746
  9
$LIMMIN
 10
0.0
 20
0.0
  9
$LIMMAX
 10
11.6929133858000007
 20
8.2677165353999982
  9
$ORTHOMODE
 70
     0
  9
$REGENMODE
 70
     1
  9
$FILLMODE
 70
     1
  9
$QTEXTMODE
 70
     0
  9
$MIRRTEXT
 70
     0
  9
$DRAGMODE
 70
     2
  9
$LTSCALE
 40
0.6431102362
  9
$OSMODE
 70
     7
  9
$ATTMODE
 70
     1
  9
$TEXTSIZE
 40
0.2
  9
$TRACEWID
 40
0.05
  9
$TEXTSTYLE
  7
STANDARD
  9
$CLAYER
  8
0
  9
$CELTYPE
  6
BYLAYER
  9
$CECOLOR
 62
   256
  9
$DIMSCALE
 40
1.0
  9
$DIMASZ
 40
0.1875
  9
$DIMEXO
 40
0.0625
  9
$DIMDLI
 40
0.4443307087
  9
$DIMRND
 40
0.0
  9
$DIMDLE
 40
0.0
  9
$DIMEXE
 40
0.125
  9
$DIMTP
 40
0.01
  9
$DIMTM
 40
0.01
  9
$DIMTXT
 40
2.0
  9
$DIMCEN
 40
0.1052362205
  9
$DIMTSZ
 40
0.0
  9
$DIMTOL
 70
     1
  9
$DIMLIM
 70
     0
  9
$DIMTIH
 70
     1
  9
$DIMTOH
 70
     1
  9
$DIMSE1
 70
     0
  9
$DIMSE2
 70
     0
  9
$DIMTAD
 70
     0
  9
$DIMZIN
 70
     0
  9
$DIMBLK
  1

  9
$DIMASO
 70
     1
  9
$DIMSHO
 70
     1
  9
$DIMPOST
  1
\X
  9
$DIMAPOST
  1

  9
$DIMALT
 70
     1
  9
$DIMALTD
 70
     2
  9
$DIMALTF
 40
25.3999999999999986
  9
$DIMLFAC
 40
1.0
  9
$DIMTOFL
 70
     0
  9
$DIMTVP
 40
0.0
  9
$DIMTIX
 70
     0
  9
$DIMSOXD
 70
     0
  9
$DIMSAH
 70
     0
  9
$DIMBLK1
  1

  9
$DIMBLK2
  1

  9
$DIMSTYLE
  2
STANDARD
  9
$DIMCLRD
 70
     0
  9
$DIMCLRE
 70
     0
  9
$DIMCLRT
 70
     0
  9
$DIMTFAC
 40
1.0
  9
$DIMGAP
 40
0.09
  9
$LUNITS
 70
     2
  9
$LUPREC
 70
     4
  9
$SKETCHINC
 40
0.1
  9
$FILLETRAD
 40
0.0
  9
$AUNITS
 70
     0
  9
$AUPREC
 70
     0
  9
$MENU
  1
.
  9
$ELEVATION
 40
0.0
  9
$PELEVATION
 40
0.0
  9
$THICKNESS
 40
0.0
  9
$LIMCHECK
 70
     0
  9
$BLIPMODE
 70
     0
  9
$CHAMFERA
 40
0.0
  9
$CHAMFERB
 40
0.0
  9
$SKPOLY
 70
     0
  9
$TDCREATE
 40
2458060.468368056230247
  9
$TDUPDATE
 40
2459646.5823958339169621
  9
$TDINDWG
 40
1.0161991898
  9
$TDUSRTIMER
 40
1.0161991898
  9
$USRTIMER
 70
     1
  9
$ANGBASE
 50
0.0
  9
$ANGDIR
 70
     0
  9
$PDMODE
 70
     0
  9
$PDSIZE
 40
0.3125
  9
$PLINEWID
 40
0.0
  9
$COORDS
 70
     1
  9
$SPLFRAME
 70
     0
  9
$SPLINETYPE
 70
     6
  9
$SPLINESEGS
 70
     8
  9
$ATTDIA
 70
     1
  9
$ATTREQ
 70
     1
  9
$HANDLING
 70
     1
  9
$HANDSEED
  5
2D0B5
  9
$SURFTAB1
 70
     6
  9
$SURFTAB2
 70
     6
  9
$SURFTYPE
 70
     6
  9
$SURFU
 70
     6
  9
$SURFV
 70
     6
  9
$UCSNAME
  2

  9
$UCSORG
 10
0.0
 20
0.0
 30
0.0
  9
$UCSXDIR
 10
1.0
 20
0.0
 30
0.0
  9
$UCSYDIR
 10
0.0
 20
1.0
 30
0.0
  9
$PUCSNAME
  2

  9
$PUCSORG
 10
0.0
 20
0.0
 30
0.0
  9
$PUCSXDIR
 10
1.0
 20
0.0
 30
0.0
  9
$PUCSYDIR
 10
0.0
 20
1.0
 30
0.0
  9
$USERI1
 70
     0
  9
$USERI2
 70
     0
  9
$USERI3
 70
     0
  9
$USERI4
 70
     0
  9
$USERI5
 70
     0
  9
$USERR1
 40
0.0
  9
$USERR2
 40
0.0
  9
$USERR3
 40
0.0
  9
$USERR4
 40
0.0
  9
$USERR5
 40
0.0
  9
$WORLDVIEW
 70
     1
  9
$SHADEDGE
 70
     3
  9
$SHADEDIF
 70
    70
  9
$TILEMODE
 70
     1
  9
$MAXACTVP
 70
    64
  9
$PLIMCHECK
 70
     0
  9
$PEXTMIN
 10
1.0000000000000000E+20
 20
1.0000000000000000E+20
 30
1.0000000000000000E+20
  9
$PEXTMAX
 10
-1.0000000000000000E+20
 20
-1.0000000000000000E+20
 30
-1.0000000000000000E+20
  9
$PLIMMIN
 10
0.0
 20
0.0
  9
$PLIMMAX
 10
12.0
 20
9.0
  9
$UNITMODE
 70
     0
  9
$VISRETAIN
 70
     1
  9
$PLINEGEN
 70
     0
  9
$PSLTSCALE
 70
     1
  0
ENDSEC
  0
SECTION
  2
TABLES
  0
TABLE
  2
VPORT
 70
     1
  0
VPORT
  2
*ACTIVE
 70
     0
 10
0.0
 20
0.0
 11
1.0
 21
1.0
 12
463.552784235413128
 22
154.2606447303697905
 13
0.0
 23
0.0
 14
1.0
 24
1.0
 15
0.0
 25
0.0
 16
0.0
 26
0.0
 36
92.3385285193394054
 17
3263.3890380859379547
 27
151.7217025756835938
 37
0.0
 40
24.9342891392627202
 41
2.2831541218637992
 42
50.0
 43
0.0
 44
0.0
 50
0.0
 51
0.0
 71
     0
 72
   100
 73
     1
 74
     1
 75
     0
 76
     0
 77
     0
 78
     0
  0
ENDTAB
  0
TABLE
  2
LTYPE
 70
     2
  0
LTYPE
  2
CONTINUOUS
 70
     0
  3
Solid line
 72
    65
 73
     0
 40
0.0
  0
LTYPE
  2
PHANTOM2
 70
     0
  3
___ _ _ ___ _ _ ___ _ _ ___ _ _
 72
    65
 73
     6
 40
1.25
 49
0.625
 49
-0.125
 49
0.125
 49
-0.125
 49
0.125
 49
-0.125
  0
ENDTAB
  0
TABLE
  2
LAYER
 70
     2
  0
LAYER
  2
0
 70
     0
 62
   255
  6
CONTINUOUS
  0
LAYER
  2
DEFPOINTS
 70
     0
 62
     7
  6
CONTINUOUS
  0
ENDTAB
  0
TABLE
  2
STYLE
 70
     1
  0
STYLE
  2
STANDARD
 70
     0
 40
0.0
 41
0.8
 50
0.0
 71
     0
 42
0.2
  3
txt
  4

  0
ENDTAB
  0
TABLE
  2
VIEW
 70
     0
  0
ENDTAB
  0
TABLE
  2
UCS
 70
     0
  0
ENDTAB
  0
TABLE
  2
APPID
 70
    11
  0
APPID
  2
ACAD
 70
     0
  0
APPID
  2
ACAD_MLEADERVER
 70
     0
  0
APPID
  2
ACAD_EXEMPT_FROM_CAD_STANDARDS
 70
     0
  0
APPID
  2
ACAD_NAV_VCDISPLAY
 70
     0
  0
APPID
  2
ACAECLAYERSTANDARD
 70
     0
  0
APPID
  2
ACCMTRANSPARENCY
 70
     0
  0
APPID
  2
ACAD_DSTYLE_DIMJAG
 70
     0
  0
APPID
  2
ACAD_DSTYLE_DIMTALN
 70
     0
  0
APPID
  2
ACDBATTR
 70
     0
  0
APPID
  2
ACADANNOTATIVE
 70
     0
  0
APPID
  2
DCO15
 70
     0
  0
ENDTAB
  0
TABLE
  2
DIMSTYLE
 70
     1
  0
DIMSTYLE
  2
STANDARD
 70
     0
  3

  4

  5

  6

  7

 40
1.0
 41
0.1875
 42
0.0625
 43
0.38
 44
0.125
 45
0.0
 46
0.0
 47
0.01
 48
0.01
140
0.15625
141
0.09
142
0.0
143
25.3999999999999986
144
1.0
145
0.0
146
1.0
147
0.09
 71
     1
 72
     0
 73
     1
 74
     1
 75
     0
 76
     0
 77
     0
 78
     4
170
     0
171
     2
172
     0
173
     0
174
     0
175
     0
176
     0
177
     0
178
     0
  0
ENDTAB
  0
ENDSEC
  0
SECTION
  2
BLOCKS
  0
BLOCK
  8
0
  2
$MODEL_SPACE
 70
     0
 10
0.0
 20
0.0
 30
0.0
  3
$MODEL_SPACE
  1

  0
ENDBLK
  5
21
  8
0
  0
BLOCK
 67
     1
  8
0
  2
$PAPER_SPACE
 70
     0
 10
0.0
 20
0.0
 30
0.0
  3
$PAPER_SPACE
  1

  0
ENDBLK
  5
1D
 67
     1
  8
0
  0
ENDSEC
  0
SECTION
  2
ENTITIES
  0
ATTDEF
  5
2143C
  8
DEFPOINTS
 10
3727.012914059601826
 20
315.8600724919787126
 30
0.0
 40
0.001
  1
K-EX24430T-XVBW
  3

  2
MODELNUMBER
 70
     0
1001
ACDBATTR
1070
     0
1070
     1
  0
ATTDEF
  5
2143D
  8
DEFPOINTS
 10
3727.012914059601826
 20
315.8584058253119906
 30
0.0
 40
0.001
  1

  3

  2
TRADENAME
 70
     0
1001
ACDBATTR
1070
     0
1070
     1
  0
ATTDEF
  5
2143E
  8
DEFPOINTS
 10
3727.012914059601826
 20
315.8567391586453255
 30
0.0
 40
0.001
  1
BATH
  3

  2
PRODUCT
 70
     0
1001
ACDBATTR
1070
     0
1070
     1
  0
LINE
  5
2CF7F
  8
0
 10
3703.4457591649302231
 20
315.8566345772654813
 30
0.0
 11
3750.5798638946498613
 21
315.8566345772654813
 31
0.0
  0
LINE
  5
2CF80
  8
0
 10
3703.6832023641468368
 20
316.8407015445654906
 30
0.0
 11
3750.3424206954327929
 21
316.8407015445654906
 31
0.0
  0
LINE
  5
2CF81
  8
0
 10
3706.7765925988410345
 20
311.6834062307655131
 30
0.0
 11
3747.2490304607399594
 21
311.6834062307655131
 31
0.0
  0
LINE
  5
2CF82
  8
0
 10
3706.7765925988410345
 20
314.1715360464132232
 30
0.0
 11
3706.7765925988410345
 21
311.6834062307655131
 31
0.0
  0
LINE
  5
2CF83
  8
0
 10
3706.8553327560121033
 20
314.3079179992341778
 30
0.0
 11
3709.0127180352128562
 21
315.553484970965485
 31
0.0
  0
ARC
  5
2CF84
  8
0
 10
3706.9340729131899934
 20
314.1715360464132232
 30
0.0
 40
0.1574803143489332
 50
119.9999999052563027
 51
180.0000001264828029
  0
ARC
  5
2CF85
  8
0
 10
3143.7272958186840697
 20
129.1493299594951054
 30
0.0
 40
595.5241304172088803
 50
17.2164350085082383
 51
17.8490296869158804
  0
ARC
  5
2CF86
  8
0
 10
3727.8524333674731679
 20
310.0205940536865228
 30
0.0
 40
15.9635305481825007
 50
196.7731593341491134
 51
202.7651594014261889
  0
ARC
  5
2CF87
  8
0
 10
3717.7763277074859616
 20
305.7899162300531088
 30
0.0
 40
5.0352861286181749
 50
202.7412264929986065
 51
211.3944878417605082
  0
ARC
  5
2CF88
  8
0
 10
3724.1139645796401965
 20
307.8148324059383754
 30
0.0
 40
11.6073729140866195
 50
203.5911237412460082
 51
204.8081475262644062
  0
ARC
  5
2CF89
  8
0
 10
3727.3040775915487757
 20
309.353500912873983
 30
0.0
 40
15.1488033435123093
 50
205.0281414981126886
 51
208.5747132530644876
  0
ARC
  5
2CF8A
  8
0
 10
3712.4052985862999776
 20
301.3715947859710127
 30
0.0
 40
1.756863544589069
 50
19.5813630604487017
 51
24.772983126769919
  0
ARC
  5
2CF8B
  8
0
 10
3627.5708908850588159
 20
270.7974797576849255
 30
0.0
 40
91.9325285862128112
 50
18.93858633705117
 51
19.8144977259760289
  0
ARC
  5
2CF8C
  8
0
 10
3462.9337428957019256
 20
213.0048647272732865
 30
0.0
 40
266.4170678739419031
 50
18.1073690219578296
 51
19.2031979140842886
  0
ARC
  5
2CF8D
  8
0
 10
3718.2288196663780582
 20
296.464395512535873
 30
0.0
 40
2.1739116101747542
 50
197.6036859164696011
 51
237.8187424774563112
  0
ARC
  5
2CF8E
  8
0
 10
3718.2579719689460944
 20
296.5224356824850815
 30
0.0
 40
2.2385701130981852
 50
237.9784185410941006
 51
262.6768093691346166
  0
ARC
  5
2CF8F
  8
0
 10
3718.8935106358248959
 20
303.7043334212792161
 30
0.0
 40
9.4471969396572977
 50
264.4061211341671083
 51
269.6963186678199804
  0
ARC
  5
2CF90
  8
0
 10
3720.6848754436218769
 20
446.6868367813515874
 30
0.0
 40
152.4406900060697865
 50
269.3078676497617039
 51
269.9295627050918256
  0
LINE
  5
2CF91
  8
0
 10
3720.4974705906788586
 20
294.2462619695655235
 30
0.0
 11
3733.5281524688998616
 21
294.2462619695655235
 31
0.0
  0
LINE
  5
2CF92
  8
0
 10
3709.0127180352128562
 20
315.553484970965485
 30
0.0
 11
3745.0129050243667734
 21
315.553484970965485
 31
0.0
  0
ARC
  5
2CF93
  8
0
 10
3705.1948783487828223
 20
309.013575906822382
 30
0.0
 40
7.4058539692935721
 50
60.4645623247212427
 51
67.5190469665252238
  0
LINE
  5
2CF94
  8
0
 10
3703.4457591649302231
 20
315.8566345772654813
 30
0.0
 11
3703.4722090629888953
 21
316.6140605672828769
 31
0.0
  0
ARC
  5
2CF95
  8
0
 10
3703.7082856362571874
 20
316.6058165917943938
 30
0.0
 40
0.2362204723940107
 50
96.0954928586314878
 51
178.0000000264195137
  0
ARC
  5
2CF96
  8
0
 10
3713.7149996827988616
 20
303.4829400519766978
 30
0.0
 40
0.3705689358552012
 50
220.4105888092948078
 51
250.3951228812559862
  0
ARC
  5
2CF97
  8
0
 10
3715.1284715043238975
 20
307.7351022014426007
 30
0.0
 40
4.8514274632011682
 50
251.5195642600411077
 51
261.4436577453220139
  0
ARC
  5
2CF98
  8
0
 10
3722.0184177346250181
 20
369.5587894014216204
 30
0.0
 40
67.0545462565447963
 50
263.4819736362272238
 51
268.4335276419287766
  0
ARC
  5
2CF99
  8
0
 10
3730.0561246950201166
 20
293.8647043582096217
 30
0.0
 40
0.3953750102676987
 50
105.1921467796141059
 51
156.2825028499680968
  0
LINE
  5
2CF9A
  8
0
 10
3728.4081322882220775
 20
293.6162976869654813
 30
0.0
 11
3725.6174907713589164
 21
293.6162976869654813
 31
0.0
  0
LINE
  5
2CF9B
  8
0
 10
3729.2332186044209266
 20
293.7344079232655076
 30
0.0
 11
3724.7923386029629
 21
293.7344079232655076
 31
0.0
  0
ARC
  5
2CF9C
  8
0
 10
3729.2332186044582159
 20
294.2462189468654969
 30
0.0
 40
0.511811023600004
 50
269.9999999958832859
 51
334.2338338281987831
  0
ARC
  5
2CF9D
  8
0
 10
3728.6892908879590323
 20
293.537557529565504
 30
0.0
 40
0.1968503937000318
 50
90.0
 51
135.5729959993958005
  0
ARC
  5
2CF9E
  8
0
 10
3728.4081322882220775
 20
293.8131480809288973
 30
0.0
 40
0.1968503939633346
 50
270.0000000398381985
 51
315.5729959993958005
  0
ARC
  5
2CF9F
  8
0
 10
3723.9593469999690569
 20
293.8519572394400257
 30
0.0
 40
0.4114882609281194
 50
29.1663458566094
 51
73.3835540503559827
  0
ARC
  5
2CFA0
  8
0
 10
3724.7923715291440203
 20
294.246186285495412
 30
0.0
 40
0.5117783632890585
 50
202.2387960716579016
 51
269.9963137732128189
  0
ARC
  5
2CFA1
  8
0
 10
3725.6174907713589164
 20
293.8131480806655986
 30
0.0
 40
0.1968503937000099
 50
224.4270040007965861
 51
270.0
  0
ARC
  5
2CFA2
  8
0
 10
3725.3363321713209189
 20
293.5375575290054257
 30
0.0
 40
0.1968503943858874
 50
44.4270040007966003
 51
89.9979520661974846
  0
ARC
  5
2CFA3
  8
0
 10
3701.8860587645931446
 20
324.2889749871832237
 30
0.0
 40
8.6823687078103582
 50
300.9226402433292265
 51
310.582344087457102
  0
ARC
  5
2CFA4
  8
0
 10
3702.5518177899480179
 20
323.5232100336634176
 30
0.0
 40
7.667692426975095
 50
310.5265680079954791
 51
315.5727338379418256
  0
ARC
  5
2CFA5
  8
0
 10
3708.2108111472421115
 20
317.9758862702835813
 30
0.0
 40
0.2567639341505834
 50
120.5092328573845037
 51
135.5169577584765079
  0
ARC
  5
2CFA6
  8
0
 10
3708.3430125474519627
 20
317.7453247425269751
 30
0.0
 40
0.5225287605968251
 50
108.0750806471815935
 51
120.1634942976139939
  0
ARC
  5
2CFA7
  8
0
 10
3708.5414296057410866
 20
317.0871640116732806
 30
0.0
 40
1.2098715206574391
 50
96.2323894575132783
 51
107.3373535397534937
  0
ARC
  5
2CFA8
  8
0
 10
3708.7242852182098432
 20
315.3603965435813166
 30
0.0
 40
2.9462899007895049
 50
88.1049357361399217
 51
96.1218289377842581
  0
ARC
  5
2CFA9
  8
0
 10
3708.5456480183688655
 20
311.2383316071993136
 30
0.0
 40
7.0721337828309263
 50
79.3893369138414045
 51
87.7628296102423349
  0
ARC
  5
2CFAA
  8
0
 10
3708.0853472281560244
 20
308.4619637347922207
 30
0.0
 40
9.8859607997048684
 50
71.6291944320754368
 51
79.7300915955052147
  0
ARC
  5
2CFAB
  8
0
 10
3709.3594090171382049
 20
312.1694127753510202
 30
0.0
 40
5.9660538114315118
 50
63.0355864135474135
 51
72.0197902972308697
  0
ARC
  5
2CFAC
  8
0
 10
3710.8437865535152014
 20
315.1454159828069805
 30
0.0
 40
2.6406373738220701
 50
56.5628247207113617
 51
62.4622882258117471
  0
ARC
  5
2CFAD
  8
0
 10
3711.5793477265519869
 20
316.2526179104286257
 30
0.0
 40
1.311382547123003
 50
47.22678491456373
 51
56.7256125120414865
  0
ARC
  5
2CFAE
  8
0
 10
3712.0890340369351179
 20
316.8047402962802153
 30
0.0
 40
0.5599720587201031
 50
31.4995781827394801
 51
47.1437618973785106
  0
ARC
  5
2CFAF
  8
0
 10
3712.3466863020021265
 20
316.9700589463265032
 30
0.0
 40
0.2539877357200042
 50
16.8263462647307307
 51
30.0699810217052601
  0
ARC
  5
2CFB0
  8
0
 10
3713.1435128005459774
 20
317.2093856613224148
 30
0.0
 40
0.5780043558143503
 50
196.6698606309427078
 51
208.802389665004398
  0
ARC
  5
2CFB1
  8
0
 10
3713.2036248472541047
 20
317.2437974783600225
 30
0.0
 40
0.6472601128552133
 50
208.9080139035702928
 51
218.5188962852112127
  0
ARC
  5
2CFB2
  8
0
 10
3708.3386570271600249
 20
317.8935491915268017
 30
0.0
 40
0.39850997019906
 50
109.8307576765591023
 51
130.3843003227975998
  0
ARC
  5
2CFB3
  8
0
 10
3708.5820974187508909
 20
317.2548094400390255
 30
0.0
 40
1.082027216814645
 50
100.7684448723766053
 51
110.4829380510157932
  0
ARC
  5
2CFB4
  8
0
 10
3708.7654599026359392
 20
316.3184235502765773
 30
0.0
 40
2.0361897199368642
 50
95.8528345393535091
 51
100.9141727945954017
  0
ARC
  5
2CFB5
  8
0
 10
3708.9012261322009181
 20
314.4779858768296208
 30
0.0
 40
3.8812346370997819
 50
87.0548597029102211
 51
95.076054922941367
  0
ARC
  5
2CFB6
  8
0
 10
3708.7170806698568413
 20
311.4012804279591933
 30
0.0
 40
6.9633855626332313
 50
79.4491244250312008
 51
86.8423931941988485
  0
ARC
  5
2CFB7
  8
0
 10
3708.5088014522889353
 20
310.1961857317577937
 30
0.0
 40
8.1862585199178035
 50
71.0786578605618757
 51
79.5604462753857007
  0
ARC
  5
2CFB8
  8
0
 10
3709.3705610966649147
 20
312.6113218009745083
 30
0.0
 40
5.6222738603137579
 50
62.0120490320937918
 51
71.4051588393852938
  0
ARC
  5
2CFB9
  8
0
 10
3712.2388306790871866
 20
316.9778766270208052
 30
0.0
 40
0.3539515521323693
 50
14.6581544841211802
 51
43.6429636278205493
  0
ARC
  5
2CFBA
  8
0
 10
3711.5284715705579401
 20
316.3246072185144158
 30
0.0
 40
1.3189845010031129
 50
42.8818082625585504
 51
55.317160559064213
  0
ARC
  5
2CFBB
  8
0
 10
3710.6991086188309055
 20
315.1540521737405811
 30
0.0
 40
2.753529978856319
 50
54.986050859634048
 51
61.5938340277441014
  0
LINE
  5
2CFBC
  8
0
 10
3706.8553327562399318
 20
314.3079179993655998
 30
0.0
 11
3747.1702903033410621
 21
314.3079179993655998
 31
0.0
  0
LINE
  5
2CFBD
  8
0
 10
3747.2490304607399594
 20
314.1715360464132232
 30
0.0
 11
3747.2490304607399594
 21
311.6834062307655131
 31
0.0
  0
LINE
  5
2CFBE
  8
0
 10
3747.170290303567981
 20
314.3079179992341778
 30
0.0
 11
3745.0129050243667734
 21
315.553484970965485
 31
0.0
  0
ARC
  5
2CFBF
  8
0
 10
3747.0915501463919099
 20
314.1715360464132232
 30
0.0
 40
0.1574803143489332
 50
359.9999998735154918
 51
60.0000000947436689
  0
ARC
  5
2CFC0
  8
0
 10
4310.29832724089556
 20
129.1493299594951054
 30
0.0
 40
595.5241304172088803
 50
162.1509703130840876
 51
162.7835649914918008
  0
ARC
  5
2CFC1
  8
0
 10
3726.1731896921069165
 20
310.0205940536865228
 30
0.0
 40
15.9635305481825007
 50
337.2348405985737827
 51
343.2268406658508866
  0
ARC
  5
2CFC2
  8
0
 10
3736.2492953520941228
 20
305.7899162300531088
 30
0.0
 40
5.0352861286181749
 50
328.6055121582394918
 51
337.2587735070013082
  0
ARC
  5
2CFC3
  8
0
 10
3729.9116584799398879
 20
307.8148324059383754
 30
0.0
 40
11.6073729140866195
 50
335.1918524737357075
 51
336.4088762587539918
  0
ARC
  5
2CFC4
  8
0
 10
3726.721545468030854
 20
309.353500912873983
 30
0.0
 40
15.1488033435123093
 50
331.4252867469355124
 51
334.9718585018887893
  0
ARC
  5
2CFC5
  8
0
 10
3741.6203244732801068
 20
301.3715947859710127
 30
0.0
 40
1.756863544589069
 50
155.2270168732300988
 51
160.4186369395513054
  0
ARC
  5
2CFC6
  8
0
 10
3826.454732174522178
 20
270.7974797576849255
 30
0.0
 40
91.9325285862128112
 50
160.1855022740238894
 51
161.0614136629488087
  0
ARC
  5
2CFC7
  8
0
 10
3991.0918801638781588
 20
213.0048647272732865
 30
0.0
 40
266.4170678739419031
 50
160.7968020859156866
 51
161.8926309780422059
  0
ARC
  5
2CFC8
  8
0
 10
3735.7968033932029357
 20
296.464395512535873
 30
0.0
 40
2.1739116101747542
 50
302.181257522543774
 51
342.3963140835302852
  0
ARC
  5
2CFC9
  8
0
 10
3735.7676510906348994
 20
296.5224356824850815
 30
0.0
 40
2.2385701130981852
 50
277.3231906308653834
 51
302.0215814589059278
  0
ARC
  5
2CFCA
  8
0
 10
3735.132112423756098
 20
303.7043334212792161
 30
0.0
 40
9.4471969396572977
 50
270.3036813321800196
 51
275.5938788658328917
  0
ARC
  5
2CFCB
  8
0
 10
3733.340747615959117
 20
446.6868367813515874
 30
0.0
 40
152.4406900060697865
 50
270.0704372949081176
 51
270.6921323502382961
  0
ARC
  5
2CFCC
  8
0
 10
3748.8307447107968073
 20
309.013575906822382
 30
0.0
 40
7.4058539692935721
 50
112.4809530334747052
 51
119.5354376752787005
  0
LINE
  5
2CFCD
  8
0
 10
3750.5798638946498613
 20
315.8566345772654813
 30
0.0
 11
3750.5534139965911891
 21
316.6140605672828769
 31
0.0
  0
ARC
  5
2CFCE
  8
0
 10
3750.3173374233228969
 20
316.6058165917943938
 30
0.0
 40
0.2362204723940107
 50
1.9999999735804559
 51
83.9045071413685264
  0
ARC
  5
2CFCF
  8
0
 10
3740.3106233767821323
 20
303.4829400519766978
 30
0.0
 40
0.3705689358552012
 50
289.6048771187440138
 51
319.5894111907052206
  0
ARC
  5
2CFD0
  8
0
 10
3738.8971515552561868
 20
307.7351022014426007
 30
0.0
 40
4.8514274632011682
 50
278.5563422546779861
 51
288.4804357399589207
  0
ARC
  5
2CFD1
  8
0
 10
3732.0072053249550663
 20
369.5587894014216204
 30
0.0
 40
67.0545462565447963
 50
271.5664723580712234
 51
276.5180263637727762
  0
ARC
  5
2CFD2
  8
0
 10
3752.1395642949869398
 20
324.2889749871832237
 30
0.0
 40
8.6823687078103582
 50
229.417655912542898
 51
239.0773597566715978
  0
ARC
  5
2CFD3
  8
0
 10
3751.473805269632976
 20
323.5232100336634176
 30
0.0
 40
7.667692426975095
 50
224.4272661620582028
 51
229.4734319920044925
  0
ARC
  5
2CFD4
  8
0
 10
3745.8148119123388824
 20
317.9758862702835813
 30
0.0
 40
0.2567639341505834
 50
44.4830422415234565
 51
59.4907671426146365
  0
ARC
  5
2CFD5
  8
0
 10
3745.6826105121299406
 20
317.7453247425269751
 30
0.0
 40
0.5225287605968251
 50
59.8365057023860203
 51
71.9249193528184065
  0
ARC
  5
2CFD6
  8
0
 10
3745.4841934538380883
 20
317.0871640116732806
 30
0.0
 40
1.2098715206574391
 50
72.6626464602465347
 51
83.7676105424867359
  0
ARC
  5
2CFD7
  8
0
 10
3745.3013378413697865
 20
315.3603965435813166
 30
0.0
 40
2.9462899007895049
 50
83.8781710622157277
 51
91.8950642638600783
  0
ARC
  5
2CFD8
  8
0
 10
3745.4799750412121284
 20
311.2383316071993136
 30
0.0
 40
7.0721337828309263
 50
92.2371703897576936
 51
100.6106630861585955
  0
ARC
  5
2CFD9
  8
0
 10
3745.9402758314249695
 20
308.4619637347922207
 30
0.0
 40
9.8859607997048684
 50
100.2699084044947995
 51
108.3708055679245064
  0
ARC
  5
2CFDA
  8
0
 10
3744.6662140424418794
 20
312.1694127753510202
 30
0.0
 40
5.9660538114315118
 50
107.9802097027691019
 51
116.9644135864286056
  0
ARC
  5
2CFDB
  8
0
 10
3743.181836506064883
 20
315.1454159828069805
 30
0.0
 40
2.6406373738220701
 50
117.537711774188196
 51
123.4371752792885957
  0
ARC
  5
2CFDC
  8
0
 10
3742.4462753330280975
 20
316.2526179104286257
 30
0.0
 40
1.311382547123003
 50
123.2743874879585064
 51
132.7732150854361919
  0
ARC
  5
2CFDD
  8
0
 10
3741.9365890226449665
 20
316.8047402962802153
 30
0.0
 40
0.5599720587201031
 50
132.8562381026214894
 51
148.5004218172605022
  0
ARC
  5
2CFDE
  8
0
 10
3741.6789367575779579
 20
316.9700589463265032
 30
0.0
 40
0.2539877357200042
 50
149.9300189782946973
 51
163.1736537352707899
  0
ARC
  5
2CFDF
  8
0
 10
3740.8821102590350165
 20
317.2093856613224148
 30
0.0
 40
0.5780043558143503
 50
331.1976103349957157
 51
343.3301393690572922
  0
ARC
  5
2CFE0
  8
0
 10
3740.8219982123259797
 20
317.2437974783600225
 30
0.0
 40
0.6472601128552133
 50
321.4811037147887873
 51
331.0919860964281725
  0
ARC
  5
2CFE1
  8
0
 10
3745.68696603241915
 20
317.8935491915268017
 30
0.0
 40
0.39850997019906
 50
49.6156996772023788
 51
70.1692423234408693
  0
ARC
  5
2CFE2
  8
0
 10
3745.4435256408291934
 20
317.2548094400390255
 30
0.0
 40
1.082027216814645
 50
69.5170619489842352
 51
79.2315551276233663
  0
ARC
  5
2CFE3
  8
0
 10
3745.2601631569441452
 20
316.3184235502765773
 30
0.0
 40
2.0361897199368642
 50
79.0858272054046125
 51
84.1471654606464909
  0
ARC
  5
2CFE4
  8
0
 10
3745.1243969273791663
 20
314.4779858768296208
 30
0.0
 40
3.8812346370997819
 50
84.923945077058633
 51
92.9451402970897931
  0
ARC
  5
2CFE5
  8
0
 10
3745.3085423897241526
 20
311.4012804279591933
 30
0.0
 40
6.9633855626332313
 50
93.1576068058011373
 51
100.5508755749687992
  0
ARC
  5
2CFE6
  8
0
 10
3745.5168216072911491
 20
310.1961857317577937
 30
0.0
 40
8.1862585199178035
 50
100.4395537246142993
 51
108.9213421394380958
  0
ARC
  5
2CFE7
  8
0
 10
3744.6550619629151697
 20
312.6113218009745083
 30
0.0
 40
5.6222738603137579
 50
108.5948411606147062
 51
117.9879509679062011
  0
ARC
  5
2CFE8
  8
0
 10
3741.7867923804928978
 20
316.9778766270208052
 30
0.0
 40
0.3539515521323693
 50
136.3570363721794081
 51
165.3418455158787879
  0
ARC
  5
2CFE9
  8
0
 10
3742.4971514890221442
 20
316.3246072185144158
 30
0.0
 40
1.3189845010031129
 50
124.6828394409357941
 51
137.118191737441407
  0
ARC
  5
2CFEA
  8
0
 10
3743.3265144407500884
 20
315.1540521737405811
 30
0.0
 40
2.753529978856319
 50
118.4061659722559057
 51
125.0139491403658951
  0
ARC
  5
2CFEB
  8
0
 10
3727.0128115297889053
 20
519.0614689918354543
 30
0.0
 40
216.6397772157698967
 50
268.1940136664933902
 51
271.8059863335064961
  0
ENDSEC
  0
EOF
