  0
SECTION
  2
HEADER
  9
$ACADVER
  1
AC1009
  9
$INSBASE
 10
4680.7251533105381895
 20
266.7119236195849794
 30
0.0
  9
$EXTMIN
 10
4679.432006820407878
 20
260.0976817468661011
 30
0.0
  9
$EXTMAX
 10
4682.0183372543342557
 20
268.0024061665100135
 30
0.0
  9
$LIMMIN
 10
0.0
 20
0.0
  9
$LIMMAX
 10
11.6929133858000007
 20
8.2677165353999982
  9
$ORTHOMODE
 70
     0
  9
$REGENMODE
 70
     1
  9
$FILLMODE
 70
     1
  9
$QTEXTMODE
 70
     0
  9
$MIRRTEXT
 70
     0
  9
$DRAGMODE
 70
     2
  9
$LTSCALE
 40
0.6431102362
  9
$OSMODE
 70
  4095
  9
$ATTMODE
 70
     1
  9
$TEXTSIZE
 40
0.2
  9
$TRACEWID
 40
0.05
  9
$TEXTSTYLE
  7
STANDARD
  9
$CLAYER
  8
0
  9
$CELTYPE
  6
BYLAYER
  9
$CECOLOR
 62
   256
  9
$DIMSCALE
 40
1.0
  9
$DIMASZ
 40
0.1875
  9
$DIMEXO
 40
0.0625
  9
$DIMDLI
 40
0.4443307087
  9
$DIMRND
 40
0.0
  9
$DIMDLE
 40
0.0
  9
$DIMEXE
 40
0.125
  9
$DIMTP
 40
0.01
  9
$DIMTM
 40
0.01
  9
$DIMTXT
 40
2.0
  9
$DIMCEN
 40
0.1052362205
  9
$DIMTSZ
 40
0.0
  9
$DIMTOL
 70
     1
  9
$DIMLIM
 70
     0
  9
$DIMTIH
 70
     1
  9
$DIMTOH
 70
     1
  9
$DIMSE1
 70
     0
  9
$DIMSE2
 70
     0
  9
$DIMTAD
 70
     0
  9
$DIMZIN
 70
     0
  9
$DIMBLK
  1

  9
$DIMASO
 70
     1
  9
$DIMSHO
 70
     1
  9
$DIMPOST
  1
\X
  9
$DIMAPOST
  1

  9
$DIMALT
 70
     1
  9
$DIMALTD
 70
     2
  9
$DIMALTF
 40
25.3999999999999986
  9
$DIMLFAC
 40
1.0
  9
$DIMTOFL
 70
     0
  9
$DIMTVP
 40
0.0
  9
$DIMTIX
 70
     0
  9
$DIMSOXD
 70
     0
  9
$DIMSAH
 70
     0
  9
$DIMBLK1
  1

  9
$DIMBLK2
  1

  9
$DIMSTYLE
  2
STANDARD
  9
$DIMCLRD
 70
     0
  9
$DIMCLRE
 70
     0
  9
$DIMCLRT
 70
     0
  9
$DIMTFAC
 40
1.0
  9
$DIMGAP
 40
0.09
  9
$LUNITS
 70
     2
  9
$LUPREC
 70
     4
  9
$SKETCHINC
 40
0.1
  9
$FILLETRAD
 40
0.0
  9
$AUNITS
 70
     0
  9
$AUPREC
 70
     0
  9
$MENU
  1
.
  9
$ELEVATION
 40
0.0
  9
$PELEVATION
 40
0.0
  9
$THICKNESS
 40
0.0
  9
$LIMCHECK
 70
     0
  9
$BLIPMODE
 70
     0
  9
$CHAMFERA
 40
0.0
  9
$CHAMFERB
 40
0.0
  9
$SKPOLY
 70
     0
  9
$TDCREATE
 40
2458060.468368056230247
  9
$TDUPDATE
 40
2459455.8083449080586433
  9
$TDINDWG
 40
0.5079584491
  9
$TDUSRTIMER
 40
0.5079584491
  9
$USRTIMER
 70
     1
  9
$ANGBASE
 50
0.0
  9
$ANGDIR
 70
     0
  9
$PDMODE
 70
     0
  9
$PDSIZE
 40
0.3125
  9
$PLINEWID
 40
0.0
  9
$COORDS
 70
     1
  9
$SPLFRAME
 70
     0
  9
$SPLINETYPE
 70
     6
  9
$SPLINESEGS
 70
     8
  9
$ATTDIA
 70
     1
  9
$ATTREQ
 70
     1
  9
$HANDLING
 70
     1
  9
$HANDSEED
  5
24411
  9
$SURFTAB1
 70
     6
  9
$SURFTAB2
 70
     6
  9
$SURFTYPE
 70
     6
  9
$SURFU
 70
     6
  9
$SURFV
 70
     6
  9
$UCSNAME
  2

  9
$UCSORG
 10
0.0
 20
0.0
 30
0.0
  9
$UCSXDIR
 10
1.0
 20
0.0
 30
0.0
  9
$UCSYDIR
 10
0.0
 20
1.0
 30
0.0
  9
$PUCSNAME
  2

  9
$PUCSORG
 10
0.0
 20
0.0
 30
0.0
  9
$PUCSXDIR
 10
1.0
 20
0.0
 30
0.0
  9
$PUCSYDIR
 10
0.0
 20
1.0
 30
0.0
  9
$USERI1
 70
     0
  9
$USERI2
 70
     0
  9
$USERI3
 70
     0
  9
$USERI4
 70
     0
  9
$USERI5
 70
     0
  9
$USERR1
 40
0.0
  9
$USERR2
 40
0.0
  9
$USERR3
 40
0.0
  9
$USERR4
 40
0.0
  9
$USERR5
 40
0.0
  9
$WORLDVIEW
 70
     1
  9
$SHADEDGE
 70
     3
  9
$SHADEDIF
 70
    70
  9
$TILEMODE
 70
     1
  9
$MAXACTVP
 70
    64
  9
$PLIMCHECK
 70
     0
  9
$PEXTMIN
 10
1.0000000000000000E+20
 20
1.0000000000000000E+20
 30
1.0000000000000000E+20
  9
$PEXTMAX
 10
-1.0000000000000000E+20
 20
-1.0000000000000000E+20
 30
-1.0000000000000000E+20
  9
$PLIMMIN
 10
0.0
 20
0.0
  9
$PLIMMAX
 10
12.0
 20
9.0
  9
$UNITMODE
 70
     0
  9
$VISRETAIN
 70
     1
  9
$PLINEGEN
 70
     0
  9
$PSLTSCALE
 70
     1
  0
ENDSEC
  0
SECTION
  2
TABLES
  0
TABLE
  2
VPORT
 70
     1
  0
VPORT
  2
*ACTIVE
 70
     0
 10
0.0
 20
0.0
 11
1.0
 21
1.0
 12
769.3598155920584531
 22
132.1155291490763943
 13
0.0
 23
0.0
 14
1.0
 24
1.0
 15
0.0
 25
0.0
 16
0.0
 26
0.0
 36
60.4960186965801583
 17
3911.3653564453120453
 27
132.5796051025390057
 37
0.0
 40
9.2630491855302122
 41
2.3493253373313339
 42
50.0
 43
0.0
 44
0.0
 50
0.0
 51
0.0
 71
     0
 72
   100
 73
     1
 74
     1
 75
     0
 76
     0
 77
     0
 78
     0
  0
ENDTAB
  0
TABLE
  2
LTYPE
 70
     2
  0
LTYPE
  2
CONTINUOUS
 70
     0
  3
Solid line
 72
    65
 73
     0
 40
0.0
  0
LTYPE
  2
PHANTOM2
 70
     0
  3
___ _ _ ___ _ _ ___ _ _ ___ _ _
 72
    65
 73
     6
 40
1.25
 49
0.625
 49
-0.125
 49
0.125
 49
-0.125
 49
0.125
 49
-0.125
  0
ENDTAB
  0
TABLE
  2
LAYER
 70
     2
  0
LAYER
  2
0
 70
     0
 62
   255
  6
CONTINUOUS
  0
LAYER
  2
DEFPOINTS
 70
     0
 62
     7
  6
CONTINUOUS
  0
ENDTAB
  0
TABLE
  2
STYLE
 70
     1
  0
STYLE
  2
STANDARD
 70
     0
 40
0.0
 41
0.8
 50
0.0
 71
     0
 42
0.2
  3
txt
  4

  0
ENDTAB
  0
TABLE
  2
VIEW
 70
     0
  0
ENDTAB
  0
TABLE
  2
UCS
 70
     0
  0
ENDTAB
  0
TABLE
  2
APPID
 70
    11
  0
APPID
  2
ACAD
 70
     0
  0
APPID
  2
ACAD_MLEADERVER
 70
     0
  0
APPID
  2
ACAD_EXEMPT_FROM_CAD_STANDARDS
 70
     0
  0
APPID
  2
ACAD_NAV_VCDISPLAY
 70
     0
  0
APPID
  2
ACAECLAYERSTANDARD
 70
     0
  0
APPID
  2
ACCMTRANSPARENCY
 70
     0
  0
APPID
  2
ACAD_DSTYLE_DIMJAG
 70
     0
  0
APPID
  2
ACAD_DSTYLE_DIMTALN
 70
     0
  0
APPID
  2
ACDBATTR
 70
     0
  0
APPID
  2
ACADANNOTATIVE
 70
     0
  0
APPID
  2
DCO15
 70
     0
  0
ENDTAB
  0
TABLE
  2
DIMSTYLE
 70
     1
  0
DIMSTYLE
  2
STANDARD
 70
     0
  3

  4

  5

  6

  7

 40
1.0
 41
0.1875
 42
0.0625
 43
0.38
 44
0.125
 45
0.0
 46
0.0
 47
0.01
 48
0.01
140
0.15625
141
0.09
142
0.0
143
25.3999999999999986
144
1.0
145
0.0
146
1.0
147
0.09
 71
     1
 72
     0
 73
     1
 74
     1
 75
     0
 76
     0
 77
     0
 78
     4
170
     0
171
     2
172
     0
173
     0
174
     0
175
     0
176
     0
177
     0
178
     0
  0
ENDTAB
  0
ENDSEC
  0
SECTION
  2
BLOCKS
  0
BLOCK
  8
0
  2
$MODEL_SPACE
 70
     0
 10
0.0
 20
0.0
 30
0.0
  3
$MODEL_SPACE
  1

  0
ENDBLK
  5
21
  8
0
  0
BLOCK
 67
     1
  8
0
  2
$PAPER_SPACE
 70
     0
 10
0.0
 20
0.0
 30
0.0
  3
$PAPER_SPACE
  1

  0
ENDBLK
  5
1D
 67
     1
  8
0
  0
BLOCK
  8
0
  2
_CLOSED
 70
     0
 10
0.0
 20
0.0
 30
0.0
  3
_CLOSED
  1

  0
LINE
  5
240E5
  8
0
  6
BYBLOCK
 62
     0
 10
0.0
 20
0.0
 30
0.0
 11
-1.0
 21
0.1666666667
 31
0.0
  0
LINE
  5
240E6
  8
0
  6
BYBLOCK
 62
     0
 10
-1.0
 20
0.1666666667
 30
0.0
 11
-1.0
 21
-0.1666666667
 31
0.0
  0
LINE
  5
240E7
  8
0
  6
BYBLOCK
 62
     0
 10
-1.0
 20
-0.1666666667
 30
0.0
 11
0.0
 21
0.0
 31
0.0
  0
LINE
  5
240E8
  8
0
  6
BYBLOCK
 62
     0
 10
-1.0
 20
0.0
 30
0.0
 11
0.0
 21
0.0
 31
0.0
  0
ENDBLK
  5
240E9
  8
0
  6
BYBLOCK
 62
     0
  0
ENDSEC
  0
SECTION
  2
ENTITIES
  0
LINE
  5
24132
  8
0
 10
4680.2427306068429971
 20
260.4390525281452824
 30
0.0
 11
4680.2426646143867401
 21
265.7965908321726261
 31
0.0
  0
ARC
  5
24133
  8
0
 10
4680.9451505113493113
 20
260.9348440888492746
 30
0.0
 40
0.8669185575961936
 50
216.6306017291337014
 51
254.528735872394293
  0
ARC
  5
24134
  8
0
 10
4680.2958907574402474
 20
260.4439160176432893
 30
0.0
 40
0.0533821612672582
 50
185.2272961825871107
 51
209.5436050012872045
  0
ARC
  5
24135
  8
0
 10
4680.7256821980363384
 20
260.140341575151183
 30
0.0
 40
0.0426631547076939
 50
253.9622347751615052
 51
269.2845114595255041
  0
ARC
  5
24136
  8
0
 10
4680.8742875634816301
 20
268.7706349885394275
 30
0.0
 40
3.364963103520203
 50
253.8861662937136998
 51
259.1810069904544775
  0
ARC
  5
24137
  8
0
 10
4679.9512301696768191
 20
265.57738944806988
 30
0.0
 40
0.0409850642022722
 50
211.2779750208158873
 51
254.6102874684193011
  0
ARC
  5
24138
  8
0
 10
4682.104867012952127
 20
267.0909434462938066
 30
0.0
 40
2.6731942189240421
 50
180.9295732308584093
 51
215.0406147498696043
  0
ARC
  5
24139
  8
0
 10
4679.4748033423047673
 20
267.0488089042494266
 30
0.0
 40
0.0427965218976199
 50
142.3378689582548873
 51
181.6519832628183053
  0
ARC
  5
2413A
  8
0
 10
4681.5678333731812018
 20
265.4826897185977828
 30
0.0
 40
2.6568918198774969
 50
108.4916328982796045
 51
143.1803677548111864
  0
ARC
  5
2413B
  8
0
 10
4680.7247944951668615
 20
267.1955652488144892
 30
0.0
 40
1.398015327688809
 50
247.7141572353494894
 51
270.0147055669069118
  0
ARC
  5
2413C
  8
0
 10
4681.322695015552199
 20
266.8396831859872123
 30
0.0
 40
1.4701694807700421
 50
181.3621726998763108
 51
219.1145718654379095
  0
ARC
  5
2413D
  8
0
 10
4682.4564979135720932
 20
266.7757220912782827
 30
0.0
 40
2.6037185506725469
 50
176.9349023543518911
 51
179.3615672875413054
  0
ARC
  5
2413E
  8
0
 10
4679.8968808804629589
 20
266.9118337234443743
 30
0.0
 40
0.0404963513464734
 50
144.5568130486589951
 51
175.5946831634578871
  0
ARC
  5
2413F
  8
0
 10
4681.0193717160800588
 20
266.2376440150680992
 30
0.0
 40
1.349773580821849
 50
103.0622373175217064
 51
148.8766817779373071
  0
ARC
  5
24140
  8
0
 10
4680.7251610951270777
 20
267.51476228652092
 30
0.0
 40
0.0392594008643354
 50
74.0343019129391564
 51
106.0447022154058061
  0
ARC
  5
24141
  8
0
 10
4680.7053793791637872
 20
267.4218347170623247
 30
0.0
 40
0.1498480168543262
 50
89.5034606770991985
 51
140.7136198140941019
  0
LINE
  5
24142
  8
0
 10
4680.7066779826918719
 20
267.5716771068725848
 30
0.0
 11
4680.7436286383817787
 21
267.5716771068725848
 31
0.0
  0
ARC
  5
24143
  8
0
 10
4680.7238237846750053
 20
267.203154511475816
 30
0.0
 40
1.2932636570278551
 50
249.0322853120842126
 51
270.0589023233785042
  0
ARC
  5
24144
  8
0
 10
4680.2870640585515503
 20
266.0474146364272201
 30
0.0
 40
0.0580472796452762
 50
224.5185746691811914
 51
243.3636584611789999
  0
ARC
  5
24145
  8
0
 10
4681.2527187618898097
 20
266.8178457335413896
 30
0.0
 40
1.2930853213834259
 50
177.0291687060193055
 51
218.8499478182482108
  0
ARC
  5
24146
  8
0
 10
4680.018770241979837
 20
266.8761391537478858
 30
0.0
 40
0.0580581532840896
 50
152.5161003808132989
 51
171.3577909942268036
  0
ARC
  5
24147
  8
0
 10
4681.0500681734647515
 20
266.1955725824968795
 30
0.0
 40
1.2933763913362051
 50
105.034349008339305
 51
146.8447226690286129
  0
ARC
  5
24148
  8
0
 10
4680.7240170318564196
 20
267.3873572670750036
 30
0.0
 40
0.0580935329319427
 50
88.8792534830142245
 51
99.3600360810759327
  0
ARC
  5
24149
  8
0
 10
4680.0964082837872411
 20
265.7935663537458026
 30
0.0
 40
0.1462875993058772
 50
1.184667721368422
 51
54.1851331738152666
  0
LINE
  5
2414A
  8
0
 10
4680.4010485258877452
 20
265.7746741574725888
 30
0.0
 11
4680.4010495421880478
 21
262.9171831794726018
 31
0.0
  0
ARC
  5
2414B
  8
0
 10
4680.3237005544451677
 20
265.7757258518219032
 30
0.0
 40
0.07735512101525
 50
359.2210017478399777
 51
74.9684079021774323
  0
LINE
  5
2414C
  8
0
 10
4680.4797928634880009
 20
262.8435499671725779
 30
0.0
 11
4680.9705136980874158
 21
262.8435499671725779
 31
0.0
  0
LINE
  5
2414D
  8
0
 10
4680.4562007439881199
 20
262.8515839170726167
 30
0.0
 11
4680.4114556989879929
 21
262.8927222003725888
 31
0.0
  0
ARC
  5
2414E
  8
0
 10
4680.4784543290452348
 20
262.878276019202076
 30
0.0
 40
0.0347518397211704
 50
230.1815521179534869
 51
272.2074039951261284
  0
ARC
  5
2414F
  8
0
 10
4680.4354403748102413
 20
262.9173697050320015
 30
0.0
 40
0.0343913384477031
 50
180.3107520730976034
 51
225.7808603939031116
  0
LINE
  5
24150
  8
0
 10
4681.2074469303552178
 20
260.4387221118838056
 30
0.0
 11
4681.2076459285281089
 21
265.798702452488385
 31
0.0
  0
ARC
  5
24151
  8
0
 10
4680.5037316409234336
 20
260.9371666033068777
 30
0.0
 40
0.8696196237799192
 50
285.5206848825430939
 51
322.9507398955154827
  0
ARC
  5
24152
  8
0
 10
4681.1664234319096067
 20
260.4396759439093785
 30
0.0
 40
0.0410345856584091
 50
319.8542407306974269
 51
358.668063265884598
  0
ARC
  5
24153
  8
0
 10
4680.7242155865342284
 20
260.1454995101723853
 30
0.0
 40
0.0478268814464254
 50
271.1188236250860086
 51
284.7964470510602837
  0
ARC
  5
24154
  8
0
 10
4680.5949672974902569
 20
268.695606807249078
 30
0.0
 40
3.287624625139443
 50
280.7403788084163807
 51
286.1595097354738755
  0
ARC
  5
24155
  8
0
 10
4681.499347147698245
 20
265.5769638098839209
 30
0.0
 40
0.0405030899770128
 50
285.1815363751832137
 51
326.8171916714439931
  0
ARC
  5
24156
  8
0
 10
4679.3450408407788927
 20
267.0909520912925927
 30
0.0
 40
2.6735771057619901
 50
324.9305037891073766
 51
359.1283228870044013
  0
ARC
  5
24157
  8
0
 10
4681.9836218059826933
 20
267.0516903515596141
 30
0.0
 40
0.0347154483505623
 50
357.6697293485548812
 51
42.0883736450823491
  0
ARC
  5
24158
  8
0
 10
4679.8998705395852085
 20
265.5067866658753815
 30
0.0
 40
2.628538516487398
 50
36.6264111334193174
 51
71.7012540654841501
  0
ARC
  5
24159
  8
0
 10
4680.7279412551097266
 20
267.170924212734576
 30
0.0
 40
1.373377075317562
 50
269.883689943012314
 51
292.8336682430755218
  0
ARC
  5
2415A
  8
0
 10
4681.2346838661096626
 20
265.9405533283226077
 30
0.0
 40
0.0440300691870864
 50
306.5262275681212145
 51
322.7611912302414225
  0
ARC
  5
2415B
  8
0
 10
4680.1272652267143712
 20
266.8397487508856898
 30
0.0
 40
1.4705173040333339
 50
320.9792813775555942
 51
358.6355942282964975
  0
ARC
  5
2415C
  8
0
 10
4678.9938811312986218
 20
266.7757244386453976
 30
0.0
 40
2.6036460878188672
 50
0.6383988222889621
 51
3.0651310314178981
  0
ARC
  5
2415D
  8
0
 10
4681.5534254517197041
 20
266.911833642165675
 30
0.0
 40
0.0404966282144576
 50
4.4053845294567031
 51
35.4432595852471977
  0
ARC
  5
2415E
  8
0
 10
4680.3979542967435918
 20
266.1921666626485035
 30
0.0
 40
1.4017041248501321
 50
32.0173927294406511
 51
76.0462239482946956
  0
ARC
  5
2415F
  8
0
 10
4680.7450203982580206
 20
267.4225190183046834
 30
0.0
 40
0.1491645815224362
 50
38.1812609321391605
 51
90.5345982484611085
  0
ARC
  5
24160
  8
0
 10
4680.7264828364013738
 20
267.203154511475816
 30
0.0
 40
1.2932636570278551
 50
269.9410976766216095
 51
290.9677146879157021
  0
ARC
  5
24161
  8
0
 10
4681.1632425625239193
 20
266.0474146364272201
 30
0.0
 40
0.0580472796452762
 50
296.6363415388210001
 51
315.4814253308188086
  0
ARC
  5
24162
  8
0
 10
4680.1975878591847504
 20
266.8178457335413896
 30
0.0
 40
1.2930853213834259
 50
321.1500521817517892
 51
2.9708312939807371
  0
ARC
  5
24163
  8
0
 10
4681.4315363790938136
 20
266.8761391537478858
 30
0.0
 40
0.0580581532840896
 50
8.6422090057731822
 51
27.4838996191866514
  0
ARC
  5
24164
  8
0
 10
4680.4002384476098086
 20
266.1955725824968795
 30
0.0
 40
1.2933763913362051
 50
33.1552773309714084
 51
74.965650991660624
  0
ARC
  5
24165
  8
0
 10
4680.72628958921905
 20
267.3873572670750036
 30
0.0
 40
0.0580935329319427
 50
80.6399639189240673
 51
91.1207465169857898
  0
ARC
  5
24166
  8
0
 10
4681.3366158291401007
 20
265.8007537049522284
 30
0.0
 40
0.1289862120568076
 50
125.9503157887650957
 51
180.9112064105501076
  0
LINE
  5
24167
  8
0
 10
4681.0492584180783524
 20
265.7746778034584736
 30
0.0
 11
4681.0492550866365491
 21
262.9169308282225757
 31
0.0
  0
ARC
  5
24168
  8
0
 10
4681.1323307190414198
 20
265.7723453567994056
 30
0.0
 40
0.0831050389249696
 50
111.7561808598092057
 51
178.3942677679962117
  0
LINE
  5
24169
  8
0
 10
4680.9941136847874077
 20
262.8515909292726178
 30
0.0
 11
4681.0388498000884283
 21
262.892721237772605
 31
0.0
  0
ARC
  5
2416A
  8
0
 10
4680.9718514823798614
 20
262.8782753856074805
 30
0.0
 40
0.0347511777108409
 50
267.7937916566028775
 51
309.8480472989447776
  0
ARC
  5
2416B
  8
0
 10
4681.0183683013292466
 20
262.9158650820969001
 30
0.0
 40
0.0309051665828981
 50
311.50771310245932
 51
1.9762023841905949
  0
LINE
  5
2416D
  8
0
 10
4680.410115859986945
 20
262.8940801165480252
 30
0.0
 11
4681.0402896287869225
 21
262.8940801165480252
 31
0.0
  0
LINE
  5
2416E
  8
0
 10
4680.725149450158824
 20
260.0976817468661011
 30
0.0
 11
4680.725149450158824
 21
265.7975499671778721
 31
0.0
  0
LINE
  5
2416F
  8
0
 10
4680.725149450158824
 20
267.4454397618329153
 30
0.0
 11
4680.7251509573288786
 21
267.5540216860762825
 31
0.0
  0
LINE
  5
24170
  8
0
 10
4681.4864742291565562
 20
266.8949163152270785
 30
0.0
 11
4682.0161980027987738
 21
267.0635970646752071
 31
0.0
  0
LINE
  5
24171
  8
0
 10
4681.5230077935593727
 20
265.5462727512157244
 30
0.0
 11
4681.2033674317699479
 21
266.0054684620822059
 31
0.0
  0
LINE
  5
24172
  8
0
 10
4679.9638323919180039
 20
266.8949163152270785
 30
0.0
 11
4679.4345894111629605
 21
267.0634439650627883
 31
0.0
  0
LINE
  5
24173
  8
0
 10
4679.9263054086868578
 20
265.5448456045854755
 30
0.0
 11
4680.2469391893046122
 21
266.0054684620822059
 31
0.0
  0
ATTDEF
  5
24174
  8
DEFPOINTS
 10
4680.7250670929633998
 20
266.7109118491404729
 30
0.0
 40
0.001
  1
K-EX27003T-4E2
  3

  2
MODELNUMBER
 70
     0
1001
ACDBATTR
1070
     0
1070
     1
  0
ATTDEF
  5
24175
  8
DEFPOINTS
 10
4680.7250672654936352
 20
266.7092449912123016
 30
0.0
 40
0.001
  1
OCCASION
  3

  2
TRADENAME
 70
     0
1001
ACDBATTR
1070
     0
1070
     1
  0
ATTDEF
  5
24176
  8
DEFPOINTS
 10
4680.7250671002857416
 20
266.7075784982581013
 30
0.0
 40
0.001
  1
BATHROOM SINK FAUCET
  3

  2
PRODUCT
 70
     0
1001
ACDBATTR
1070
     0
1070
     1
  0
LINE
  5
24241
  8
0
 10
4680.7251512023958639
 20
267.5716771068725279
 30
0.0
 11
4680.7251571811284521
 21
268.0024061665096724
 31
0.0
  0
ENDSEC
  0
EOF
