  0
SECTION
  2
HEADER
  9
$ACADVER
  1
AC1009
  9
$INSBASE
 10
1259.202529477654025
 20
4.9647834939831483
 30
0.0
  9
$EXTMIN
 10
1257.8890072860449436
 20
4.9596629100720833
 30
-0.0000000000000058
  9
$EXTMAX
 10
1260.5520904678201077
 20
18.1622280406105396
 30
0.0000000000000104
  9
$LIMMIN
 10
0.0
 20
0.0
  9
$LIMMAX
 10
11.6929133858000007
 20
8.2677165353999982
  9
$ORTHOMODE
 70
     0
  9
$REGENMODE
 70
     1
  9
$FILLMODE
 70
     1
  9
$QTEXTMODE
 70
     0
  9
$MIRRTEXT
 70
     0
  9
$DRAGMODE
 70
     2
  9
$LTSCALE
 40
0.6431102362
  9
$OSMODE
 70
  4095
  9
$ATTMODE
 70
     1
  9
$TEXTSIZE
 40
0.2
  9
$TRACEWID
 40
0.05
  9
$TEXTSTYLE
  7
STANDARD
  9
$CLAYER
  8
0
  9
$CELTYPE
  6
BYLAYER
  9
$CECOLOR
 62
   256
  9
$DIMSCALE
 40
1.0
  9
$DIMASZ
 40
0.1875
  9
$DIMEXO
 40
0.0625
  9
$DIMDLI
 40
0.4443307087
  9
$DIMRND
 40
0.0
  9
$DIMDLE
 40
0.0
  9
$DIMEXE
 40
0.125
  9
$DIMTP
 40
0.01
  9
$DIMTM
 40
0.01
  9
$DIMTXT
 40
1.0
  9
$DIMCEN
 40
0.1052362205
  9
$DIMTSZ
 40
0.0
  9
$DIMTOL
 70
     1
  9
$DIMLIM
 70
     0
  9
$DIMTIH
 70
     0
  9
$DIMTOH
 70
     1
  9
$DIMSE1
 70
     0
  9
$DIMSE2
 70
     0
  9
$DIMTAD
 70
     0
  9
$DIMZIN
 70
     0
  9
$DIMBLK
  1

  9
$DIMASO
 70
     1
  9
$DIMSHO
 70
     1
  9
$DIMPOST
  1
\X
  9
$DIMAPOST
  1

  9
$DIMALT
 70
     1
  9
$DIMALTD
 70
     2
  9
$DIMALTF
 40
25.3999999999999986
  9
$DIMLFAC
 40
1.0
  9
$DIMTOFL
 70
     0
  9
$DIMTVP
 40
0.0
  9
$DIMTIX
 70
     0
  9
$DIMSOXD
 70
     0
  9
$DIMSAH
 70
     0
  9
$DIMBLK1
  1

  9
$DIMBLK2
  1

  9
$DIMSTYLE
  2
STANDARD
  9
$DIMCLRD
 70
     0
  9
$DIMCLRE
 70
     0
  9
$DIMCLRT
 70
     0
  9
$DIMTFAC
 40
1.0
  9
$DIMGAP
 40
0.09
  9
$LUNITS
 70
     2
  9
$LUPREC
 70
     4
  9
$SKETCHINC
 40
0.1
  9
$FILLETRAD
 40
0.0
  9
$AUNITS
 70
     0
  9
$AUPREC
 70
     0
  9
$MENU
  1
.
  9
$ELEVATION
 40
0.0
  9
$PELEVATION
 40
0.0
  9
$THICKNESS
 40
0.0
  9
$LIMCHECK
 70
     0
  9
$BLIPMODE
 70
     0
  9
$CHAMFERA
 40
0.0
  9
$CHAMFERB
 40
0.0
  9
$SKPOLY
 70
     0
  9
$TDCREATE
 40
2458172.5207638889551163
  9
$TDUPDATE
 40
2460158.5944907409138978
  9
$TDINDWG
 40
0.2420461111
  9
$TDUSRTIMER
 40
0.2420461111
  9
$USRTIMER
 70
     1
  9
$ANGBASE
 50
0.0
  9
$ANGDIR
 70
     0
  9
$PDMODE
 70
     0
  9
$PDSIZE
 40
0.3125
  9
$PLINEWID
 40
0.0
  9
$COORDS
 70
     1
  9
$SPLFRAME
 70
     0
  9
$SPLINETYPE
 70
     6
  9
$SPLINESEGS
 70
     8
  9
$ATTDIA
 70
     1
  9
$ATTREQ
 70
     1
  9
$HANDLING
 70
     1
  9
$HANDSEED
  5
10C49
  9
$SURFTAB1
 70
     6
  9
$SURFTAB2
 70
     6
  9
$SURFTYPE
 70
     6
  9
$SURFU
 70
     6
  9
$SURFV
 70
     6
  9
$UCSNAME
  2

  9
$UCSORG
 10
0.0
 20
0.0
 30
0.0
  9
$UCSXDIR
 10
1.0
 20
0.0
 30
0.0
  9
$UCSYDIR
 10
0.0
 20
1.0
 30
0.0
  9
$PUCSNAME
  2

  9
$PUCSORG
 10
0.0
 20
0.0
 30
0.0
  9
$PUCSXDIR
 10
1.0
 20
0.0
 30
0.0
  9
$PUCSYDIR
 10
0.0
 20
1.0
 30
0.0
  9
$USERI1
 70
     0
  9
$USERI2
 70
     0
  9
$USERI3
 70
     0
  9
$USERI4
 70
     0
  9
$USERI5
 70
     0
  9
$USERR1
 40
0.0
  9
$USERR2
 40
0.0
  9
$USERR3
 40
0.0
  9
$USERR4
 40
0.0
  9
$USERR5
 40
0.0
  9
$WORLDVIEW
 70
     1
  9
$SHADEDGE
 70
     3
  9
$SHADEDIF
 70
    70
  9
$TILEMODE
 70
     1
  9
$MAXACTVP
 70
    64
  9
$PLIMCHECK
 70
     0
  9
$PEXTMIN
 10
1.0000000000000000E+20
 20
1.0000000000000000E+20
 30
1.0000000000000000E+20
  9
$PEXTMAX
 10
-1.0000000000000000E+20
 20
-1.0000000000000000E+20
 30
-1.0000000000000000E+20
  9
$PLIMMIN
 10
0.0
 20
0.0
  9
$PLIMMAX
 10
12.0
 20
9.0
  9
$UNITMODE
 70
     0
  9
$VISRETAIN
 70
     1
  9
$PLINEGEN
 70
     0
  9
$PSLTSCALE
 70
     1
  0
ENDSEC
  0
SECTION
  2
TABLES
  0
TABLE
  2
VPORT
 70
     1
  0
VPORT
  2
*ACTIVE
 70
     0
 10
0.0
 20
0.0
 11
1.0
 21
1.0
 12
885.399412402323037
 22
-30.3255026569221506
 13
0.0
 23
0.0
 14
1.0
 24
1.0
 15
0.0
 25
0.0
 16
0.0
 26
0.0
 36
25.5757211105568096
 17
373.821136474609375
 27
41.8864481322634603
 37
0.0
 40
13.3209737864177296
 41
2.8368263473053892
 42
50.0
 43
0.0
 44
0.0
 50
0.0
 51
0.0
 71
     0
 72
   100
 73
     1
 74
     1
 75
     0
 76
     0
 77
     0
 78
     0
  0
ENDTAB
  0
TABLE
  2
LTYPE
 70
     2
  0
LTYPE
  2
CONTINUOUS
 70
     0
  3
Solid line
 72
    65
 73
     0
 40
0.0
  0
LTYPE
  2
PHANTOM2
 70
     0
  3
___ _ _ ___ _ _ ___ _ _ ___ _ _
 72
    65
 73
     6
 40
1.25
 49
0.625
 49
-0.125
 49
0.125
 49
-0.125
 49
0.125
 49
-0.125
  0
ENDTAB
  0
TABLE
  2
LAYER
 70
     2
  0
LAYER
  2
0
 70
     0
 62
   255
  6
CONTINUOUS
  0
LAYER
  2
DEFPOINTS
 70
     0
 62
     7
  6
CONTINUOUS
  0
ENDTAB
  0
TABLE
  2
STYLE
 70
     1
  0
STYLE
  2
STANDARD
 70
     0
 40
0.0
 41
0.8
 50
0.0
 71
     0
 42
0.2
  3
txt
  4

  0
ENDTAB
  0
TABLE
  2
VIEW
 70
     0
  0
ENDTAB
  0
TABLE
  2
UCS
 70
     0
  0
ENDTAB
  0
TABLE
  2
APPID
 70
    10
  0
APPID
  2
ACAD
 70
     0
  0
APPID
  2
ACAD_MLEADERVER
 70
     0
  0
APPID
  2
ACAD_EXEMPT_FROM_CAD_STANDARDS
 70
     0
  0
APPID
  2
ACAD_DSTYLE_DIMJAG
 70
     0
  0
APPID
  2
ACAD_DSTYLE_DIMTALN
 70
     0
  0
APPID
  2
ACAD_NAV_VCDISPLAY
 70
     0
  0
APPID
  2
ACAECLAYERSTANDARD
 70
     0
  0
APPID
  2
ACCMTRANSPARENCY
 70
     0
  0
APPID
  2
DCO15
 70
     0
  0
APPID
  2
ACDBATTR
 70
     0
  0
ENDTAB
  0
TABLE
  2
DIMSTYLE
 70
     1
  0
DIMSTYLE
  2
STANDARD
 70
     0
  3

  4

  5

  6

  7

 40
1.0
 41
0.1875
 42
0.0625
 43
0.38
 44
0.125
 45
0.0
 46
0.0
 47
0.01
 48
0.01
140
0.15625
141
0.09
142
0.0
143
25.3999999999999986
144
1.0
145
0.0
146
1.0
147
0.09
 71
     1
 72
     0
 73
     1
 74
     1
 75
     0
 76
     0
 77
     0
 78
     4
170
     0
171
     2
172
     0
173
     0
174
     0
175
     0
176
     0
177
     0
178
     0
  0
ENDTAB
  0
ENDSEC
  0
SECTION
  2
BLOCKS
  0
BLOCK
  8
0
  2
$MODEL_SPACE
 70
     0
 10
0.0
 20
0.0
 30
0.0
  3
$MODEL_SPACE
  1

  0
ENDBLK
  5
21
  8
0
  0
BLOCK
 67
     1
  8
0
  2
$PAPER_SPACE
 70
     0
 10
0.0
 20
0.0
 30
0.0
  3
$PAPER_SPACE
  1

  0
ENDBLK
  5
1D
 67
     1
  8
0
  0
BLOCK
  8
0
  2
_FILLED
 70
     0
 10
0.0
 20
0.0
 30
0.0
  3
_FILLED
  1

  0
SOLID
  5
B64D
  8
0
  6
BYBLOCK
 62
     0
 10
0.0
 20
0.0
 30
0.0
 11
-1.0
 21
0.1666666667
 31
0.0
 12
-1.0
 22
-0.1666666667
 32
0.0
 13
-1.0
 23
-0.1666666667
 33
0.0
  0
ENDBLK
  5
B64E
  8
0
  6
BYBLOCK
 62
     0
  0
ENDSEC
  0
SECTION
  2
ENTITIES
  0
ATTDEF
  5
829
  8
DEFPOINTS
 10
1259.2029505851760405
 20
4.9632813758906451
 30
0.0
 40
0.001
  1
K-EX27005T-4
  3

  2
MODELNUMBER
 70
     0
1001
ACDBATTR
1070
     0
1070
     1
  0
ATTDEF
  5
82A
  8
DEFPOINTS
 10
1259.2029505851760405
 20
4.9616147092239791
 30
0.0
 40
0.001
  1
OCCASION
  3

  2
TRADENAME
 70
     0
1001
ACDBATTR
1070
     0
1070
     1
  0
ATTDEF
  5
82B
  8
DEFPOINTS
 10
1259.2029505851760405
 20
4.9599480425573139
 30
0.0
 40
0.001
  1
BATHROOM SINK FAUCET
  3

  2
PRODUCT
 70
     0
1001
ACDBATTR
1070
     0
1070
     1
  0
LINE
  5
10516
  8
0
 10
1258.0158523178849919
 20
4.9647834939831483
 30
0.0
 11
1260.3892066374239675
 21
4.9647834939831483
 31
0.0
  0
LINE
  5
10517
  8
0
 10
1258.7200432713830196
 20
15.83289479553825
 30
0.0
 11
1258.7200432713830196
 21
14.9213946039831402
 31
0.0
  0
LINE
  5
10518
  8
0
 10
1258.3302811975420354
 20
6.4190614385966711
 30
0.0
 11
1258.3302811975420354
 21
17.2404758735891015
 31
0.0
  0
LINE
  5
10519
  8
0
 10
1258.3302811975420354
 20
17.5038868333887194
 30
0.0
 11
1258.3302811975420354
 21
18.0252473108849287
 31
0.0
  0
LINE
  5
1051A
  8
0
 10
1258.466589101235968
 20
18.1615549314831384
 30
0.0
 11
1259.9384698540809495
 21
18.1615549314831384
 31
0.0
  0
LINE
  5
1051B
  8
0
 10
1258.4387538486830636
 20
18.150023702383141
 30
0.0
 11
1258.341816306884084
 21
18.0530861605831383
 31
0.0
  0
ARC
  5
1051C
  8
0
 10
1258.466592699506009
 20
18.1221848505104006
 30
0.0
 40
0.0393700811371769
 50
89.9947633820040664
 51
134.9999989199376103
  0
ARC
  5
1051D
  8
0
 10
1258.3696767769099552
 20
18.0252328646864406
 30
0.0
 40
0.0393955820165998
 50
135.0073778422703867
 51
179.9789898745681
  0
LINE
  5
1051E
  8
0
 10
1258.341816306884084
 20
18.0530861605831383
 30
0.0
 11
1260.0632426484251027
 21
18.0530861605831383
 31
0.0
  0
LINE
  5
1051F
  8
0
 10
1258.6750422040829562
 20
18.0252473108831417
 30
0.0
 11
1258.6750422040829562
 21
17.5069289729831397
 31
0.0
  0
LINE
  5
10520
  8
0
 10
1258.6750422040829562
 20
17.2404057725163717
 30
0.0
 11
1258.6750422040829562
 21
6.3428819901047637
 31
0.0
  0
ARC
  5
10521
  8
0
 10
1258.9084269474928988
 20
17.7684255142427787
 30
0.0
 40
0.0300000008100119
 50
174.2951392195803066
 51
185.704860780422905
  0
ARC
  5
10522
  8
0
 10
1258.9084269466670776
 20
17.7684255142876992
 30
0.0
 40
0.0299999999833997
 50
122.9544608899189058
 51
174.2951391480800964
  0
ARC
  5
10523
  8
0
 10
1259.2268419800830088
 20
17.8002353633831305
 30
0.0
 40
0.3499999999999533
 50
185.7049456593971968
 51
201.0879278863991999
  0
ARC
  5
10524
  8
0
 10
1258.9282726190499488
 20
17.6850993040065312
 30
0.0
 40
0.0300000382555565
 50
201.0879278863984041
 51
256.4913975072357744
  0
ARC
  5
10525
  8
0
 10
1259.202529477654025
 20
18.8266972899116993
 30
0.0
 40
1.204079586631124
 50
256.4912983345348039
 51
283.5087016654651961
  0
ARC
  5
10526
  8
0
 10
1259.3278386440078975
 20
17.1214624304917287
 30
0.0
 40
0.801017122794293
 50
99.4647494143893454
 51
122.9544399195857949
  0
ARC
  5
10527
  8
0
 10
1259.202529477654025
 20
17.8731361474047787
 30
0.0
 40
0.0389700351783571
 50
80.5316044237365958
 51
99.4683955762634184
  0
ARC
  5
10528
  8
0
 10
1259.202529477654025
 20
17.8118541183149617
 30
0.0
 40
0.0496496872681876
 50
83.0618701523604273
 51
96.938129847639587
  0
ARC
  5
10529
  8
0
 10
1259.3278386439828864
 20
17.1214624305831009
 30
0.0
 40
0.7512421060000433
 50
100.0662142378988051
 51
120.5625477442043945
  0
ARC
  5
1052A
  8
0
 10
1258.9779284715830272
 20
17.736668857487949
 30
0.0
 40
0.0450786229457489
 50
135.3697072893781126
 51
176.9473973116037939
  0
LINE
  5
1052B
  8
0
 10
1258.932913812283914
 20
17.73906941884524
 30
0.0
 11
1258.9385527009760608
 21
17.7164240744695185
 31
0.0
  0
ARC
  5
1052C
  8
0
 10
1258.9771856398240288
 20
17.738769918384989
 30
0.0
 40
0.0446300426205838
 50
210.0457018837346084
 51
243.914282346459288
  0
ARC
  5
1052D
  8
0
 10
1259.202529477654025
 20
18.8266951223553498
 30
0.0
 40
1.1543024023722039
 50
257.7474017226062983
 51
282.2525982773809119
  0
ARC
  5
1052E
  8
0
 10
1258.7673523444539114
 20
18.1373825532588384
 30
0.0
 40
0.0292092236399832
 50
124.1511232674557021
 51
154.3559249149813013
  0
ARC
  5
1052F
  8
0
 10
1316.7238460507569471
 20
-17.126817650125961
 30
0.0
 40
67.8709335844462061
 50
148.6836038398917026
 51
148.7793441288781082
  0
ARC
  5
10530
  8
0
 10
1258.7410506899700522
 20
18.0232119972040614
 30
0.0
 40
0.0660398569866977
 50
153.1044311138948046
 51
178.2338945308594873
  0
ARC
  5
10531
  8
0
 10
1312.3796749085420288
 20
50.0124608939667965
 30
0.0
 40
62.7842877332144766
 50
211.2104235370730976
 51
211.2677177171190976
  0
ARC
  5
10532
  8
0
 10
1258.7818700614650425
 20
17.4739865228265892
 30
0.0
 40
0.0830897080236735
 50
216.0790861981400042
 51
226.692404662017708
  0
ARC
  5
10533
  8
0
 10
1258.7654402944599497
 20
17.5147455804553687
 30
0.0
 40
0.0907354070694218
 50
184.9420005230913944
 51
203.3832006668287988
  0
LINE
  5
10534
  8
0
 10
1258.416438888275934
 20
17.3347834939831387
 30
0.0
 11
1259.9886200670318885
 21
17.3347834939831387
 31
0.0
  0
LINE
  5
10535
  8
0
 10
1258.4641301534838931
 20
17.4135236514831391
 30
0.0
 11
1259.9409288018250663
 21
17.4135236514831391
 31
0.0
  0
LINE
  5
10536
  8
0
 10
1258.341816306884084
 20
17.2683147229831384
 30
0.0
 11
1260.0632426484251027
 21
17.2683147229831384
 31
0.0
  0
ARC
  5
10537
  8
0
 10
1258.3594814642819983
 20
17.5051879823666283
 30
0.0
 40
0.0292292416307099
 50
177.283115618244409
 51
244.8274134033765108
  0
ARC
  5
10538
  8
0
 10
1258.6865278852289975
 20
17.9243918523946988
 30
0.0
 40
0.5602288271014685
 50
232.7016969793475027
 51
244.9125414495796065
  0
ARC
  5
10539
  8
0
 10
1258.464562872075021
 20
17.4499809016665814
 30
0.0
 40
0.0364598181059238
 50
244.7151423916610042
 51
269.3199765556717011
  0
ARC
  5
1053A
  8
0
 10
1259.202529477654025
 20
16.1541501451942615
 30
0.0
 40
0.0389831695888779
 50
73.224627183574114
 51
106.7753728164259996
  0
ARC
  5
1053B
  8
0
 10
1259.4425854940570844
 20
15.3576173527783109
 30
0.0
 40
0.8709034664128606
 50
106.7717268729849991
 51
145.2282731270177862
  0
ARC
  5
1053C
  8
0
 10
1258.761492576469891
 20
15.8309385358910806
 30
0.0
 40
0.0414954436526539
 50
145.7358878464870884
 51
177.2978483316003917
  0
ARC
  5
1053D
  8
0
 10
1259.202529477654025
 20
14.8663888926739904
 30
0.0
 40
0.1542697845533668
 50
85.8184540897692045
 51
94.1815459102307955
  0
ARC
  5
1053E
  8
0
 10
1259.2913082164400294
 20
13.6517953893498607
 30
0.0
 40
1.372103534587795
 50
94.1806242592331557
 51
113.751817400286896
  0
ARC
  5
1053F
  8
0
 10
1258.7457029004610831
 20
14.8940299867261192
 30
0.0
 40
0.0153606536488297
 50
117.2979861265346955
 51
155.6877835166806108
  0
ARC
  5
10540
  8
0
 10
1258.8688885930268953
 20
14.9228763266133697
 30
0.0
 40
0.1488526965731891
 50
180.5703481171163958
 51
210.5272678376790054
  0
ARC
  5
10541
  8
0
 10
1258.9399649849399339
 20
14.9647890968718595
 30
0.0
 40
0.2313665366131172
 50
210.5272678376796875
 51
229.8024532529892952
  0
ARC
  5
10542
  8
0
 10
1259.13559086018995
 20
15.1400489951580699
 30
0.0
 40
0.4928351705639713
 50
225.5777169840771137
 51
245.6664283760100886
  0
ARC
  5
10543
  8
0
 10
1258.9547450155309889
 20
14.7395383130120994
 30
0.0
 40
0.0533884165563959
 50
245.3982498056539043
 51
264.0662484428751213
  0
ARC
  5
10544
  8
0
 10
1259.202529477654025
 20
16.984531187482439
 30
0.0
 40
2.3120130811998729
 50
263.7100597903327071
 51
276.2899402096674066
  0
ARC
  5
10545
  8
0
 10
1259.2950596158750614
 20
13.7108471188734899
 30
0.0
 40
1.2464817661731391
 50
94.3839370768208568
 51
113.5485057999857048
  0
ARC
  5
10546
  8
0
 10
1259.202529477654025
 20
14.9178395275834603
 30
0.0
 40
0.0359477926931704
 50
85.6121080849717515
 51
94.3878919150412656
  0
ARC
  5
10547
  8
0
 10
1258.7987762794969058
 20
14.8496370088589895
 30
0.0
 40
0.0042501336657011
 50
113.8374127969399012
 51
136.3244905476026076
  0
ARC
  5
10548
  8
0
 10
1258.7966044427319048
 20
14.8517106857832797
 30
0.0
 40
0.001247299850613
 50
136.3244905476213091
 51
179.0094359157727126
  0
ARC
  5
10549
  8
0
 10
1258.8940430139450655
 20
14.8500259409831799
 30
0.0
 40
0.0987004348690257
 50
179.0094359157727126
 51
214.1667864207637137
  0
ARC
  5
1054A
  8
0
 10
1259.0114268591330529
 20
14.9297004858382891
 30
0.0
 40
0.2405700940960937
 50
214.1667864207637137
 51
238.4017168845859942
  0
ARC
  5
1054B
  8
0
 10
1259.2806212200550817
 20
15.3672990554301396
 30
0.0
 40
0.7543386334800032
 50
238.401716884574796
 51
243.935921937727386
  0
ARC
  5
1054C
  8
0
 10
1258.9539939880460224
 20
14.6995105211134192
 30
0.0
 40
0.010949855481416
 50
243.9359219377280965
 51
268.1316387700118753
  0
ARC
  5
1054D
  8
0
 10
1259.202529477654025
 20
16.9476363772318592
 30
0.0
 40
2.272739369448725
 50
263.712808202021904
 51
276.2871917979779823
  0
ARC
  5
1054E
  8
0
 10
1258.8697093355190191
 20
14.9033132795352898
 30
0.0
 40
0.1380365595786109
 50
181.2283805410085051
 51
219.473665381603297
  0
ARC
  5
1054F
  8
0
 10
1259.8619807668840167
 20
17.3326504248831306
 30
0.0
 40
1.248031496100658
 50
176.2845940785502137
 51
179.1028396256998008
  0
ARC
  5
10550
  8
0
 10
1258.5944196409780034
 20
17.3525000294278584
 30
0.0
 40
0.0196850395291333
 50
295.8419336412338225
 51
359.102839625699005
  0
ARC
  5
10551
  8
0
 10
1258.416438888275934
 20
17.31509845442962
 30
0.0
 40
0.0196850395772024
 50
89.9971900599554715
 51
134.9999996683806103
  0
LINE
  5
10552
  8
0
 10
1258.4025194633829869
 20
17.3290178794831391
 30
0.0
 11
1258.341816307083036
 21
17.2683147231831384
 31
0.0
  0
ARC
  5
10553
  8
0
 10
1258.3696767755150177
 20
17.2404614276643109
 30
0.0
 40
0.0393955806213658
 50
135.0073765906984988
 51
179.9789902779475028
  0
ARC
  5
10554
  8
0
 10
1258.7334415400180205
 20
17.3214345906487601
 30
0.0
 40
0.0163242685198367
 50
125.1414393836259933
 51
152.3211049541446869
  0
LINE
  5
10555
  8
0
 10
1258.7189853425829824
 20
17.3290174725831392
 30
0.0
 11
1258.6821574620830688
 21
17.2683145117831387
 31
0.0
  0
ARC
  5
10556
  8
0
 10
1258.7710276360280659
 20
17.2307959224249494
 30
0.0
 40
0.0964652909827688
 50
157.1118411401390915
 51
174.2827244342830113
  0
ARC
  5
10557
  8
0
 10
1257.9487978761369504
 20
5.1539858771862583
 30
0.0
 40
0.0394429555130023
 50
137.5466402179318095
 51
204.4892912592588914
  0
ARC
  5
10558
  8
0
 10
1256.8670267661309481
 20
6.1555259823964974
 30
0.0
 40
1.434773255049014
 50
317.1960649054561259
 51
336.113719657682509
  0
ARC
  5
10559
  8
0
 10
1256.5749346806539961
 20
6.2597991213030957
 30
0.0
 40
1.7442212453793551
 50
336.8670478378144253
 51
356.4860493288916246
  0
ARC
  5
1055A
  8
0
 10
1253.7168992347681069
 20
6.5352557660895911
 30
0.0
 40
4.6148449872331039
 50
355.2473132352407106
 51
358.5572325390430137
  0
ARC
  5
1055B
  8
0
 10
1258.0158762099340493
 20
5.0041372290132742
 30
0.0
 40
0.0393537422826789
 50
203.9838493496230001
 51
270.0347848412820895
  0
LINE
  5
1055C
  8
0
 10
1257.9799202668830276
 20
4.9881407546831431
 30
0.0
 11
1257.9129032577200178
 21
5.1376358585831454
 31
0.0
  0
ARC
  5
1055D
  8
0
 10
1258.5436631454649614
 20
5.0149645536393299
 30
0.0
 40
0.0898459974581376
 50
197.3711638078368082
 51
213.9537175553608961
  0
LINE
  5
1055E
  8
0
 10
1258.4579149600829169
 20
4.9881400878831448
 30
0.0
 11
1258.4165196044839377
 21
5.1376358585831454
 31
0.0
  0
ARC
  5
1055F
  8
0
 10
1258.4701137260419728
 20
5.1540910900452701
 30
0.0
 40
0.0560633972225604
 50
151.7670948502764077
 51
197.0682800853784897
  0
ARC
  5
10560
  8
0
 10
1256.9386753569699522
 20
6.0132718373785181
 30
0.0
 40
1.6999348632171689
 50
330.6713460343751763
 51
343.4498459251379927
  0
ARC
  5
10561
  8
0
 10
1256.2908462504240106
 20
6.2057845578849253
 30
0.0
 40
2.375763020995127
 50
343.4498459251379927
 51
357.3711908362412828
  0
ARC
  5
10562
  8
0
 10
1251.9850341697529075
 20
6.5168598401810476
 30
0.0
 40
6.6922698534741967
 50
356.4014650512476123
 51
358.5103231178244982
  0
LINE
  5
10563
  8
0
 10
1257.9129032577200178
 20
5.1376358585831454
 30
0.0
 11
1260.4921556975880321
 21
5.1376358585831454
 31
0.0
  0
LINE
  5
10564
  8
0
 10
1258.347048913783965
 20
17.4787346223831399
 30
0.0
 11
1260.0580100415249944
 21
17.4787346223831399
 31
0.0
  0
ARC
  5
10565
  8
0
 10
1259.202529477654025
 20
15.5973788523412296
 30
0.0
 40
0.8843146939615664
 50
257.5047064976291153
 51
282.4952935023708847
  0
ARC
  5
10566
  8
0
 10
1258.9158148173780774
 20
14.8259473593133002
 30
0.0
 40
0.0430072708387825
 50
140.5345428764661904
 51
219.4654571235313938
  0
ARC
  5
10567
  8
0
 10
1258.9853379679400405
 20
14.8838495514761409
 30
0.0
 40
0.1334840531878919
 50
219.6848558004070071
 51
245.7555345602391981
  0
ARC
  5
10568
  8
0
 10
1259.0990439269589842
 20
15.1157092213029092
 30
0.0
 40
0.3916768253368633
 50
244.5166273892978097
 51
257.0396096016382899
  0
ARC
  5
10569
  8
0
 10
1258.9486141640788901
 20
14.8041937675333699
 30
0.0
 40
0.0822554398186262
 50
138.9983186060165963
 51
143.3593586886298965
  0
ARC
  5
1056A
  8
0
 10
1259.202529477654025
 20
15.6383158982142998
 30
0.0
 40
0.9504859188343887
 50
258.6329366154736817
 51
281.3670633845262046
  0
ARC
  5
1056B
  8
0
 10
1258.9019301186740449
 20
14.8074358544740399
 30
0.0
 40
0.0488076085902339
 50
129.4122114183851977
 51
230.5877885816142054
  0
ARC
  5
1056C
  8
0
 10
1258.9930109635261033
 20
14.8991027445017199
 30
0.0
 40
0.177872904566943
 50
226.6645553620043074
 51
247.7714388226866902
  0
ARC
  5
1056D
  8
0
 10
1259.1108378729529704
 20
15.1694454277346402
 30
0.0
 40
0.4727473747295456
 50
246.9473874925483017
 51
258.3277090038411075
  0
ARC
  5
1056E
  8
0
 10
1259.202529477654025
 20
13.9749743178705206
 30
0.0
 40
0.9520675058162223
 50
78.7716015942424548
 51
101.2283984057575026
  0
ARC
  5
1056F
  8
0
 10
1259.202529477654025
 20
14.2935910069416892
 30
0.0
 40
0.6327076252964248
 50
76.5004671145089361
 51
103.4995328854910071
  0
ARC
  5
10570
  8
0
 10
1258.9786048868779744
 20
14.8537509868629307
 30
0.0
 40
0.0398524555944038
 50
138.4027672809149863
 51
221.5972327190850137
  0
LINE
  5
10571
  8
0
 10
1258.9387524312830919
 20
14.8858468436831508
 30
0.0
 11
1258.9387524312830919
 21
14.8537509868629307
 31
0.0
  0
ARC
  5
10572
  8
0
 10
1259.0012958201739366
 20
14.7048127131144408
 30
0.0
 40
0.1915333702640136
 50
109.058927559758601
 51
132.8888344558000085
  0
ARC
  5
10573
  8
0
 10
1259.1179492816320362
 20
14.4195722317113102
 30
0.0
 40
0.4995232976990584
 50
101.6426003825002056
 51
111.0225726082357056
  0
LINE
  5
10574
  8
0
 10
1258.8904176906830799
 20
14.8588813285831396
 30
0.0
 11
1258.9146501649829588
 21
14.8603439588831403
 31
0.0
  0
LINE
  5
10575
  8
0
 10
1258.9204659587830974
 20
14.8784547743561308
 30
0.0
 11
1258.9204659587830974
 21
14.86624373538314
 31
0.0
  0
ARC
  5
10576
  8
0
 10
1258.8900609379129492
 20
14.8648004540591803
 30
0.0
 40
0.0059298666882542
 50
249.6253471354999931
 51
273.4491127495624028
  0
ARC
  5
10577
  8
0
 10
1258.914346512766997
 20
14.8664596801846507
 30
0.0
 40
0.0061232549927623
 50
272.8424635481388805
 51
357.9789683957196189
  0
ARC
  5
10578
  8
0
 10
1258.9555804385120155
 20
14.8845901186147405
 30
0.0
 40
0.0396183854329759
 50
191.515701984410498
 51
207.5858725178437965
  0
ARC
  5
10579
  8
0
 10
1259.0279900556699886
 20
15.0365705102876603
 30
0.0
 40
0.2059102636487636
 50
237.9233983385537954
 51
244.1102736778537974
  0
LINE
  5
1057A
  8
0
 10
1258.9380812988829348
 20
14.8513262063831402
 30
0.0
 11
1258.9380812988829348
 21
14.8198833170831392
 31
0.0
  0
LINE
  5
1057B
  8
0
 10
1258.9380812988829348
 20
14.8513262063831402
 30
0.0
 11
1258.9388159240349978
 21
14.8515022866209101
 31
0.0
  0
ARC
  5
1057C
  8
0
 10
1259.0136056388580528
 20
14.8245977224010694
 30
0.0
 40
0.0853936943698917
 50
124.033914072685306
 51
139.3656153002422116
  0
ARC
  5
1057D
  8
0
 10
1259.202529477654025
 20
15.4606463218467898
 30
0.0
 40
0.7031833503680306
 50
259.365408702642128
 51
280.6345912973578152
  0
ARC
  5
1057E
  8
0
 10
1259.0360408699139043
 20
14.8997085450080409
 30
0.0
 40
0.1133780383949489
 50
219.6953804733487914
 51
244.1929411038811963
  0
ARC
  5
1057F
  8
0
 10
1259.133228227842892
 20
15.1006870572787104
 30
0.0
 40
0.3366217279716527
 50
244.1929411038811963
 51
259.6517593396908978
  0
ARC
  5
10580
  8
0
 10
1258.943364453454933
 20
14.8197952461226308
 30
0.0
 40
0.0052838885980391
 50
179.0449594235379038
 51
206.003981503420988
  0
ARC
  5
10581
  8
0
 10
1258.9419821333960954
 20
14.8191209246695195
 30
0.0
 40
0.003745864486481
 50
206.0039815034328967
 51
284.4808528234858045
  0
ARC
  5
10582
  8
0
 10
1259.0835041470591023
 20
15.1136508447349804
 30
0.0
 40
0.3305122746964511
 50
244.3308107705919952
 51
252.9657242608901129
  0
LINE
  5
10583
  8
0
 10
1258.956634361856004
 20
14.8187815033693902
 30
0.0
 11
1258.9429188109829738
 21
14.8154940615831396
 31
0.0
  0
ARC
  5
10584
  8
0
 10
1258.9954876595859332
 20
14.8444273803912097
 30
0.0
 40
0.0321257929030565
 50
135.3108895877832083
 51
224.6891104122167917
  0
ARC
  5
10585
  8
0
 10
1259.0542668782720739
 20
14.7895693865873596
 30
0.0
 40
0.1125175643194798
 50
112.972850168122406
 51
136.5008524372032923
  0
ARC
  5
10586
  8
0
 10
1259.126715931759918
 20
14.6335575846595294
 30
0.0
 40
0.2844919349198579
 50
104.6358824668477041
 51
114.143551054561101
  0
ARC
  5
10587
  8
0
 10
1259.202529477654025
 20
15.4349194192419006
 30
0.0
 40
0.6723629792638841
 50
261.7343929322228178
 51
278.2656070677771822
  0
ARC
  5
10588
  8
0
 10
1259.0644443721960215
 20
14.9130492528190803
 30
0.0
 40
0.1294087233364026
 50
224.8179924965428995
 51
250.0673374111910903
  0
ARC
  5
10589
  8
0
 10
1259.159071239756031
 20
15.1561628870444896
 30
0.0
 40
0.3902654600525204
 50
249.175132833456388
 51
262.1648734655876183
  0
LINE
  5
1058A
  8
0
 10
1258.7317044984899894
 20
14.9003541011131695
 30
0.0
 11
1258.7675180998830911
 21
14.8626044075831398
 31
0.0
  0
ARC
  5
1058B
  8
0
 10
1258.7621985463099463
 20
14.9310064819202992
 30
0.0
 40
0.043237199280032
 50
192.8444968722023987
 51
225.1483617581604904
  0
ARC
  5
1058C
  8
0
 10
1258.7952319635840013
 20
14.8924898562610295
 30
0.0
 40
0.0407578002826431
 50
227.1591187000531988
 51
270.1762346535405754
  0
ARC
  5
1058D
  8
0
 10
1259.202529477654025
 20
15.4469113409233803
 30
0.0
 40
0.6773193739447843
 50
262.5829098827009034
 51
277.4170901172990966
  0
LINE
  5
1058E
  8
0
 10
1259.201546673483108
 20
14.77718184518314
 30
0.0
 11
1259.2035172435839741
 21
14.77718184518314
 31
0.0
  0
ARC
  5
1058F
  8
0
 10
1259.2005958318959529
 20
15.4391820137164899
 30
0.0
 40
0.6620008513875965
 50
261.4278720168325094
 51
270.0822948014828739
  0
ARC
  5
10590
  8
0
 10
1258.9953303373690687
 20
14.8521920182197409
 30
0.0
 40
0.032031596614246
 50
187.4230670976525914
 51
206.6603678159048059
  0
ARC
  5
10591
  8
0
 10
1259.0095323700209065
 20
14.8593225920932994
 30
0.0
 40
0.0479231923552783
 50
206.6603678159048059
 51
229.4413054183573877
  0
ARC
  5
10592
  8
0
 10
1259.0650172134169225
 20
14.9241523983327706
 30
0.0
 40
0.1332547317984735
 50
229.4413054183573877
 51
248.1009422068451045
  0
ARC
  5
10593
  8
0
 10
1259.162080996693021
 20
15.17063935123406
 30
0.0
 40
0.3981623042201299
 50
248.370464450507086
 51
263.2226622743456801
  0
ARC
  5
10594
  8
0
 10
1259.0223521841849106
 20
14.88498335808627
 30
0.0
 40
0.0726701530194765
 50
219.4245937108964881
 51
234.1539292318527998
  0
ARC
  5
10595
  8
0
 10
1259.0653021831810747
 20
14.9437644731356905
 30
0.0
 40
0.1454701877907794
 50
233.9994591430728121
 51
246.5862023489792136
  0
ARC
  5
10596
  8
0
 10
1259.1302219583089936
 20
15.0916037162691996
 30
0.0
 40
0.3069344082145848
 50
246.4317322601910121
 51
257.0974970467348726
  0
ARC
  5
10597
  8
0
 10
1259.1755445864359899
 20
15.2694300336778994
 30
0.0
 40
0.4904114601202024
 50
256.5751361541466053
 51
261.3658492951275889
  0
LINE
  5
10598
  8
0
 10
1258.9648691022089224
 20
14.8541521176012203
 30
0.0
 11
1258.9747614569539564
 21
14.8521970710873994
 31
0.0
  0
LINE
  5
10599
  8
0
 10
1258.9747614569539564
 20
14.8521970710873994
 30
0.0
 11
1258.982307900484102
 21
14.8471840474573504
 31
0.0
  0
LINE
  5
1059A
  8
0
 10
1258.982307900484102
 20
14.8471840474573504
 30
0.0
 11
1258.982307900484102
 21
14.8426351363831408
 31
0.0
  0
LINE
  5
1059B
  8
0
 10
1258.9671019632830848
 20
14.8537108326831397
 30
0.0
 11
1258.9671019632830848
 21
14.8414649844831406
 31
0.0
  0
ARC
  5
1059C
  8
0
 10
1258.9747692222279056
 20
14.8403612433455603
 30
0.0
 40
0.0076013405357622
 50
181.950148453792707
 51
210.580631148726809
  0
LINE
  5
1059D
  8
0
 10
1258.9671019632830848
 20
14.8414649844831406
 30
0.0
 11
1258.9671722842840609
 21
14.8401025701831397
 31
0.0
  0
LINE
  5
1059E
  8
0
 10
1258.9691175594350625
 20
14.8355159358001902
 30
0.0
 11
1258.9839433737829495
 21
14.8384459920831393
 31
0.0
  0
LINE
  5
1059F
  8
0
 10
1258.9839433737829495
 20
14.8384459920831393
 30
0.0
 11
1258.9854904928220094
 21
14.8378566433885393
 31
0.0
  0
LINE
  5
105A0
  8
0
 10
1258.9854904928220094
 20
14.8378566433885393
 30
0.0
 11
1258.9880625320079162
 21
14.8363119179448901
 31
0.0
  0
ARC
  5
105A1
  8
0
 10
1259.2216452968839349
 20
15.22805649268388
 30
0.0
 40
0.4560972702008382
 50
239.1939433569052937
 51
242.1260417436942021
  0
ARC
  5
105A2
  8
0
 10
1259.2060545308700057
 20
15.1985782685628994
 30
0.0
 40
0.4227500411970088
 50
242.1260417436942021
 51
242.5237067115006937
  0
ARC
  5
105A3
  8
0
 10
1259.0282783759639642
 20
14.8601428243560196
 30
0.0
 40
0.0404975180549779
 50
244.7532144634703002
 51
249.7281826771537965
  0
ARC
  5
105A4
  8
0
 10
1258.9869060704120329
 20
14.8426829490411105
 30
0.0
 40
0.0045984185045725
 50
180.5957510978051914
 51
237.382149903520201
  0
ARC
  5
105A5
  8
0
 10
1258.9877501840298919
 20
14.8420371998658798
 30
0.0
 40
0.0044109975094812
 50
252.345277053696293
 51
355.9969530426261031
  0
LINE
  5
105A6
  8
0
 10
1258.9878697088840909
 20
14.8364277236831406
 30
0.0
 11
1258.9878697088840909
 21
14.8242939884831397
 31
0.0
  0
ARC
  5
105A7
  8
0
 10
1258.9942618009940816
 20
14.8240031710769902
 30
0.0
 40
0.0063987042686258
 50
177.3950426304405994
 51
225.6019677017798131
  0
LINE
  5
105A8
  8
0
 10
1258.9915541240829953
 20
14.8186747518831403
 30
0.0
 11
1259.0054452908830172
 21
14.8214200918831498
 31
0.0
  0
LINE
  5
105A9
  8
0
 10
1258.9915541240829953
 20
14.8186747518831403
 30
0.0
 11
1258.9907701927440939
 21
14.8188382631656896
 31
0.0
  0
LINE
  5
105AA
  8
0
 10
1259.0092207502830206
 20
14.8244496692831493
 30
0.0
 11
1259.0092207502830206
 21
14.8230457079831499
 31
0.0
  0
ARC
  5
105AB
  8
0
 10
1259.0134584206580257
 20
14.8230647019939799
 30
0.0
 40
0.0042377129412325
 50
180.2568084048741071
 51
243.4821091046026993
  0
ARC
  5
105AC
  8
0
 10
1259.0868602386281054
 20
15.1488402607612809
 30
0.0
 40
0.3202115288141934
 50
251.9266848215960124
 51
256.6030888729827097
  0
LINE
  5
105AD
  8
0
 10
1258.9921504201829521
 20
14.8417292701831407
 30
0.0
 11
1258.9921504201829521
 21
14.8429576374831402
 31
0.0
  0
ARC
  5
105AE
  8
0
 10
1259.2488331852700867
 20
15.23865671207502
 30
0.0
 40
0.4656468651488178
 50
239.5241516735868004
 51
242.7192202150957883
  0
LINE
  5
105AF
  8
0
 10
1259.035403275624958
 20
14.8248032637569604
 30
0.0
 11
1259.0377409997850009
 21
14.8236063029210108
 31
0.0
  0
ARC
  5
105B0
  8
0
 10
1259.0445245217099455
 20
14.8366155443060705
 30
0.0
 40
0.0146716233292061
 50
242.4607203523738121
 51
259.7211149726923054
  0
LINE
  5
105B1
  8
0
 10
1259.0141420101829226
 20
14.8364774065831408
 30
0.0
 11
1259.0141420101829226
 21
14.8289016387831403
 31
0.0
  0
ARC
  5
105B2
  8
0
 10
1259.0005174354350856
 20
14.8313579397909301
 30
0.0
 40
0.0138442208777721
 50
341.2058338572837783
 51
349.780232433219112
  0
ARC
  5
105B3
  8
0
 10
1259.0498126626439443
 20
14.8145820763234397
 30
0.0
 40
0.0382273550602783
 50
161.2058338572848868
 51
167.5096708705887067
  0
ARC
  5
105B4
  8
0
 10
1259.0027216872599638
 20
14.8421911276770793
 30
0.0
 40
0.0176998260413254
 50
154.0081642453035897
 51
169.5358586337682141
  0
ARC
  5
105B5
  8
0
 10
1258.9831049658939719
 20
14.8517553820224606
 30
0.0
 40
0.0041242596976033
 50
334.0081642453088193
 51
359.677559799002097
  0
LINE
  5
105B6
  8
0
 10
1258.9872291602830501
 20
14.8517321722831408
 30
0.0
 11
1258.9873031494400948
 21
14.8648794834742599
 31
0.0
  0
LINE
  5
105B7
  8
0
 10
1259.0092207502830206
 20
14.8500655951861606
 30
0.0
 11
1259.0092207502830206
 21
14.8426388579831503
 31
0.0
  0
LINE
  5
105B8
  8
0
 10
1259.0190632699839171
 20
14.8466724933831404
 30
0.0
 11
1259.0190632699839171
 21
14.8418674216831405
 31
0.0
  0
ARC
  5
105B9
  8
0
 10
1259.0141808892460631
 20
14.8427634554235404
 30
0.0
 40
0.0049617036442296
 50
181.4389529285180913
 51
238.2011892464844038
  0
ARC
  5
105BA
  8
0
 10
1259.0144294419631024
 20
14.8422969742242596
 30
0.0
 40
0.0046536950376965
 50
259.1247597559877818
 51
354.7038578316855251
  0
ARC
  5
105BB
  8
0
 10
1259.0230968947089423
 20
14.8729845531564298
 30
0.0
 40
0.0267922753525695
 50
237.2483023769086117
 51
252.8405927176866044
  0
ARC
  5
105BC
  8
0
 10
1259.0779785966019517
 20
15.1776834498153299
 30
0.0
 40
0.3362131303038592
 50
259.2370894026867063
 51
263.4815330000370182
  0
ARC
  5
105BD
  8
0
 10
1259.2755244836118891
 20
15.2506372329167803
 30
0.0
 40
0.4703240377742179
 50
239.9223291953778983
 51
243.3389859935730044
  0
ARC
  5
105BE
  8
0
 10
1259.1048342420760946
 20
14.8091520452291796
 30
0.0
 40
0.0666802616265647
 50
163.7426140951114917
 51
168.1833662103292113
  0
ARC
  5
105BF
  8
0
 10
1259.0348398864289265
 20
14.82956332919969
 30
0.0
 40
0.0062294793954511
 50
343.7426140951134244
 51
356.0891828315712928
  0
LINE
  5
105C0
  8
0
 10
1259.0410548599829781
 20
14.8291384559831503
 30
0.0
 11
1259.0410548599829781
 21
14.8429216671831394
 31
0.0
  0
LINE
  5
105C1
  8
0
 10
1259.0630464499829486
 20
14.8310464804831401
 30
0.0
 11
1259.0630464499829486
 21
14.82391248728314
 31
0.0
  0
ARC
  5
105C2
  8
0
 10
1259.0679602397540293
 20
14.8240785325375199
 30
0.0
 40
0.0049165944455454
 50
181.9353847124203014
 51
244.5103737321977917
  0
LINE
  5
105C3
  8
0
 10
1259.0189594685739394
 20
14.8412312648775195
 30
0.0
 11
1259.0410548599829781
 21
14.8291384559831503
 31
0.0
  0
LINE
  5
105C4
  8
0
 10
1259.0408202724540843
 20
14.8278193691862992
 30
0.0
 11
1259.0630464499499794
 21
14.8246014822071999
 31
0.0
  0
ARC
  5
105C5
  8
0
 10
1259.2783784554510476
 20
15.2716445862658308
 30
0.0
 40
0.5001826492573511
 50
234.1607186408907921
 51
237.3602375537950877
  0
LINE
  5
105C6
  8
0
 10
1259.0115663782830779
 20
14.8385464854831408
 30
0.0
 11
1259.0135514242829231
 21
14.8377268579831405
 31
0.0
  0
ARC
  5
105C7
  8
0
 10
1258.9967205656269016
 20
14.8681323813807307
 30
0.0
 40
0.0254274971382652
 50
235.4716358964502945
 51
248.7866386386953081
  0
LINE
  5
105C8
  8
0
 10
1258.9844273700830399
 20
14.83880977238314
 30
0.0
 11
1258.9864124160831125
 21
14.8378339539831394
 31
0.0
  0
ARC
  5
105C9
  8
0
 10
1259.0840084200560796
 20
15.1508559994207896
 30
0.0
 40
0.316216349606077
 50
252.0990196201342997
 51
256.3194740701246133
  0
ARC
  5
105CA
  8
0
 10
1259.1024395896190526
 20
15.1530696938787397
 30
0.0
 40
0.3363816980649887
 50
259.6329481837340154
 51
263.9387769149398082
  0
ARC
  5
105CB
  8
0
 10
1259.2618587545630362
 20
15.2458411982505897
 30
0.0
 40
0.4696411595477949
 50
245.475722673850612
 51
248.6301219691819142
  0
ARC
  5
105CC
  8
0
 10
1259.097167893256028
 20
14.8222032633676299
 30
0.0
 40
0.0151511929678362
 50
244.8446017111286892
 51
266.4922116804619918
  0
ARC
  5
105CD
  8
0
 10
1259.1169538483079577
 20
15.1619542303887904
 30
0.0
 40
0.3554777385691233
 50
266.6595987792721871
 51
270.6790022458254157
  0
ARC
  5
105CE
  8
0
 10
1259.2539127194900175
 20
15.1955211615398404
 30
0.0
 40
0.4110448931518968
 50
251.1586780471137956
 51
252.2809751979384885
  0
LINE
  5
105CF
  8
0
 10
1259.1288114647838938
 20
14.8039760424831393
 30
0.0
 11
1259.130047641182955
 21
14.8038068219831391
 31
0.0
  0
LINE
  5
105D0
  8
0
 10
1259.1267146692830465
 20
14.8046523065831401
 30
0.0
 11
1259.1267146692830465
 21
14.7956831334831396
 31
0.0
  0
ARC
  5
105D1
  8
0
 10
1259.1312181205719298
 20
14.7957858843977395
 30
0.0
 40
0.0045046233200697
 50
181.3070358978617946
 51
254.9394569650752942
  0
ARC
  5
105D2
  8
0
 10
1259.1193028584850708
 20
14.5846097519385598
 30
0.0
 40
0.2071050598110816
 50
87.0275142779880042
 51
89.7732695023867961
  0
LINE
  5
105D3
  8
0
 10
1259.1168721495830596
 20
14.7925337075831393
 30
0.0
 11
1259.1168721495830596
 21
14.7913333496831392
 31
0.0
  0
ARC
  5
105D4
  8
0
 10
1259.1211341341529533
 20
14.7913757305104703
 30
0.0
 40
0.0042621952804356
 50
180.569725785527794
 51
256.2685539988660253
  0
LINE
  5
105D5
  8
0
 10
1259.120122411183047
 20
14.79171319018314
 30
0.0
 11
1259.120122411183047
 21
14.7872353530831493
 31
0.0
  0
LINE
  5
105D6
  8
0
 10
1259.1217934093829172
 20
14.8062880795911909
 30
0.0
 11
1259.1217934093829172
 21
14.7973838123831403
 31
0.0
  0
LINE
  5
105D7
  8
0
 10
1259.1217934093829172
 20
14.7973838123831403
 30
0.0
 11
1259.1217337437828974
 21
14.7967310805831396
 31
0.0
  0
LINE
  5
105D8
  8
0
 10
1259.1217337437828974
 20
14.7967310805831396
 30
0.0
 11
1259.1211105917839177
 21
14.7921524265831401
 31
0.0
  0
LINE
  5
105D9
  8
0
 10
1259.1211105917839177
 20
14.7921524265831401
 30
0.0
 11
1259.1211172137370795
 21
14.7917068642177298
 31
0.0
  0
ARC
  5
105DA
  8
0
 10
1259.2124056161719636
 20
15.1408743472415495
 30
0.0
 40
0.3611505275109226
 50
250.8650722554305048
 51
255.1952683968455062
  0
ARC
  5
105DB
  8
0
 10
1259.128829617196061
 20
15.1360983694912807
 30
0.0
 40
0.3382165305657589
 50
259.7436132420430113
 51
264.0930514689251822
  0
ARC
  5
105DC
  8
0
 10
1259.0712884899940036
 20
14.8196301473522496
 30
0.0
 40
0.0165620738380902
 50
245.2151766726767903
 51
260.689743030493787
  0
ARC
  5
105DD
  8
0
 10
1259.224374899265058
 20
15.2110249609237105
 30
0.0
 40
0.4368018347935755
 50
244.9979472434835941
 51
248.5083155668004906
  0
ARC
  5
105DE
  8
0
 10
1259.1124855878549624
 20
15.1302558102489897
 30
0.0
 40
0.3233847522534045
 50
252.3150814968684017
 51
257.003716173303701
  0
LINE
  5
105DF
  8
0
 10
1258.9673893416700139
 20
14.8600014325263405
 30
0.0
 11
1258.9780139049989884
 21
14.8579016781999602
 31
0.0
  0
LINE
  5
105E0
  8
0
 10
1258.9780139049989884
 20
14.8579016781999602
 30
0.0
 11
1258.9872291602830501
 21
14.8517321722831408
 31
0.0
  0
LINE
  5
105E1
  8
0
 10
1259.0361336000830761
 20
14.8244294359831397
 30
0.0
 11
1259.0361336000830761
 21
14.8200326926831405
 31
0.0
  0
LINE
  5
105E2
  8
0
 10
1259.045976119783063
 20
14.8214634459831505
 30
0.0
 11
1259.0459663591850585
 21
14.8191654701418702
 31
0.0
  0
ARC
  5
105E3
  8
0
 10
1259.0407285028829847
 20
14.8201068028648102
 30
0.0
 40
0.0045955004136667
 50
180.9240309692821995
 51
243.88089938417599
  0
ARC
  5
105E4
  8
0
 10
1259.0415310295850304
 20
14.8196734399539594
 30
0.0
 40
0.0044643232406836
 50
259.1468674850402749
 51
353.4664907610937234
  0
LINE
  5
105E5
  8
0
 10
1259.0406904325830055
 20
14.8152889697831398
 30
0.0
 11
1259.038705386582933
 21
14.8159805909831395
 31
0.0
  0
LINE
  5
105E6
  8
0
 10
1259.0679677097830336
 20
14.8180902384831406
 30
0.0
 11
1259.0679677097830336
 21
14.8097487630831406
 31
0.0
  0
LINE
  5
105E7
  8
0
 10
1259.0679677097830336
 20
14.8097487630831406
 30
0.0
 11
1259.0678019247839075
 21
14.8086527486831407
 31
0.0
  0
LINE
  5
105E8
  8
0
 10
1259.0678019247839075
 20
14.8086527486831407
 30
0.0
 11
1259.0668373158830491
 21
14.8044931672831392
 31
0.0
  0
LINE
  5
105E9
  8
0
 10
1259.0668373158830491
 20
14.8044931672831392
 30
0.0
 11
1259.0668373158830491
 21
14.8036774253631904
 31
0.0
  0
LINE
  5
105EA
  8
0
 10
1259.0899592997839136
 20
14.8087900450831391
 30
0.0
 11
1259.0899592997839136
 21
14.8045956095831404
 31
0.0
  0
ARC
  5
105EB
  8
0
 10
1259.0945381167980486
 20
14.8046954254653897
 30
0.0
 40
0.0045799048528164
 50
181.2488210587098081
 51
250.1557653613490118
  0
ARC
  5
105EC
  8
0
 10
1259.0953240132739666
 20
14.8044126955886401
 30
0.0
 40
0.0044837539671849
 50
265.4516357978696988
 51
357.0485094014808851
  0
LINE
  5
105ED
  8
0
 10
1259.0929834029839185
 20
14.8003874800831401
 30
0.0
 11
1259.0949684489830815
 21
14.7999430620831394
 31
0.0
  0
LINE
  5
105EE
  8
0
 10
1258.992119464498046
 20
14.8412652503361908
 30
0.0
 11
1259.014142010122896
 21
14.8289016387744503
 31
0.0
  0
LINE
  5
105EF
  8
0
 10
1259.0138169283829939
 20
14.8273532512831405
 30
0.0
 11
1259.036133600121957
 21
14.8212194360529104
 31
0.0
  0
LINE
  5
105F0
  8
0
 10
1259.0459663591850585
 20
14.8191654701418702
 30
0.0
 11
1259.0679677097830336
 21
14.8097487630831406
 31
0.0
  0
LINE
  5
105F1
  8
0
 10
1259.0678019247989141
 20
14.8086527486066704
 30
0.0
 11
1259.0899592997370746
 21
14.8055044529962601
 31
0.0
  0
LINE
  5
105F2
  8
0
 10
1259.099801819482991
 20
14.8068931045831391
 30
0.0
 11
1259.0998018194879933
 21
14.8041818250902502
 31
0.0
  0
LINE
  5
105F3
  8
0
 10
1259.0998018194879933
 20
14.8041818250902502
 30
0.0
 11
1259.1217934094659086
 21
14.7973838124164399
 31
0.0
  0
ARC
  5
105F4
  8
0
 10
1259.4755657647249336
 20
16.0240143160088593
 30
0.0
 40
1.2912188535742231
 50
248.6483808653028973
 51
248.9888969295683125
  0
ARC
  5
105F5
  8
0
 10
1259.1917646894230529
 20
15.1913808151605192
 30
0.0
 40
0.4135576808697209
 50
244.3275304708238878
 51
248.2779759456705051
  0
LINE
  5
105F6
  8
0
 10
1259.0190083184841114
 20
14.81563795108314
 30
0.0
 11
1259.0190083184841114
 21
14.8091726076831396
 31
0.0
  0
ARC
  5
105F7
  8
0
 10
1259.0242406324960029
 20
14.8090259553662804
 30
0.0
 40
0.0052343688088209
 50
178.3945230474554933
 51
238.2248903021408921
  0
LINE
  5
105F8
  8
0
 10
1259.0241395226830718
 20
14.8038393030831408
 30
0.0
 11
1259.0381592018738957
 21
14.8066100412878701
 31
0.0
  0
LINE
  5
105F9
  8
0
 10
1259.0241395226830718
 20
14.8038393030831408
 30
0.0
 11
1259.0232106173070861
 21
14.8039280241385303
 31
0.0
  0
ARC
  5
105FA
  8
0
 10
1259.040070607933103
 20
14.8100519241386106
 30
0.0
 40
0.0039370078336349
 50
211.6292335474792026
 51
249.7103498673581043
  0
ARC
  5
105FB
  8
0
 10
1259.0420391119819215
 20
14.8093291595050207
 30
0.0
 40
0.0039370073218754
 50
249.9667984630054036
 51
289.9737784309127733
  0
LINE
  5
105FC
  8
0
 10
1259.0387053865390499
 20
14.8063592013922207
 30
0.0
 11
1259.0406904325830055
 21
14.8056303636831394
 31
0.0
  0
ARC
  5
105FD
  8
0
 10
1259.144008931172948
 20
15.1305051236994306
 30
0.0
 40
0.3401027832429952
 50
252.3148522374868037
 51
256.8910852465521089
  0
ARC
  5
105FE
  8
0
 10
1259.1970112806538964
 20
15.1698756143619793
 30
0.0
 40
0.3927953076971298
 50
250.6514437595618006
 51
254.6425589916474053
  0
ARC
  5
105FF
  8
0
 10
1259.0981656978519823
 20
14.80904224802795
 30
0.0
 40
0.0186698160571849
 50
253.8844076442373137
 51
260.1393618216612822
  0
ARC
  5
10600
  8
0
 10
1259.1551189798399264
 20
15.1118393465136496
 30
0.0
 40
0.3267748690016895
 50
259.3928910069329277
 51
264.0311576800307876
  0
ARC
  5
10601
  8
0
 10
1259.1850667577609784
 20
15.0584722725014899
 30
0.0
 40
0.2790574551885717
 50
256.7566987749735858
 51
258.6290363715494891
  0
LINE
  5
10602
  8
0
 10
1259.0630464499829486
 20
14.7983761477115898
 30
0.0
 11
1259.0630464499829486
 21
14.7957933570831504
 31
0.0
  0
LINE
  5
10603
  8
0
 10
1259.0728889695828911
 20
14.7953692776470405
 30
0.0
 11
1259.0728889695828911
 21
14.7935790579831394
 31
0.0
  0
ARC
  5
10604
  8
0
 10
1259.1746485598760046
 20
15.1803865955924593
 30
0.0
 40
0.3979786592553361
 50
250.3303651906155096
 51
254.2822870601877128
  0
ARC
  5
10605
  8
0
 10
1259.1668853339729139
 20
15.1021769449966996
 30
0.0
 40
0.3208835634043394
 50
251.8328382208540859
 51
256.8668652605298917
  0
ARC
  5
10606
  8
0
 10
1259.1795114674239358
 20
15.1487669221770105
 30
0.0
 40
0.369127768833963
 50
256.6014432630788065
 51
260.8974850289109781
  0
ARC
  5
10607
  8
0
 10
1259.197001684857014
 20
15.1940551362004808
 30
0.0
 40
0.4167351776534895
 50
259.5079985834486251
 51
264.474655660106805
  0
ARC
  5
10608
  8
0
 10
1259.157339967317057
 20
14.7830827642459006
 30
0.0
 40
0.0038545681755425
 50
263.0851692146416099
 51
1.40527161116818
  0
ARC
  5
10609
  8
0
 10
1259.1672784846850845
 20
14.8117407284945006
 30
0.0
 40
0.0304399005899465
 50
258.1437615475705911
 51
285.826101343609821
  0
LINE
  5
1060A
  8
0
 10
1259.1611933761830642
 20
14.8145755720831396
 30
0.0
 11
1259.1718278259841099
 21
14.8103358075831402
 31
0.0
  0
LINE
  5
1060B
  8
0
 10
1259.17069784918408
 20
14.8107898100831399
 30
0.0
 11
1259.17069784918408
 21
14.7931523598831394
 31
0.0
  0
LINE
  5
1060C
  8
0
 10
1259.1611933567351116
 20
14.7873807235503794
 30
0.0
 11
1259.1709632391830382
 21
14.7918038555831401
 31
0.0
  0
ARC
  5
1060D
  8
0
 10
1259.1756035491409875
 20
14.7934174505188203
 30
0.0
 40
0.0049128571236532
 50
183.0930992337115981
 51
258.6281973654225226
  0
LINE
  5
1060E
  8
0
 10
1259.1746348570839018
 20
14.7886010409831403
 30
0.0
 11
1259.1766033609831084
 21
14.7886010409831403
 31
0.0
  0
ARC
  5
1060F
  8
0
 10
1259.1747070285030077
 20
14.7942198833422704
 30
0.0
 40
0.0059302163817728
 50
288.6492932767617958
 51
349.6294101241177827
  0
LINE
  5
10610
  8
0
 10
1259.1805403688829301
 20
14.7931523598831394
 30
0.0
 11
1259.1805403688829301
 21
14.81079006938314
 31
0.0
  0
LINE
  5
10611
  8
0
 10
1259.1794103927838933
 20
14.8103358076831402
 30
0.0
 11
1259.202529477654025
 21
14.8194411854588601
 31
0.0
  0
ARC
  5
10612
  8
0
 10
1259.1730464228398887
 20
14.8142595212526107
 30
0.0
 40
0.0041085894489456
 50
252.7466521161711057
 51
292.7439161123563736
  0
ARC
  5
10613
  8
0
 10
1259.1781918611479796
 20
14.8142608982312201
 30
0.0
 40
0.0041098850540737
 50
247.2626590023311053
 51
287.2467863550714924
  0
LINE
  5
10614
  8
0
 10
1259.1746348570839018
 20
14.8104704073831392
 30
0.0
 11
1259.1766033609831084
 21
14.8104704071831392
 31
0.0
  0
ARC
  5
10615
  8
0
 10
1259.186536891427977
 20
14.8091495984289292
 30
0.0
 40
0.0288560483133035
 50
247.6843851783663126
 51
266.5010954013948776
  0
ARC
  5
10616
  8
0
 10
1259.2025279826809765
 20
15.3002801795331003
 30
0.0
 40
0.5202358100677366
 50
268.0444995698493926
 51
269.2201512292551797
  0
ARC
  5
10617
  8
0
 10
1259.1880514165279692
 20
15.3350337276589705
 30
0.0
 40
0.5549904517902783
 50
270.7635553977041809
 51
271.4948471845568747
  0
ARC
  5
10618
  8
0
 10
1259.2014877094120493
 20
14.7810924573770492
 30
0.0
 40
0.003911056697725
 50
194.2896858775226008
 51
269.2914621419149057
  0
LINE
  5
10619
  8
0
 10
1259.1805403688829301
 20
14.86598771210606
 30
0.0
 11
1259.1805403688829301
 21
14.8495081148831396
 31
0.0
  0
LINE
  5
1061A
  8
0
 10
1259.1766033609831084
 20
14.8417000801831396
 30
0.0
 11
1259.2284605566831033
 21
14.8417000801831396
 31
0.0
  0
ARC
  5
1061B
  8
0
 10
1259.166671790439068
 20
14.8516044150388709
 30
0.0
 40
0.0140261164409854
 50
315.0786699175444028
 51
351.4045444302690271
  0
ARC
  5
1061C
  8
0
 10
1259.177764484986028
 20
14.8693737293104906
 30
0.0
 40
0.0040069247139938
 50
253.1552540564472906
 51
284.2926433019974866
  0
LINE
  5
1061D
  8
0
 10
1259.1787536928839017
 20
14.8654908291831394
 30
0.0
 11
1259.202529477654025
 21
14.8721029857416802
 31
0.0
  0
LINE
  5
1061E
  8
0
 10
1259.1897802168230101
 20
14.8685573568831408
 30
0.0
 11
1259.2152787384850399
 21
14.8685573568831408
 31
0.0
  0
LINE
  5
1061F
  8
0
 10
1259.1766033609831084
 20
14.8417000801831396
 30
0.0
 11
1259.1766033611829698
 21
14.8655387276831394
 31
0.0
  0
LINE
  5
10620
  8
0
 10
1259.1611933761830642
 20
14.8885599468831398
 30
0.0
 11
1259.1756191089830281
 21
14.8917574016831402
 31
0.0
  0
LINE
  5
10621
  8
0
 10
1259.1756191089830281
 20
14.8917574016831402
 30
0.0
 11
1259.1997608749838946
 21
14.8863297465831401
 31
0.0
  0
ARC
  5
10622
  8
0
 10
1259.2025304377400516
 20
14.9038703708959908
 30
0.0
 40
0.0177579272198341
 50
261.0274036736446988
 51
266.8276077667222808
  0
LINE
  5
10623
  8
0
 10
1259.2015477068830478
 20
14.8861396568886803
 30
0.0
 11
1259.2035162108838904
 21
14.8861396568886803
 31
0.0
  0
LINE
  5
10624
  8
0
 10
1259.1976106990830431
 20
14.8868131583264898
 30
0.0
 11
1259.1976106990830431
 21
14.8780220182831506
 31
0.0
  0
ARC
  5
10625
  8
0
 10
1259.2027667452071
 20
14.8785110087825903
 30
0.0
 40
0.0051791817241919
 50
185.4176288500879934
 51
256.3864029909443047
  0
LINE
  5
10626
  8
0
 10
1259.17595715578409
 20
14.8845806920831496
 30
0.0
 11
1259.17595715578409
 21
14.8716365404831397
 31
0.0
  0
LINE
  5
10627
  8
0
 10
1259.1927653030859346
 20
14.8879025209810596
 30
0.0
 11
1259.17595715578409
 21
14.8845806920831496
 31
0.0
  0
LINE
  5
10628
  8
0
 10
1259.1611933761830642
 20
14.9247027992831391
 30
0.0
 11
1259.1611933761830642
 21
14.7831772942831403
 31
0.0
  0
ARC
  5
10629
  8
0
 10
1259.1718310145440682
 20
14.9025133775494201
 30
0.0
 40
0.0184012567386762
 50
234.683471627277811
 51
282.9576912113873277
  0
ARC
  5
1062A
  8
0
 10
1259.1711513133870994
 20
14.8915843161763597
 30
0.0
 40
0.0254757916318698
 50
246.9908316411674036
 51
285.4212153695509073
  0
LINE
  5
1062B
  8
0
 10
1259.1779256595839342
 20
14.8670257293831405
 30
0.0
 11
1259.2015477068830478
 21
14.87347733528315
 31
0.0
  0
ARC
  5
1062C
  8
0
 10
1259.183185839907992
 20
14.8719970842195792
 30
0.0
 40
0.0072376699255701
 50
182.8553647691344111
 51
223.3830297588893075
  0
LINE
  5
1062D
  8
0
 10
1259.1611933762148965
 20
14.9059499935949908
 30
0.0
 11
1259.1756191090150878
 21
14.9034579796146698
 31
0.0
  0
LINE
  5
1062E
  8
0
 10
1259.1756191090150878
 20
14.9034579796146698
 30
0.0
 11
1259.2015477068650853
 21
14.9078406588330807
 31
0.0
  0
LINE
  5
1062F
  8
0
 10
1259.1976106990830431
 20
14.9156499921160908
 30
0.0
 11
1259.1976106990830431
 21
14.9122500721831504
 31
0.0
  0
ARC
  5
10630
  8
0
 10
1259.2023149012670729
 20
14.9124879729157502
 30
0.0
 40
0.0047102138952904
 50
182.8950935579977966
 51
260.6259633612855282
  0
LINE
  5
10631
  8
0
 10
1259.1756191090830725
 20
14.9164269359831394
 30
0.0
 11
1259.1756191090150878
 21
14.9034579796146698
 31
0.0
  0
LINE
  5
10632
  8
0
 10
1259.1756191090830725
 20
14.9164269359831394
 30
0.0
 11
1259.1665137621830581
 21
14.9182264444831407
 31
0.0
  0
LINE
  5
10633
  8
0
 10
1259.1756191090830725
 20
14.9164269359831394
 30
0.0
 11
1259.1815349569828868
 21
14.9175960069831408
 31
0.0
  0
ARC
  5
10634
  8
0
 10
1259.1706194524199418
 20
14.8700393916116003
 30
0.0
 40
0.0483616455133675
 50
87.7771473149035444
 51
101.2393548556066065
  0
ARC
  5
10635
  8
0
 10
1259.1686714513421066
 20
14.8198533230087399
 30
0.0
 40
0.0985855062770274
 50
82.5026291292938936
 51
87.7771473149035444
  0
LINE
  5
10636
  8
0
 10
1259.1815349569828868
 20
14.9175960069831408
 30
0.0
 11
1259.2005553529841109
 21
14.9152935332831493
 31
0.0
  0
LINE
  5
10637
  8
0
 10
1259.2005553529841109
 20
14.9152935332831493
 30
0.0
 11
1259.2045036023250759
 21
14.9152935332831493
 31
0.0
  0
LINE
  5
10638
  8
0
 10
1259.202529477654025
 20
14.9209240582519804
 30
0.0
 11
1259.1805403688829301
 21
14.9235000185831499
 31
0.0
  0
LINE
  5
10639
  8
0
 10
1259.1805403688829301
 20
14.9244818409049795
 30
0.0
 11
1259.1805403688829301
 21
14.9229608842831407
 31
0.0
  0
ARC
  5
1063A
  8
0
 10
1259.176097394863973
 20
14.9230949266285293
 30
0.0
 40
0.0044449955551903
 50
276.5360456252565768
 51
358.2719386211927031
  0
LINE
  5
1063B
  8
0
 10
1259.1766033609831084
 20
14.9245800154872601
 30
0.0
 11
1259.1766033609831084
 21
14.9186788215831392
 31
0.0
  0
LINE
  5
1063C
  8
0
 10
1259.1766033609831084
 20
14.9186788215831392
 30
0.0
 11
1259.202529477654025
 21
14.9156665184837909
 31
0.0
  0
ARC
  5
1063D
  8
0
 10
1259.1646332981940759
 20
14.9466624861568498
 30
0.0
 40
0.0222274809870934
 50
261.0971303785487976
 51
271.3745836803951761
  0
ARC
  5
1063E
  8
0
 10
1259.1733989200320138
 20
14.7170849226072793
 30
0.0
 40
0.2075198352232484
 50
86.8572858235068423
 51
92.2735481640680746
  0
ARC
  5
1063F
  8
0
 10
1259.1888655333939369
 20
14.9987786207458704
 30
0.0
 40
0.0745981466564732
 50
266.8572858235067997
 51
280.5543031770002926
  0
LINE
  5
10640
  8
0
 10
1259.1487062592830171
 20
14.9240046263008797
 30
0.0
 11
1259.1487062592830171
 21
14.8934192740831399
 31
0.0
  0
LINE
  5
10641
  8
0
 10
1259.1267146692830465
 20
14.9217393411777692
 30
0.0
 11
1259.1267146692830465
 21
14.9070876616831391
 31
0.0
  0
LINE
  5
10642
  8
0
 10
1259.1168721495830596
 20
14.9204730163906891
 30
0.0
 11
1259.1168721495830596
 21
14.90743695158314
 31
0.0
  0
LINE
  5
10643
  8
0
 10
1259.0948805595830891
 20
14.9170732222737605
 30
0.0
 11
1259.0948805595830891
 21
14.9030907082831394
 31
0.0
  0
ARC
  5
10644
  8
0
 10
1259.3597617966859161
 20
15.3203617765002296
 30
0.0
 40
0.5015384337313615
 50
234.5163653196239011
 51
237.5552760159955028
  0
ARC
  5
10645
  8
0
 10
1259.0385246919049678
 20
15.2575191897484004
 30
0.0
 40
0.366740018820817
 50
279.3285229301591812
 51
283.0231124666448181
  0
ARC
  5
10646
  8
0
 10
1259.3062927976450283
 20
15.2144652398554303
 30
0.0
 40
0.3647280021196117
 50
239.4978197380656013
 51
240.6527658965804051
  0
LINE
  5
10647
  8
0
 10
1259.099801819482991
 20
14.8959346836638709
 30
0.0
 11
1259.099801819482991
 21
14.8813542784831405
 31
0.0
  0
LINE
  5
10648
  8
0
 10
1259.1217934093829172
 20
14.8998380341831407
 30
0.0
 11
1259.1217934093829172
 21
14.8681248179831407
 31
0.0
  0
LINE
  5
10649
  8
0
 10
1259.1267146692830465
 20
14.8970105270831503
 30
0.0
 11
1259.1267146692830465
 21
14.8688388424831395
 31
0.0
  0
LINE
  5
1064A
  8
0
 10
1259.0899592997839136
 20
14.8975779696831498
 30
0.0
 11
1259.0899592997839136
 21
14.8818089910831404
 31
0.0
  0
LINE
  5
1064B
  8
0
 10
1259.0679677097830336
 20
14.9118238366059792
 30
0.0
 11
1259.0679677097830336
 21
14.8806992981831403
 31
0.0
  0
LINE
  5
1064C
  8
0
 10
1259.045976119783063
 20
14.9063519097405202
 30
0.0
 11
1259.045976119783063
 21
14.8970739875831502
 31
0.0
  0
LINE
  5
1064D
  8
0
 10
1259.0361334742390227
 20
14.9032434749538396
 30
0.0
 11
1259.0361409357690263
 21
14.8975461604930199
 31
0.0
  0
ARC
  5
1064E
  8
0
 10
1259.0420691383169469
 20
15.2144320110593494
 30
0.0
 40
0.3234140112017561
 50
265.3999485604376787
 51
269.6005956937145243
  0
ARC
  5
1064F
  8
0
 10
1259.3225841617158949
 20
15.2868687584885095
 30
0.0
 40
0.4864670505526107
 50
234.459967459815914
 51
237.8780378410658045
  0
LINE
  5
10650
  8
0
 10
1259.0190632699839171
 20
14.8918372921568007
 30
0.0
 11
1259.0190632699839171
 21
14.8807632410831392
 31
0.0
  0
LINE
  5
10651
  8
0
 10
1259.0410548599829781
 20
14.8901428536885803
 30
0.0
 11
1259.0410548599829781
 21
14.8646281444831398
 31
0.0
  0
LINE
  5
10652
  8
0
 10
1259.0630464499829486
 20
14.8754223714831397
 30
0.0
 11
1259.0630464499829486
 21
14.8625283466831402
 31
0.0
  0
LINE
  5
10653
  8
0
 10
1259.0092207502830206
 20
14.8926763632360402
 30
0.0
 11
1259.0092207502830206
 21
14.8815857641831393
 31
0.0
  0
ARC
  5
10654
  8
0
 10
1258.989426864241068
 20
14.8838681770934205
 30
0.0
 40
0.0046171738705938
 50
240.1718166159874102
 51
258.0253519300497942
  0
ARC
  5
10655
  8
0
 10
1259.0522491890581023
 20
15.1886580048432105
 30
0.0
 40
0.3158139559236512
 50
258.3486791185201241
 51
262.8047552590687133
  0
ARC
  5
10656
  8
0
 10
1259.2979260451249957
 20
15.2744516229007203
 30
0.0
 40
0.4905660002600254
 50
234.4483784720914912
 51
237.8868529937529956
  0
ARC
  5
10657
  8
0
 10
1259.0439588511148941
 20
14.8700456347163001
 30
0.0
 40
0.0130276307866606
 50
238.4622744441427926
 51
265.0615518180870822
  0
ARC
  5
10658
  8
0
 10
1259.0656369293039916
 20
15.1885968189676692
 30
0.0
 40
0.332313499198775
 50
266.0659255324504215
 51
270.2192980596170742
  0
ARC
  5
10659
  8
0
 10
1259.3065298352948957
 20
15.2732228740224301
 30
0.0
 40
0.4808895716057163
 50
240.1132712586060052
 51
243.4035378229721118
  0
ARC
  5
1065A
  8
0
 10
1259.0962840765059809
 20
14.8525404628859903
 30
0.0
 40
0.0106006970264507
 50
241.5482627333996959
 51
274.5993721430190249
  0
ARC
  5
1065B
  8
0
 10
1259.0777530525110706
 20
15.20770127934518
 30
0.0
 40
0.366240549398019
 50
273.0334505923912047
 51
276.8091996538951776
  0
ARC
  5
1065C
  8
0
 10
1259.2899997460519899
 20
15.21561008523277
 30
0.0
 40
0.4081211558534122
 50
245.5649533591966929
 51
246.6308636723406096
  0
ARC
  5
1065D
  8
0
 10
1259.1294690188049117
 20
14.8443866659263701
 30
0.0
 40
0.0036765108731481
 50
248.4246554643632123
 51
279.0550613184312851
  0
LINE
  5
1065E
  8
0
 10
1259.130047641182955
 20
14.8407559733831391
 30
0.0
 11
1259.130047641182955
 21
14.8188492945831403
 31
0.0
  0
LINE
  5
1065F
  8
0
 10
1259.130047641182955
 20
14.8188492945831403
 30
0.0
 11
1259.1211149341829696
 21
14.8182689533157106
 31
0.0
  0
LINE
  5
10660
  8
0
 10
1259.1267146692830465
 20
14.8415778350831395
 30
0.0
 11
1259.1267146692830465
 21
14.8233194942831492
 31
0.0
  0
ARC
  5
10661
  8
0
 10
1259.1317734113690676
 20
14.8236136537808392
 30
0.0
 40
0.0050672873707726
 50
183.327930098477708
 51
250.0883450390028884
  0
LINE
  5
10662
  8
0
 10
1259.1217934093829172
 20
14.8437619679831503
 30
0.0
 11
1259.1217934093829172
 21
14.8237864101831391
 31
0.0
  0
ARC
  5
10663
  8
0
 10
1259.1180876195160181
 20
14.8237913307147302
 30
0.0
 40
0.0037057931342646
 50
349.8040904428003728
 51
359.9239229590929199
  0
ARC
  5
10664
  8
0
 10
1260.1874013424289842
 20
14.6849014982348596
 30
0.0
 40
1.0745946130913051
 50
172.6090972113877058
 51
172.8706635987105926
  0
ARC
  5
10665
  8
0
 10
1259.1198628945669498
 20
14.8212582407685201
 30
0.0
 40
0.0034785919718829
 50
249.0892648988636893
 51
274.278465143254607
  0
LINE
  5
10666
  8
0
 10
1259.1211095517830927
 20
14.8182710079831406
 30
0.0
 11
1259.120122411183047
 21
14.81778934278314
 31
0.0
  0
LINE
  5
10667
  8
0
 10
1259.1168721495830596
 20
14.8186855552831407
 30
0.0
 11
1259.1168721495830596
 21
14.8118425519831405
 31
0.0
  0
ARC
  5
10668
  8
0
 10
1259.1217332933958915
 20
14.8120455425080397
 30
0.0
 40
0.0048653801820878
 50
182.3911547963955115
 51
250.6650090690366142
  0
LINE
  5
10669
  8
0
 10
1259.1211664541081063
 20
14.8065014535384893
 30
0.0
 11
1259.120122411183047
 21
14.8074545749831401
 31
0.0
  0
LINE
  5
1066A
  8
0
 10
1259.0948805595830891
 20
14.8279159298831509
 30
0.0
 11
1259.0948805595830891
 21
14.8136687137831409
 31
0.0
  0
LINE
  5
1066B
  8
0
 10
1259.0728889695828911
 20
14.8287481077831504
 30
0.0
 11
1259.0728889695828911
 21
14.8233798868831403
 31
0.0
  0
ARC
  5
1066C
  8
0
 10
1259.0681589748810438
 20
14.8238198953308409
 30
0.0
 40
0.0047504165417789
 50
266.0222248705371157
 51
354.6853469605511009
  0
ARC
  5
1066D
  8
0
 10
1259.0909562675840334
 20
15.1778250419820893
 30
0.0
 40
0.3495470635989501
 50
266.4876434095962168
 51
270.5076957533041764
  0
ARC
  5
1066E
  8
0
 10
1259.0700376100160156
 20
14.8406696372571094
 30
0.0
 40
0.0117455470905945
 50
241.7870734776273878
 51
267.5801235865873764
  0
ARC
  5
1066F
  8
0
 10
1259.2795391168069727
 20
15.2369599578644905
 30
0.0
 40
0.4487924236739118
 50
245.5877430784717887
 51
248.9883818137122944
  0
ARC
  5
10670
  8
0
 10
1259.0360542737910237
 20
14.82028208273349
 30
0.0
 40
0.0591968626617435
 50
347.453489764883102
 51
353.5856262845364881
  0
LINE
  5
10671
  8
0
 10
1259.0658443947900196
 20
14.8196405036359007
 30
0.0
 11
1259.0678294407830435
 21
14.8190809223831401
 31
0.0
  0
ARC
  5
10672
  8
0
 10
1258.9683580908290423
 20
14.8599614831887195
 30
0.0
 40
0.0098730716532404
 50
328.1273481954934255
 51
347.9580039541643259
  0
ARC
  5
10673
  8
0
 10
1258.9717732726689974
 20
14.8578379807346099
 30
0.0
 40
0.0058515384039817
 50
307.2444549042804738
 51
328.1273481954899012
  0
ARC
  5
10674
  8
0
 10
1258.9761748449880088
 20
14.8520484564642494
 30
0.0
 40
0.0014211798051014
 50
127.2444549042610049
 51
173.9975319734907941
  0
ARC
  5
10675
  8
0
 10
1259.4919723927730502
 20
16.8476174743754399
 30
0.0
 40
2.0451533914032409
 50
255.3763308107884029
 51
255.6622154117665957
  0
LINE
  5
10676
  8
0
 10
1258.9756343515830395
 20
14.8687169155831391
 30
0.0
 11
1258.9739681307669343
 21
14.8683876168999696
 31
0.0
  0
LINE
  5
10677
  8
0
 10
1259.0141420101829226
 20
14.8742879261831398
 30
0.0
 11
1259.0141420101829226
 21
14.85487183918314
 31
0.0
  0
LINE
  5
10678
  8
0
 10
1259.0361336000830761
 20
14.8595784900875802
 30
0.0
 11
1259.0361336000830761
 21
14.84942763228314
 31
0.0
  0
LINE
  5
10679
  8
0
 10
1259.045976119783063
 20
14.8568654301623102
 30
0.0
 11
1259.045976119783063
 21
14.8487600969831508
 31
0.0
  0
LINE
  5
1067A
  8
0
 10
1259.0679677097830336
 20
14.8556805886831391
 30
0.0
 11
1259.0679677097830336
 21
14.8359893931831497
 31
0.0
  0
LINE
  5
1067B
  8
0
 10
1259.0899592997839136
 20
14.8438618519831405
 30
0.0
 11
1259.0899592997839136
 21
14.8340772117831392
 31
0.0
  0
ARC
  5
1067C
  8
0
 10
1259.0413748172500163
 20
14.8496497313992197
 30
0.0
 40
0.0052459208348015
 50
182.4264847055466134
 51
239.4121845203981991
  0
ARC
  5
1067D
  8
0
 10
1259.0411623527309075
 20
14.8492642237623897
 30
0.0
 40
0.0048400926689663
 50
264.4046403890521901
 51
354.0214328581844256
  0
ARC
  5
1067E
  8
0
 10
1259.0226819280899235
 20
14.8421156154186793
 30
0.0
 40
0.0456982781126262
 50
343.899163511265499
 51
352.2958447455440023
  0
LINE
  5
1067F
  8
0
 10
1259.038705386582933
 20
14.8451337790831399
 30
0.0
 11
1259.0406904325830055
 21
14.8444471926831394
 31
0.0
  0
ARC
  5
10680
  8
0
 10
1259.0101530301330968
 20
14.8548679579328091
 30
0.0
 40
0.0039889819389819
 50
336.9447619131390184
 51
0.0557483842182664
  0
ARC
  5
10681
  8
0
 10
1259.032301054664913
 20
14.8454414690650101
 30
0.0
 40
0.0200816159565654
 50
156.9447619131381941
 51
171.5184432766531017
  0
LINE
  5
10682
  8
0
 10
1258.9921504201829521
 20
14.8786180120831393
 30
0.0
 11
1258.9921504201829521
 21
14.8709545227831406
 31
0.0
  0
LINE
  5
10683
  8
0
 10
1258.982307900484102
 20
14.8760685645951298
 30
0.0
 11
1258.982307900484102
 21
14.8718817601831397
 31
0.0
  0
ARC
  5
10684
  8
0
 10
1258.9875896036639915
 20
14.87201954270685
 30
0.0
 40
0.00528350002446
 50
181.4943223439516089
 51
233.23666041933771
  0
ARC
  5
10685
  8
0
 10
1258.9872294202730245
 20
14.8717338676445401
 30
0.0
 40
0.0049823306328701
 50
260.5619954791309283
 51
351.0007377763021168
  0
LINE
  5
10686
  8
0
 10
1258.9844273700830399
 20
14.8677868542831408
 30
0.0
 11
1258.9864124160831125
 21
14.8668189797831403
 31
0.0
  0
LINE
  5
10687
  8
0
 10
1258.9792623291718883
 20
14.8734414313622398
 30
0.0
 11
1258.9823079005138879
 21
14.8726364734322392
 31
0.0
  0
LINE
  5
10688
  8
0
 10
1258.991880493249937
 20
14.8699474917893308
 30
0.0
 11
1259.0141420101720087
 21
14.8548718391608396
 31
0.0
  0
LINE
  5
10689
  8
0
 10
1259.0138234030250715
 20
14.8533057992832003
 30
0.0
 11
1259.0361336000810297
 21
14.8498959383622093
 31
0.0
  0
LINE
  5
1068A
  8
0
 10
1259.0458184873969003
 20
14.8479425176606394
 30
0.0
 11
1259.0679677098310094
 21
14.8359893931828601
 31
0.0
  0
LINE
  5
1068B
  8
0
 10
1259.0678051584341119
 20
14.8348888107424894
 30
0.0
 11
1259.0899524161259251
 21
14.8343005026307999
 31
0.0
  0
LINE
  5
1068C
  8
0
 10
1259.0728312389139774
 20
14.8229617542429004
 30
0.0
 11
1259.0948805596090097
 21
14.8136687136645406
 31
0.0
  0
LINE
  5
1068D
  8
0
 10
1259.0947763039739584
 20
14.8127993211954294
 30
0.0
 11
1259.1168721495969294
 21
14.8122841643884904
 31
0.0
  0
LINE
  5
1068E
  8
0
 10
1258.9671019632830848
 20
14.8414649844831406
 30
0.0
 11
1258.9817620196829466
 21
14.8443622816831393
 31
0.0
  0
LINE
  5
1068F
  8
0
 10
1258.9817620196829466
 20
14.8443622816831393
 30
0.0
 11
1258.982307900484102
 21
14.8441510788831401
 31
0.0
  0
ARC
  5
10690
  8
0
 10
1258.9874447635008892
 20
14.8428770469964704
 30
0.0
 40
0.005873627445402
 50
165.3528880584831882
 51
215.2245825387001048
  0
ARC
  5
10691
  8
0
 10
1258.9851190748449881
 20
14.8412349593002109
 30
0.0
 40
0.0030266501487698
 50
215.2245825386997069
 51
247.141936228148694
  0
ARC
  5
10692
  8
0
 10
1259.0495676711830129
 20
15.1917547391824392
 30
0.0
 40
0.3125422685992913
 50
259.6692343488739994
 51
262.5828347395961941
  0
ARC
  5
10693
  8
0
 10
1259.0147471814259461
 20
14.8818341199069
 30
0.0
 40
0.0055320088340704
 50
182.5731193784835114
 51
234.9016582305143004
  0
ARC
  5
10694
  8
0
 10
1259.0139821295761067
 20
14.8816077020089796
 30
0.0
 40
0.0051508350868696
 50
265.2034099690097264
 51
350.5639651854716021
  0
ARC
  5
10695
  8
0
 10
1259.3084692526829258
 20
15.2878951430819505
 30
0.0
 40
0.500664967298543
 50
234.6390874600851078
 51
237.7158538940051926
  0
ARC
  5
10696
  8
0
 10
1259.0631562306830347
 20
15.1989102608840501
 30
0.0
 40
0.3363819321009118
 50
266.1922803173065972
 51
269.9813010919962153
  0
ARC
  5
10697
  8
0
 10
1259.0370740161019967
 20
14.8646244764074993
 30
0.0
 40
0.0039808455713106
 50
340.121487233465416
 51
0.0527941310488684
  0
ARC
  5
10698
  8
0
 10
1259.0635012454249591
 20
14.8550691609569991
 30
0.0
 40
0.0241208003425054
 50
160.1214872334660981
 51
173.5178562753688141
  0
ARC
  5
10699
  8
0
 10
1259.0685403930110624
 20
14.8629064569925493
 30
0.0
 40
0.0055069390223951
 50
183.9370661051146101
 51
240.6880817672603996
  0
LINE
  5
1069A
  8
0
 10
1259.0728889695828911
 20
14.8732821647831397
 30
0.0
 11
1259.0728889695828911
 21
14.8619645854831397
 31
0.0
  0
ARC
  5
1069B
  8
0
 10
1259.067958637215952
 20
14.8624935566004996
 30
0.0
 40
0.0049586276016969
 50
268.5069965487166996
 51
353.8762103202412845
  0
LINE
  5
1069C
  8
0
 10
1259.065844394782971
 20
14.8581045853831402
 30
0.0
 11
1259.0678294407830435
 21
14.8575366123831394
 31
0.0
  0
ARC
  5
1069D
  8
0
 10
1259.071320906622077
 20
14.8897253008230592
 30
0.0
 40
0.0165960568624073
 50
243.5105261320285877
 51
266.9421407909279083
  0
ARC
  5
1069E
  8
0
 10
1259.0534191931481018
 20
15.2254542279851997
 30
0.0
 40
0.3527120670499473
 50
272.7652779976803004
 51
276.6157676686283935
  0
ARC
  5
1069F
  8
0
 10
1259.3278917677669142
 20
15.2796698110701801
 30
0.0
 40
0.4672939382828615
 50
239.9731719500516931
 51
243.3079012577370861
  0
ARC
  5
106A0
  8
0
 10
1259.1194392544080074
 20
14.8654673418344192
 30
0.0
 40
0.0036001727482976
 50
246.1804071594957861
 51
280.9385838060567266
  0
LINE
  5
106A1
  8
0
 10
1259.0948805595830891
 20
14.8746076965831495
 30
0.0
 11
1259.0948805595830891
 21
14.8490277887831397
 31
0.0
  0
LINE
  5
106A2
  8
0
 10
1259.1168721504559471
 20
14.8627353487549598
 30
0.0
 11
1259.1168800028190162
 21
14.8500382202773
 31
0.0
  0
LINE
  5
106A3
  8
0
 10
1259.120122411183047
 20
14.8619325800831401
 30
0.0
 11
1259.1211149342009321
 21
14.8627449641365601
 31
0.0
  0
ARC
  5
106A4
  8
0
 10
1259.1179824572579946
 20
14.8681270039621491
 30
0.0
 40
0.0038109527521113
 50
349.7348552233842156
 51
359.9671348908781852
  0
LINE
  5
106A5
  8
0
 10
1259.1217324104829913
 20
14.8674478782831407
 30
0.0
 11
1259.1211149342009321
 21
14.8627449641365601
 31
0.0
  0
LINE
  5
106A6
  8
0
 10
1259.1211149341829696
 20
14.8627449641831397
 30
0.0
 11
1259.1300476411429372
 21
14.8642973072754305
 31
0.0
  0
LINE
  5
106A7
  8
0
 10
1259.1300476411429372
 20
14.8642973072754305
 30
0.0
 11
1259.130047641182955
 21
14.8963685921831406
 31
0.0
  0
ARC
  5
106A8
  8
0
 10
1259.1290454660108935
 20
14.9000528036907003
 30
0.0
 40
0.0038180845340159
 50
246.7640697162215133
 51
285.2173351578517781
  0
ARC
  5
106A9
  8
0
 10
1259.132299816873001
 20
14.8694439282131796
 30
0.0
 40
0.0056178289695866
 50
186.1832148305105079
 51
246.3656790917688966
  0
ARC
  5
106AA
  8
0
 10
1259.0947663454719532
 20
14.8819203144555008
 30
0.0
 40
0.0050671881001578
 50
272.2858339475949947
 51
353.5863241598545983
  0
ARC
  5
106AB
  8
0
 10
1259.0955202028249005
 20
14.8822865643143292
 30
0.0
 40
0.0055813724863317
 50
184.9085472369370109
 51
242.9664708680315925
  0
LINE
  5
106AC
  8
0
 10
1259.0929834029839185
 20
14.8773150086831496
 30
0.0
 11
1259.0949684489830815
 21
14.8768571583831406
 31
0.0
  0
ARC
  5
106AD
  8
0
 10
1259.3346742658829953
 20
15.2888967285815802
 30
0.0
 40
0.4715583312982185
 50
240.0871864655142076
 51
243.1638128400061873
  0
ARC
  5
106AE
  8
0
 10
1259.0602233811650876
 20
15.2363378277186108
 30
0.0
 40
0.3739828277497001
 50
279.4664585179471032
 51
280.2535499392898259
  0
ARC
  5
106AF
  8
0
 10
1259.0639773491809592
 20
14.8806968678855007
 30
0.0
 40
0.0039903613422266
 50
343.2380299884322881
 51
0.0348955382950127
  0
ARC
  5
106B0
  8
0
 10
1259.0843069166180612
 20
14.8745737303863592
 30
0.0
 40
0.0172413160522513
 50
163.2380299884291901
 51
182.9783416558433089
  0
ARC
  5
106B1
  8
0
 10
1259.0505282467941015
 20
15.2279088007690095
 30
0.0
 40
0.3487905497196895
 50
272.838087669477602
 51
276.5006106377294941
  0
ARC
  5
106B2
  8
0
 10
1259.0406814319069326
 20
14.8980724284147996
 30
0.0
 40
0.0053880055494814
 50
270.0957127822347843
 51
349.3209067679139821
  0
ARC
  5
106B3
  8
0
 10
1259.0420134636749481
 20
14.8983106168852508
 30
0.0
 40
0.0059220754451282
 50
187.4167727250112989
 51
236.0408993539678875
  0
ARC
  5
106B4
  8
0
 10
1259.0393334856830734
 20
15.2188653787784194
 30
0.0
 40
0.321335078095275
 50
266.8768059164046917
 51
269.430741746219212
  0
ARC
  5
106B5
  8
0
 10
1259.3353794779829968
 20
15.3038799874824605
 30
0.0
 40
0.5005906007991846
 50
234.6195885382570907
 51
237.7108314876012116
  0
LINE
  5
106B6
  8
0
 10
1259.038705386582933
 20
14.8933986311831408
 30
0.0
 11
1259.0406904325830055
 21
14.8926844303831505
 31
0.0
  0
ARC
  5
106B7
  8
0
 10
1259.016796392517108
 20
14.9053632066049406
 30
0.0
 40
0.0133202095265555
 50
243.7819905286613107
 51
267.138465587105884
  0
LINE
  5
106B8
  8
0
 10
1259.0115663782830779
 20
14.8773080163831501
 30
0.0
 11
1259.0135514242829231
 21
14.8764749059831392
 31
0.0
  0
ARC
  5
106B9
  8
0
 10
1259.3082004246009546
 20
15.2725815589353697
 30
0.0
 40
0.4742395607933298
 50
240.2221401971266914
 51
243.2682123003918946
  0
ARC
  5
106BA
  8
0
 10
1259.0910531676011033
 20
14.8490317814983701
 30
0.0
 40
0.0038273940649925
 50
346.5227909070050032
 51
359.9402293651738773
  0
ARC
  5
106BB
  8
0
 10
1259.110432013738091
 20
14.8433277035859508
 30
0.0
 40
0.0163796496087052
 50
162.9153943229362937
 51
184.0579698997198932
  0
ARC
  5
106BC
  8
0
 10
1259.0747423227560375
 20
15.21103489616325
 30
0.0
 40
0.3634476359557934
 50
273.1596830302536887
 51
276.6577761155367057
  0
ARC
  5
106BD
  8
0
 10
1259.1223176325329405
 20
14.8507691030088207
 30
0.0
 40
0.005486529547531
 50
187.6553587644939967
 51
246.4148761961247942
  0
LINE
  5
106BE
  8
0
 10
1259.1211149341829696
 20
14.8447110083831397
 30
0.0
 11
1259.120122411183047
 21
14.84574088168314
 31
0.0
  0
LINE
  5
106BF
  8
0
 10
1259.120122411183047
 20
14.84574088168314
 30
0.0
 11
1259.120122411183047
 21
14.8619325800831401
 31
0.0
  0
ARC
  5
106C0
  8
0
 10
1259.1233707620169753
 20
14.8445805137821196
 30
0.0
 40
0.0022595990922425
 50
176.6892568394281113
 51
193.7350002644064944
  0
ARC
  5
106C1
  8
0
 10
1259.097577359952993
 20
14.9123305892078708
 30
0.0
 40
0.0167059833205093
 50
245.6660984442142137
 51
271.3516959767239882
  0
ARC
  5
106C2
  8
0
 10
1259.0908713625890414
 20
14.9030887007017601
 30
0.0
 40
0.0040091974977423
 50
346.3293744418946858
 51
0.0286905160301519
  0
ARC
  5
106C3
  8
0
 10
1259.1142836226499639
 20
14.8973941216156796
 30
0.0
 40
0.0200856598826046
 50
166.3293744418971016
 51
184.0959442048589949
  0
ARC
  5
106C4
  8
0
 10
1259.3606611257439454
 20
15.3191342411083902
 30
0.0
 40
0.4936917363642256
 50
235.1425882040088879
 51
237.4283902319118056
  0
ARC
  5
106C5
  8
0
 10
1259.0355615566559209
 20
15.2601231183141497
 30
0.0
 40
0.3628448151374016
 50
279.3909482835019844
 51
282.9784517457678135
  0
ARC
  5
106C6
  8
0
 10
1259.1226139042450995
 20
14.9081279138115192
 30
0.0
 40
0.0057831803875781
 50
186.8619714769127995
 51
244.4805728198616919
  0
ARC
  5
106C7
  8
0
 10
1259.1212208635929528
 20
14.9080670079097093
 30
0.0
 40
0.0055804139627751
 50
279.1416585861442741
 51
349.8924149646744013
  0
ARC
  5
106C8
  8
0
 10
1259.360273134082945
 20
15.3058841419820908
 30
0.0
 40
0.4635599311988086
 50
239.6838088124424928
 51
242.8452119087071139
  0
ARC
  5
106C9
  8
0
 10
1258.5907990044629514
 20
14.9395156626337702
 30
0.0
 40
0.5598083440062539
 50
354.744444360568707
 51
355.276736518344876
  0
ARC
  5
106CA
  8
0
 10
1259.0423647665838871
 20
15.2705323694826607
 30
0.0
 40
0.3922575202994977
 50
285.7239390704382913
 51
286.7310776439053939
  0
ARC
  5
106CB
  8
0
 10
1259.0434074194829464
 20
15.2681462425853294
 30
0.0
 40
0.394110243602273
 50
285.4283718961070804
 51
286.732902655297778
  0
ARC
  5
106CC
  8
0
 10
1259.1557801898009075
 20
14.8969183527776501
 30
0.0
 40
0.0062908270815732
 50
280.0307128835553954
 51
329.3715121326143844
  0
LINE
  5
106CD
  8
0
 10
1259.155287864382899
 20
14.9245320038242308
 30
0.0
 11
1259.155287864382899
 21
14.8948804878831407
 31
0.0
  0
ARC
  5
106CE
  8
0
 10
1259.1632982513110619
 20
14.8955589777893795
 30
0.0
 40
0.0080390700512819
 50
184.8414690163922955
 51
216.9755580115109979
  0
LINE
  5
106CF
  8
0
 10
1259.1315253283239599
 20
14.8971496928735103
 30
0.0
 11
1259.1482539424280276
 21
14.8882382396178006
 31
0.0
  0
LINE
  5
106D0
  8
0
 10
1259.1315253283239599
 20
14.8971496928735103
 30
0.0
 11
1259.130047641182955
 21
14.8963685921831406
 31
0.0
  0
LINE
  5
106D1
  8
0
 10
1259.120122411183047
 20
14.9029089447831407
 30
0.0
 11
1259.1221074571828922
 21
14.9025574732831405
 31
0.0
  0
LINE
  5
106D2
  8
0
 10
1259.099801819482991
 20
14.8421271178831393
 30
0.0
 11
1259.099801819482991
 21
14.8336431084831393
 31
0.0
  0
ARC
  5
106D3
  8
0
 10
1259.0951050102239606
 20
14.8343459385870897
 30
0.0
 40
0.005152722584741
 50
182.9894681143921957
 51
245.6855061393752067
  0
ARC
  5
106D4
  8
0
 10
1259.0948729813069349
 20
14.8341642496901702
 30
0.0
 40
0.0049563125336727
 50
271.1036901370687815
 51
353.9643662509748765
  0
LINE
  5
106D5
  8
0
 10
1259.0929834029839185
 20
14.8296502668831494
 30
0.0
 11
1259.0949684489830815
 21
14.8292088566831399
 31
0.0
  0
ARC
  5
106D6
  8
0
 10
1259.2829913765840502
 20
15.2399662499836701
 30
0.0
 40
0.4463075662005554
 50
245.7581251997993093
 51
248.827235781297901
  0
ARC
  5
106D7
  8
0
 10
1259.1005430011830413
 20
15.1882243513998407
 30
0.0
 40
0.3657035329167372
 50
273.3220528476215918
 51
274.1031572766776208
  0
LINE
  5
106D8
  8
0
 10
1259.130047641182955
 20
14.8038068219831391
 30
0.0
 11
1259.1300425799840923
 21
14.7914361626831496
 31
0.0
  0
LINE
  5
106D9
  8
0
 10
1259.1217337437699371
 20
14.7967310806533092
 30
0.0
 11
1259.1267146692960068
 21
14.7964941392356497
 31
0.0
  0
LINE
  5
106DA
  8
0
 10
1259.120122411183047
 20
14.81778934278314
 30
0.0
 11
1259.120122411183047
 21
14.8074545749831401
 31
0.0
  0
LINE
  5
106DB
  8
0
 10
1259.0410548599829781
 20
14.8145560284831408
 30
0.0
 11
1259.0410548599829781
 21
14.8125908922831506
 31
0.0
  0
ARC
  5
106DC
  8
0
 10
1259.0152616067659892
 20
14.8166687391063903
 30
0.0
 40
0.0261136122786987
 50
339.2547506344748172
 51
351.0160432467499732
  0
ARC
  5
106DD
  8
0
 10
1259.0494040187550127
 20
14.8068144797556407
 30
0.0
 40
0.009740660079987
 50
176.4421734377548887
 51
179.8203373278790878
  0
ARC
  5
106DE
  8
0
 10
1259.1955950840299465
 20
15.1943205328103605
 30
0.0
 40
0.4118254475988628
 50
246.0187889477475949
 51
247.9598258155834003
  0
ARC
  5
106DF
  8
0
 10
1259.1369419533320979
 20
15.1178204888121499
 30
0.0
 40
0.3212856039168562
 50
252.5894106552671019
 51
256.6565400681980122
  0
LINE
  5
106E0
  8
0
 10
1259.0630464499829486
 20
14.8051075132433603
 30
0.0
 11
1259.0630464499829486
 21
14.8037441425831506
 31
0.0
  0
ARC
  5
106E1
  8
0
 10
1259.0673055899719657
 20
14.8037758759417599
 30
0.0
 40
0.0042592582036731
 50
180.4268828639559104
 51
249.9363826587297126
  0
ARC
  5
106E2
  8
0
 10
1259.0686897680589027
 20
14.8033156966683208
 30
0.0
 40
0.0042062650384462
 50
258.1977361683478875
 51
349.5221509620308211
  0
LINE
  5
106E3
  8
0
 10
1259.0678294407830435
 20
14.7991983549831403
 30
0.0
 11
1259.065844394782971
 21
14.7997751023831405
 31
0.0
  0
ARC
  5
106E4
  8
0
 10
1259.0681548033089712
 20
14.7961668112121405
 30
0.0
 40
0.0051219861076339
 50
184.1812588099271011
 51
254.692062101481099
  0
ARC
  5
106E5
  8
0
 10
1259.0699005710869187
 20
14.7935717293973106
 30
0.0
 40
0.0029884074827518
 50
264.3133317686384771
 51
0.1405087697019545
  0
ARC
  5
106E6
  8
0
 10
1259.0385645164119524
 20
14.8103834944203498
 30
0.0
 40
0.0036944506859908
 50
209.9741426599624106
 51
252.5538285857415133
  0
LINE
  5
106E7
  8
0
 10
1259.0374568843960787
 20
14.8068589920173199
 30
0.0
 11
1259.0381267081879741
 21
14.8066035983595103
 31
0.0
  0
LINE
  5
106E8
  8
0
 10
1259.038705386582933
 20
14.80718971008314
 30
0.0
 11
1259.0406904325830055
 21
14.8064755092831408
 31
0.0
  0
ARC
  5
106E9
  8
0
 10
1259.0149006471810935
 20
14.8223909063702202
 30
0.0
 40
0.0041878826545901
 50
251.205607674686803
 51
337.0127572293866933
  0
LINE
  5
106EA
  8
0
 10
1259.0135514242829231
 20
14.8184263182831408
 30
0.0
 11
1259.0115663782830779
 21
14.8192728176831405
 31
0.0
  0
LINE
  5
106EB
  8
0
 10
1258.9878697088840909
 20
14.8242939884831397
 30
0.0
 11
1259.0028785901829451
 21
14.8272602246831404
 31
0.0
  0
LINE
  5
106EC
  8
0
 10
1259.0028785901829451
 20
14.8272602246831404
 30
0.0
 11
1259.007010833250888
 21
14.8256179670606691
 31
0.0
  0
ARC
  5
106ED
  8
0
 10
1259.0084501089108926
 20
14.8258220141106101
 30
0.0
 40
0.0057541524645093
 50
165.5258561968811932
 51
218.7387402976571025
  0
ARC
  5
106EE
  8
0
 10
1259.0078797227040468
 20
14.8277019015451792
 30
0.0
 40
0.006737031313523
 50
234.440624292332501
 51
248.8168220169071958
  0
LINE
  5
106EF
  8
0
 10
1259.2015477068830478
 20
14.87347733528315
 30
0.0
 11
1259.2035112484250021
 21
14.87347733528315
 31
0.0
  0
LINE
  5
106F0
  8
0
 10
1259.6850156839250303
 20
15.83289479553825
 30
0.0
 11
1259.6850156839250303
 21
14.9213946039831402
 31
0.0
  0
LINE
  5
106F1
  8
0
 10
1260.0747777577660145
 20
6.4190614385966711
 30
0.0
 11
1260.0747777577660145
 21
17.2404758735891015
 31
0.0
  0
LINE
  5
106F2
  8
0
 10
1260.0747777577660145
 20
17.5038868333887194
 30
0.0
 11
1260.0747777577660145
 21
18.0252473108849287
 31
0.0
  0
LINE
  5
106F3
  8
0
 10
1259.9663051066240769
 20
18.150023702383141
 30
0.0
 11
1260.0632426484251027
 21
18.0530861605831383
 31
0.0
  0
ARC
  5
106F4
  8
0
 10
1259.938466255800904
 20
18.1221848505105285
 30
0.0
 40
0.0393700811370476
 50
45.0000010799750569
 51
89.9947633779394778
  0
ARC
  5
106F5
  8
0
 10
1260.0353821783980948
 20
18.0252328646864406
 30
0.0
 40
0.0393955820165998
 50
0.0210101254319245
 51
44.9926221577291727
  0
LINE
  5
106F6
  8
0
 10
1259.7300167512250937
 20
18.0252473108831417
 30
0.0
 11
1259.7300167512250937
 21
17.5069289729831397
 31
0.0
  0
LINE
  5
106F7
  8
0
 10
1259.7300167512250937
 20
17.2404057725163717
 30
0.0
 11
1259.7300167512250937
 21
6.3428819901047637
 31
0.0
  0
ARC
  5
106F8
  8
0
 10
1259.4966320078140143
 20
17.7684255142427787
 30
0.0
 40
0.0300000008100119
 50
354.295139219577095
 51
5.7048607804196747
  0
ARC
  5
106F9
  8
0
 10
1259.4966320086409723
 20
17.7684255142876992
 30
0.0
 40
0.0299999999833997
 50
5.7048608519198654
 51
57.0455391100810587
  0
ARC
  5
106FA
  8
0
 10
1259.1782169752250411
 20
17.8002353633831305
 30
0.0
 40
0.3499999999999533
 50
338.9120721136006864
 51
354.2950543406026895
  0
ARC
  5
106FB
  8
0
 10
1259.4767863362581011
 20
17.6850993040065312
 30
0.0
 40
0.0300000382555565
 50
283.5086024927514927
 51
338.9120721136014822
  0
ARC
  5
106FC
  8
0
 10
1259.077220311299925
 20
17.1214624304917287
 30
0.0
 40
0.801017122794293
 50
57.0455600804142122
 51
80.5352505856106688
  0
ARC
  5
106FD
  8
0
 10
1259.0772203113240266
 20
17.1214624305831009
 30
0.0
 40
0.7512421060000433
 50
59.4374522557955416
 51
79.9337857621011523
  0
ARC
  5
106FE
  8
0
 10
1259.4271304837250227
 20
17.736668857487949
 30
0.0
 40
0.0450786229457489
 50
3.0526026883962101
 51
44.63029271062193
  0
LINE
  5
106FF
  8
0
 10
1259.4721451430250454
 20
17.73906941884524
 30
0.0
 11
1259.4665062543319891
 21
17.7164240744695185
 31
0.0
  0
ARC
  5
10700
  8
0
 10
1259.4278733154840211
 20
17.738769918384989
 30
0.0
 40
0.0446300426205838
 50
296.0857176535404847
 51
329.9542981162653064
  0
ARC
  5
10701
  8
0
 10
1259.637706610855048
 20
18.1373825532588384
 30
0.0
 40
0.0292092236399832
 50
25.6440750850186383
 51
55.8488767325442268
  0
ARC
  5
10702
  8
0
 10
1201.6812129045520123
 20
-17.126817650125961
 30
0.0
 40
67.8709335844462061
 50
31.2206558711215507
 51
31.3163961601082512
  0
ARC
  5
10703
  8
0
 10
1259.6640082653379977
 20
18.0232119972040614
 30
0.0
 40
0.0660398569866977
 50
1.766105469140494
 51
26.8955688861051883
  0
ARC
  5
10704
  8
0
 10
1206.0253840467660211
 20
50.0124608939667965
 30
0.0
 40
62.7842877332144766
 50
328.7322822828808171
 51
328.789576462926675
  0
ARC
  5
10705
  8
0
 10
1259.6231888938430075
 20
17.4739865228265892
 30
0.0
 40
0.0830897080236735
 50
313.3075953379822067
 51
323.9209138018600243
  0
ARC
  5
10706
  8
0
 10
1259.6396186608481003
 20
17.5147455804553687
 30
0.0
 40
0.0907354070694218
 50
336.6167993331711727
 51
355.0579994769086056
  0
ARC
  5
10707
  8
0
 10
1260.0455774910260516
 20
17.5051879823666283
 30
0.0
 40
0.0292292416307099
 50
295.1725865966234892
 51
2.716884381755639
  0
ARC
  5
10708
  8
0
 10
1259.7185310700790524
 20
17.9243918523946988
 30
0.0
 40
0.5602288271014685
 50
295.0874585504204219
 51
307.2983030206523267
  0
ARC
  5
10709
  8
0
 10
1259.9404960832330289
 20
17.4499809016665814
 30
0.0
 40
0.0364598181059238
 50
270.6800234443284126
 51
295.2848576083388821
  0
ARC
  5
1070A
  8
0
 10
1258.9624734612509656
 20
15.3576173527783109
 30
0.0
 40
0.8709034664128606
 50
34.7717268729821569
 51
73.2282731270149441
  0
ARC
  5
1070B
  8
0
 10
1259.6435663788379316
 20
15.8309385358910806
 30
0.0
 40
0.0414954436526539
 50
2.7021516683996238
 51
34.2641121535128335
  0
ARC
  5
1070C
  8
0
 10
1259.1137507388680206
 20
13.6517953893498607
 30
0.0
 40
1.372103534587795
 50
66.2481825997130613
 51
85.8193757407668869
  0
ARC
  5
1070D
  8
0
 10
1259.6593560548469668
 20
14.8940299867261192
 30
0.0
 40
0.0153606536488268
 50
24.3122164833313903
 51
62.7020138734921204
  0
ARC
  5
1070E
  8
0
 10
1259.5361703622809273
 20
14.9228763266133697
 30
0.0
 40
0.1488526965731891
 50
329.4727321623209946
 51
359.4296518828836042
  0
ARC
  5
1070F
  8
0
 10
1259.4650939703678887
 20
14.9647890968718595
 30
0.0
 40
0.2313665366131172
 50
310.1975467470106196
 51
329.4727321623203125
  0
ARC
  5
10710
  8
0
 10
1259.2694680951180999
 20
15.1400489951580699
 30
0.0
 40
0.4928351705639713
 50
294.333571623977889
 51
314.4222830159229147
  0
ARC
  5
10711
  8
0
 10
1259.450313939777061
 20
14.7395383130120994
 30
0.0
 40
0.0533884165563959
 50
275.9337515571248787
 51
294.6017501943462094
  0
ARC
  5
10712
  8
0
 10
1259.1099993394329886
 20
13.7108471188734899
 30
0.0
 40
1.2464817661731391
 50
66.4514942000143236
 51
85.6160629231791575
  0
ARC
  5
10713
  8
0
 10
1259.6062826758100073
 20
14.8496370088589895
 30
0.0
 40
0.0042501336657011
 50
43.6755094523973426
 51
66.1625872030600277
  0
ARC
  5
10714
  8
0
 10
1259.6084545125759178
 20
14.8517106857832797
 30
0.0
 40
0.001247299850613
 50
0.9905640842273342
 51
43.6755094523786127
  0
ARC
  5
10715
  8
0
 10
1259.5110159413629844
 20
14.8500259409831799
 30
0.0
 40
0.0987004348690257
 50
325.8332135792355189
 51
0.9905640842273342
  0
ARC
  5
10716
  8
0
 10
1259.3936320961740876
 20
14.9297004858382891
 30
0.0
 40
0.2405700940960937
 50
301.5982831154253176
 51
325.8332135792355189
  0
ARC
  5
10717
  8
0
 10
1259.1244377352529682
 20
15.3672990554301396
 30
0.0
 40
0.7543386334800032
 50
296.0640780622724719
 51
301.5982831154253176
  0
ARC
  5
10718
  8
0
 10
1259.4510649672620275
 20
14.6995105211134192
 30
0.0
 40
0.010949855481416
 50
271.868361229988011
 51
296.0640780622719035
  0
ARC
  5
10719
  8
0
 10
1259.5353496197890308
 20
14.9033132795352898
 30
0.0
 40
0.1380365595786109
 50
320.5263346183966746
 51
358.7716194589913812
  0
ARC
  5
1071A
  8
0
 10
1258.5430781884240332
 20
17.3326504248831306
 30
0.0
 40
1.248031496100658
 50
0.8971603743001605
 51
3.7154059214497979
  0
ARC
  5
1071B
  8
0
 10
1259.8106393143300465
 20
17.3525000294278584
 30
0.0
 40
0.0196850395291333
 50
180.8971603743009098
 51
244.1580663587660922
  0
ARC
  5
1071C
  8
0
 10
1259.9886200671201095
 20
17.3150984545614293
 30
0.0
 40
0.0196850394217066
 50
45.0000002415969931
 51
90.0000002563691766
  0
LINE
  5
1071D
  8
0
 10
1260.002539491925063
 20
17.3290178794831391
 30
0.0
 11
1260.0632426482250139
 21
17.2683147231831384
 31
0.0
  0
ARC
  5
1071E
  8
0
 10
1260.0353821797930323
 20
17.2404614276643109
 30
0.0
 40
0.0393955806213658
 50
0.0210097220524744
 51
44.9926234093015296
  0
ARC
  5
1071F
  8
0
 10
1259.6716174152900294
 20
17.3214345906487601
 30
0.0
 40
0.0163242685198367
 50
27.6788950458552492
 51
54.8585606163739925
  0
LINE
  5
10720
  8
0
 10
1259.6860736127250675
 20
17.3290174725831392
 30
0.0
 11
1259.7229014932249811
 21
17.2683145117831387
 31
0.0
  0
ARC
  5
10721
  8
0
 10
1259.634031319279984
 20
17.2307959224249494
 30
0.0
 40
0.0964652909827688
 50
5.71727556571701
 51
22.8881588598609085
  0
ARC
  5
10722
  8
0
 10
1260.4562610791710995
 20
5.1539858771862583
 30
0.0
 40
0.0394429555130023
 50
335.5107087407409949
 51
42.4533597820681692
  0
ARC
  5
10723
  8
0
 10
1261.5380321891771018
 20
6.1555259823964974
 30
0.0
 40
1.434773255049014
 50
203.886280342317491
 51
222.8039350945435046
  0
ARC
  5
10724
  8
0
 10
1261.8301242746540538
 20
6.2597991213030957
 30
0.0
 40
1.7442212453793551
 50
183.5139506711082902
 51
203.1329521621856031
  0
ARC
  5
10725
  8
0
 10
1264.688159720539943
 20
6.5352557660895911
 30
0.0
 40
4.6148449872331039
 50
181.4427674609565031
 51
184.7526867647592894
  0
ARC
  5
10726
  8
0
 10
1260.3891827453740007
 20
5.0041372290132742
 30
0.0
 40
0.0393537422826789
 50
269.9652151587179105
 51
336.0161506503770283
  0
LINE
  5
10727
  8
0
 10
1260.4251386884250223
 20
4.9881407546831431
 30
0.0
 11
1260.4921556975880321
 21
5.1376358585831454
 31
0.0
  0
ARC
  5
10728
  8
0
 10
1259.861395809843998
 20
5.0149645536393299
 30
0.0
 40
0.0898459974581376
 50
326.0462824446390755
 51
342.6288361921630781
  0
LINE
  5
10729
  8
0
 10
1259.9471439952249057
 20
4.9881400878831448
 30
0.0
 11
1259.9885393508250218
 21
5.1376358585831454
 31
0.0
  0
ARC
  5
1072A
  8
0
 10
1259.9349452292660771
 20
5.1540910900452701
 30
0.0
 40
0.0560633972225604
 50
342.9317199146215103
 51
28.2329051497235604
  0
ARC
  5
1072B
  8
0
 10
1261.4663835983380977
 20
6.0132718373785181
 30
0.0
 40
1.6999348632171689
 50
196.5501540748618936
 51
209.3286539656247101
  0
ARC
  5
1072C
  8
0
 10
1262.1142127048840393
 20
6.2057845578849253
 30
0.0
 40
2.375763020995127
 50
182.6288091637586888
 51
196.5501540748618936
  0
ARC
  5
1072D
  8
0
 10
1266.4200247855549151
 20
6.5168598401810476
 30
0.0
 40
6.6922698534741967
 50
181.4896768821755018
 51
183.5985349487523877
  0
ARC
  5
1072E
  8
0
 10
1259.4892441379299726
 20
14.8259473593133002
 30
0.0
 40
0.0430072708387825
 50
320.5345428764686062
 51
39.4654571235337315
  0
ARC
  5
1072F
  8
0
 10
1259.4197209873680094
 20
14.8838495514761409
 30
0.0
 40
0.1334840531878919
 50
294.2444654397608019
 51
320.3151441995930213
  0
ARC
  5
10730
  8
0
 10
1259.3060150283490657
 20
15.1157092213029092
 30
0.0
 40
0.3916768253368633
 50
282.9603903983617101
 51
295.4833726107020198
  0
ARC
  5
10731
  8
0
 10
1259.4564447912289324
 20
14.8041937675333699
 30
0.0
 40
0.0822554398186262
 50
36.6406413113701106
 51
41.0016813939833966
  0
ARC
  5
10732
  8
0
 10
1259.503128836634005
 20
14.8074358544740399
 30
0.0
 40
0.0488076085902339
 50
309.4122114183857093
 51
50.5877885816147597
  0
ARC
  5
10733
  8
0
 10
1259.4120479917819466
 20
14.8991027445017199
 30
0.0
 40
0.177872904566943
 50
292.2285611773132814
 51
313.3354446379958063
  0
ARC
  5
10734
  8
0
 10
1259.2942210823550795
 20
15.1694454277346402
 30
0.0
 40
0.4727473747295456
 50
281.6722909961590062
 51
293.0526125074516131
  0
ARC
  5
10735
  8
0
 10
1259.4264540684300755
 20
14.8537509868629307
 30
0.0
 40
0.0398524555944038
 50
318.4027672809148726
 51
41.597232719085028
  0
LINE
  5
10736
  8
0
 10
1259.466306524024958
 20
14.8858468436831508
 30
0.0
 11
1259.466306524024958
 21
14.8537509868629307
 31
0.0
  0
ARC
  5
10737
  8
0
 10
1259.4037631351341133
 20
14.7048127131144408
 30
0.0
 40
0.1915333702640136
 50
47.1111655441999275
 51
70.9410724402413848
  0
ARC
  5
10738
  8
0
 10
1259.2871096736769232
 20
14.4195722317113102
 30
0.0
 40
0.4995232976990584
 50
68.9774273917642375
 51
78.3573996174997802
  0
LINE
  5
10739
  8
0
 10
1259.5146412646240606
 20
14.8588813285831396
 30
0.0
 11
1259.4904087903250911
 21
14.8603439588831403
 31
0.0
  0
LINE
  5
1073A
  8
0
 10
1259.4845929965249525
 20
14.8784547743561308
 30
0.0
 11
1259.4845929965249525
 21
14.86624373538314
 31
0.0
  0
ARC
  5
1073B
  8
0
 10
1259.5149980173951008
 20
14.8648004540591803
 30
0.0
 40
0.0059298666882542
 50
266.5508872504374835
 51
290.3746528644999785
  0
ARC
  5
1073C
  8
0
 10
1259.490712442541053
 20
14.8664596801846507
 30
0.0
 40
0.0061232549927623
 50
182.0210316042802958
 51
267.1575364518611195
  0
ARC
  5
1073D
  8
0
 10
1259.4494785167960345
 20
14.8845901186147405
 30
0.0
 40
0.0396183854329759
 50
332.4141274821561751
 51
348.484298015589502
  0
ARC
  5
1073E
  8
0
 10
1259.3770688996389708
 20
15.0365705102876603
 30
0.0
 40
0.2059102636487636
 50
295.8897263221460889
 51
302.0766016614460909
  0
LINE
  5
1073F
  8
0
 10
1259.4669776564248878
 20
14.8513262063831402
 30
0.0
 11
1259.4669776564248878
 21
14.8198833170831392
 31
0.0
  0
LINE
  5
10740
  8
0
 10
1259.4669776564248878
 20
14.8513262063831402
 30
0.0
 11
1259.4662430312730521
 21
14.8515022866209101
 31
0.0
  0
ARC
  5
10741
  8
0
 10
1259.3914533164509066
 20
14.8245977224010694
 30
0.0
 40
0.0853936943698917
 50
40.6343846997578098
 51
55.9660859273147082
  0
ARC
  5
10742
  8
0
 10
1259.3690180853939182
 20
14.8997085450080409
 30
0.0
 40
0.1133780383949489
 50
295.8070588961188037
 51
320.3046195266512086
  0
ARC
  5
10743
  8
0
 10
1259.2718307274649305
 20
15.1006870572787104
 30
0.0
 40
0.3366217279716527
 50
280.3482406603091022
 51
295.8070588961188037
  0
ARC
  5
10744
  8
0
 10
1259.4616945018528895
 20
14.8197952461226308
 30
0.0
 40
0.0052838885980391
 50
333.9960184965789836
 51
0.9550405764620434
  0
ARC
  5
10745
  8
0
 10
1259.4630768219119545
 20
14.8191209246695195
 30
0.0
 40
0.003745864486481
 50
255.5191471765141102
 51
333.9960184965669896
  0
ARC
  5
10746
  8
0
 10
1259.3215548082489477
 20
15.1136508447349804
 30
0.0
 40
0.3305122746964511
 50
287.0342757391098871
 51
295.6691892294080048
  0
LINE
  5
10747
  8
0
 10
1259.4484245934520459
 20
14.8187815033693902
 30
0.0
 11
1259.4621401443250761
 21
14.8154940615831396
 31
0.0
  0
ARC
  5
10748
  8
0
 10
1259.4095712957218893
 20
14.8444273803912097
 30
0.0
 40
0.0321257929030565
 50
315.3108895877830946
 51
44.6891104122168272
  0
ARC
  5
10749
  8
0
 10
1259.350792077035976
 20
14.7895693865873596
 30
0.0
 40
0.1125175643194798
 50
43.4991475627967219
 51
67.0271498318775656
  0
ARC
  5
1074A
  8
0
 10
1259.2783430235479045
 20
14.6335575846595294
 30
0.0
 40
0.2844919349198579
 50
65.8564489454388422
 51
75.3641175331522675
  0
ARC
  5
1074B
  8
0
 10
1259.3406145831120284
 20
14.9130492528190803
 30
0.0
 40
0.1294087233364026
 50
289.9326625888086824
 51
315.1820075034576121
  0
ARC
  5
1074C
  8
0
 10
1259.2459877155529284
 20
15.1561628870444896
 30
0.0
 40
0.3902654600525204
 50
277.8351265344123817
 51
290.8248671665435836
  0
LINE
  5
1074D
  8
0
 10
1259.6733544568180605
 20
14.9003541011131695
 30
0.0
 11
1259.6375408554249589
 21
14.8626044075831398
 31
0.0
  0
ARC
  5
1074E
  8
0
 10
1259.6428604089981036
 20
14.9310064819202992
 30
0.0
 40
0.043237199280032
 50
314.8516382418392823
 51
347.1555031277976013
  0
ARC
  5
1074F
  8
0
 10
1259.6098269917240486
 20
14.8924898562610295
 30
0.0
 40
0.0407578002826431
 50
269.8237653464594246
 51
312.8408812999467727
  0
ARC
  5
10750
  8
0
 10
1259.4097286179389812
 20
14.8521920182197409
 30
0.0
 40
0.032031596614246
 50
333.3396321840951941
 51
352.5769329023473801
  0
ARC
  5
10751
  8
0
 10
1259.395526585288053
 20
14.8593225920932994
 30
0.0
 40
0.0479231923552783
 50
310.5586945816426123
 51
333.3396321840951941
  0
ARC
  5
10752
  8
0
 10
1259.3400417418909001
 20
14.9241523983327706
 30
0.0
 40
0.1332547317984735
 50
291.8990577931547818
 51
310.5586945816426123
  0
ARC
  5
10753
  8
0
 10
1259.2429779586150289
 20
15.17063935123406
 30
0.0
 40
0.3981623042201299
 50
276.7773377256542062
 51
291.629535549492914
  0
ARC
  5
10754
  8
0
 10
1259.3827067711240488
 20
14.88498335808627
 30
0.0
 40
0.0726701530194765
 50
305.8460707681471149
 51
320.5754062891032845
  0
ARC
  5
10755
  8
0
 10
1259.3397567721269752
 20
14.9437644731356905
 30
0.0
 40
0.1454701877907794
 50
293.4137976510207864
 51
306.0005408569272163
  0
ARC
  5
10756
  8
0
 10
1259.2748369969990563
 20
15.0916037162691996
 30
0.0
 40
0.3069344082145848
 50
282.9025029532651274
 51
293.5682677398089027
  0
ARC
  5
10757
  8
0
 10
1259.22951436887206
 20
15.2694300336778994
 30
0.0
 40
0.4904114601202024
 50
278.6341507048724111
 51
283.424863845853281
  0
LINE
  5
10758
  8
0
 10
1259.4401898530989001
 20
14.8541521176012203
 30
0.0
 11
1259.4302974983540935
 21
14.8521970710873994
 31
0.0
  0
LINE
  5
10759
  8
0
 10
1259.4302974983540935
 20
14.8521970710873994
 30
0.0
 11
1259.4227510548250848
 21
14.8471840474573504
 31
0.0
  0
LINE
  5
1075A
  8
0
 10
1259.4227510548250848
 20
14.8471840474573504
 30
0.0
 11
1259.4227510548250848
 21
14.8426351363831408
 31
0.0
  0
LINE
  5
1075B
  8
0
 10
1259.4379569920249651
 20
14.8537108326831397
 30
0.0
 11
1259.4379569920249651
 21
14.8414649844831406
 31
0.0
  0
ARC
  5
1075C
  8
0
 10
1259.4302897330799169
 20
14.8403612433455603
 30
0.0
 40
0.0076013405357622
 50
329.4193688512730205
 51
358.0498515462073215
  0
LINE
  5
1075D
  8
0
 10
1259.4379569920249651
 20
14.8414649844831406
 30
0.0
 11
1259.4378866710248985
 21
14.8401025701831397
 31
0.0
  0
LINE
  5
1075E
  8
0
 10
1259.4359413958729874
 20
14.8355159358001902
 30
0.0
 11
1259.4211155815251004
 21
14.8384459920831393
 31
0.0
  0
LINE
  5
1075F
  8
0
 10
1259.4211155815251004
 20
14.8384459920831393
 30
0.0
 11
1259.41956846248695
 21
14.8378566433885393
 31
0.0
  0
LINE
  5
10760
  8
0
 10
1259.41956846248695
 20
14.8378566433885393
 30
0.0
 11
1259.4169964232999064
 21
14.8363119179448901
 31
0.0
  0
ARC
  5
10761
  8
0
 10
1259.1834136584238877
 20
15.22805649268388
 30
0.0
 40
0.4560972702008382
 50
297.8739582563056842
 51
300.8060566430946778
  0
ARC
  5
10762
  8
0
 10
1259.1990044244380442
 20
15.1985782685628994
 30
0.0
 40
0.4227500411970088
 50
297.476293288499221
 51
297.8739582563056842
  0
ARC
  5
10763
  8
0
 10
1259.3767805793440857
 20
14.8601428243560196
 30
0.0
 40
0.0404975180549779
 50
290.2718173228461751
 51
295.2467855365297282
  0
ARC
  5
10764
  8
0
 10
1259.418152884896017
 20
14.8426829490411105
 30
0.0
 40
0.0045984185045725
 50
302.6178500964796854
 51
359.4042489021948086
  0
ARC
  5
10765
  8
0
 10
1259.4173087712779306
 20
14.8420371998658798
 30
0.0
 40
0.0044109975094812
 50
184.0030469573738969
 51
287.654722946303707
  0
LINE
  5
10766
  8
0
 10
1259.4171892464250959
 20
14.8364277236831406
 30
0.0
 11
1259.4171892464250959
 21
14.8242939884831397
 31
0.0
  0
ARC
  5
10767
  8
0
 10
1259.4107971543139683
 20
14.8240031710769902
 30
0.0
 40
0.0063987042686258
 50
314.3980322982201869
 51
2.6049573695593788
  0
LINE
  5
10768
  8
0
 10
1259.4135048312250547
 20
14.8186747518831403
 30
0.0
 11
1259.3996136644250328
 21
14.8214200918831498
 31
0.0
  0
LINE
  5
10769
  8
0
 10
1259.4135048312250547
 20
14.8186747518831403
 30
0.0
 11
1259.414288762563956
 21
14.8188382631656896
 31
0.0
  0
LINE
  5
1076A
  8
0
 10
1259.3958382050250293
 20
14.8244496692831493
 30
0.0
 11
1259.3958382050250293
 21
14.8230457079831499
 31
0.0
  0
ARC
  5
1076B
  8
0
 10
1259.3916005346509337
 20
14.8230647019939799
 30
0.0
 40
0.0042377129412325
 50
296.5178908953972154
 51
359.7431915951258929
  0
ARC
  5
1076C
  8
0
 10
1259.3181987166799445
 20
15.1488402607612809
 30
0.0
 40
0.3202115288141934
 50
283.3969111270172903
 51
288.073315178404016
  0
LINE
  5
1076D
  8
0
 10
1259.4129085351250978
 20
14.8417292701831407
 30
0.0
 11
1259.4129085351250978
 21
14.8429576374831402
 31
0.0
  0
ARC
  5
1076E
  8
0
 10
1259.1562257700379632
 20
15.23865671207502
 30
0.0
 40
0.4656468651488178
 50
297.2807797849042117
 51
300.4758483264130859
  0
LINE
  5
1076F
  8
0
 10
1259.3696556796830919
 20
14.8248032637569604
 30
0.0
 11
1259.367317955523049
 21
14.8236063029210108
 31
0.0
  0
ARC
  5
10770
  8
0
 10
1259.3605344335981044
 20
14.8366155443060705
 30
0.0
 40
0.0146716233292061
 50
280.2788850273078083
 51
297.5392796476260742
  0
LINE
  5
10771
  8
0
 10
1259.3909169451248999
 20
14.8364774065831408
 30
0.0
 11
1259.3909169451248999
 21
14.8289016387831403
 31
0.0
  0
ARC
  5
10772
  8
0
 10
1259.4045415198729643
 20
14.8313579397909301
 30
0.0
 40
0.0138442208777721
 50
190.219767566780888
 51
198.7941661427161932
  0
ARC
  5
10773
  8
0
 10
1259.3552462926641056
 20
14.8145820763234397
 30
0.0
 40
0.0382273550602783
 50
12.4903291294112897
 51
18.7941661427150706
  0
ARC
  5
10774
  8
0
 10
1259.4023372680480861
 20
14.8421911276770793
 30
0.0
 40
0.0176998260413254
 50
10.4641413662317806
 51
25.9918357546963712
  0
ARC
  5
10775
  8
0
 10
1259.421953989414078
 20
14.8517553820224606
 30
0.0
 40
0.0041242596976033
 50
180.3224402009977894
 51
205.9918357546912091
  0
LINE
  5
10776
  8
0
 10
1259.4178297950249998
 20
14.8517321722831408
 30
0.0
 11
1259.4177558058679551
 21
14.8648794834742599
 31
0.0
  0
LINE
  5
10777
  8
0
 10
1259.3958382050250293
 20
14.8500655951861606
 30
0.0
 11
1259.3958382050250293
 21
14.8426388579831503
 31
0.0
  0
LINE
  5
10778
  8
0
 10
1259.3859956853250424
 20
14.8466724933831404
 30
0.0
 11
1259.3859956853250424
 21
14.8418674216831405
 31
0.0
  0
ARC
  5
10779
  8
0
 10
1259.3908780660619868
 20
14.8427634554235404
 30
0.0
 40
0.0049617036442296
 50
301.7988107535156246
 51
358.5610470714818234
  0
ARC
  5
1077A
  8
0
 10
1259.3906295133449476
 20
14.8422969742242596
 30
0.0
 40
0.0046536950376965
 50
185.2961421683143897
 51
280.8752402440122182
  0
ARC
  5
1077B
  8
0
 10
1259.3819620605991076
 20
14.8729845531564298
 30
0.0
 40
0.0267922753525695
 50
287.1594072823133956
 51
302.751697623091502
  0
ARC
  5
1077C
  8
0
 10
1259.3270803587060982
 20
15.1776834498153299
 30
0.0
 40
0.3362131303038592
 50
276.5184669999500215
 51
280.76291059731318
  0
ARC
  5
1077D
  8
0
 10
1259.1295344716959335
 20
15.2506372329167803
 30
0.0
 40
0.4703240377742179
 50
296.6610140064269103
 51
300.0776708046219028
  0
ARC
  5
1077E
  8
0
 10
1259.3002247132319553
 20
14.8091520452291796
 30
0.0
 40
0.0666802616265647
 50
11.8166337896707603
 51
16.2573859048885296
  0
ARC
  5
1077F
  8
0
 10
1259.3702190688800329
 20
14.82956332919969
 30
0.0
 40
0.0062294793954511
 50
183.9108171684287072
 51
196.2573859048864904
  0
LINE
  5
10780
  8
0
 10
1259.3640040953250718
 20
14.8291384559831503
 30
0.0
 11
1259.3640040953250718
 21
14.8429216671831394
 31
0.0
  0
LINE
  5
10781
  8
0
 10
1259.3420125053251013
 20
14.8310464804831401
 30
0.0
 11
1259.3420125053251013
 21
14.82391248728314
 31
0.0
  0
ARC
  5
10782
  8
0
 10
1259.3370987155531111
 20
14.8240785325375199
 30
0.0
 40
0.0049165944455454
 50
295.4896262678021799
 51
358.064615287579727
  0
LINE
  5
10783
  8
0
 10
1259.3860994867341105
 20
14.8412312648775195
 30
0.0
 11
1259.3640040953250718
 21
14.8291384559831503
 31
0.0
  0
LINE
  5
10784
  8
0
 10
1259.3642386828539657
 20
14.8278193691862992
 30
0.0
 11
1259.3420125053580705
 21
14.8246014822071999
 31
0.0
  0
ARC
  5
10785
  8
0
 10
1259.1266804998570024
 20
15.2716445862658308
 30
0.0
 40
0.5001826492573511
 50
302.6397624462048839
 51
305.8392813591091794
  0
LINE
  5
10786
  8
0
 10
1259.3934925770240625
 20
14.8385464854831408
 30
0.0
 11
1259.3915075310248994
 21
14.8377268579831405
 31
0.0
  0
ARC
  5
10787
  8
0
 10
1259.408338389680921
 20
14.8681323813807307
 30
0.0
 40
0.0254274971382652
 50
291.2133613612925274
 51
304.5283641035493929
  0
LINE
  5
10788
  8
0
 10
1259.4206315852241005
 20
14.83880977238314
 30
0.0
 11
1259.4186465392249374
 21
14.8378339539831394
 31
0.0
  0
ARC
  5
10789
  8
0
 10
1259.3210505352531072
 20
15.1508559994207896
 30
0.0
 40
0.316216349606077
 50
283.6805259298752731
 51
287.9009803798655867
  0
ARC
  5
1078A
  8
0
 10
1259.3026193656889973
 20
15.1530696938787397
 30
0.0
 40
0.3363816980649887
 50
276.0612230850603055
 51
280.3670518162659846
  0
ARC
  5
1078B
  8
0
 10
1259.1432002007450137
 20
15.2458411982505897
 30
0.0
 40
0.4696411595477949
 50
291.3698780308180858
 51
294.5242773261492175
  0
ARC
  5
1078C
  8
0
 10
1259.3078910620520219
 20
14.8222032633676299
 30
0.0
 40
0.0151511929678362
 50
273.5077883195380082
 51
295.1553982888713108
  0
ARC
  5
1078D
  8
0
 10
1259.2881051070000922
 20
15.1619542303887904
 30
0.0
 40
0.3554777385691233
 50
269.3209977541745275
 51
273.3404012207278129
  0
ARC
  5
1078E
  8
0
 10
1259.1511462358180324
 20
15.1955211615398404
 30
0.0
 40
0.4110448931518968
 50
287.7190248020614831
 51
288.8413219528861759
  0
LINE
  5
1078F
  8
0
 10
1259.2762474905250656
 20
14.8039760424831393
 30
0.0
 11
1259.2750113141250949
 21
14.8038068219831391
 31
0.0
  0
LINE
  5
10790
  8
0
 10
1259.2783442860250034
 20
14.8046523065831401
 30
0.0
 11
1259.2783442860250034
 21
14.7956831334831396
 31
0.0
  0
ARC
  5
10791
  8
0
 10
1259.2738408347358927
 20
14.7957858843977395
 30
0.0
 40
0.0045046233200697
 50
285.0605430349247058
 51
358.6929641021380917
  0
ARC
  5
10792
  8
0
 10
1259.2857560968229791
 20
14.5846097519385598
 30
0.0
 40
0.2071050598110816
 50
90.2267304976132039
 51
92.9724857220120242
  0
LINE
  5
10793
  8
0
 10
1259.2881868057249903
 20
14.7925337075831393
 30
0.0
 11
1259.2881868057249903
 21
14.7913333496831392
 31
0.0
  0
ARC
  5
10794
  8
0
 10
1259.2839248211550967
 20
14.7913757305104703
 30
0.0
 40
0.0042621952804356
 50
283.7314460011339179
 51
359.430274214472206
  0
LINE
  5
10795
  8
0
 10
1259.2849365441250029
 20
14.79171319018314
 30
0.0
 11
1259.2849365441250029
 21
14.7872353530831493
 31
0.0
  0
LINE
  5
10796
  8
0
 10
1259.2832655459249054
 20
14.8062880795911909
 30
0.0
 11
1259.2832655459249054
 21
14.7973838123831403
 31
0.0
  0
LINE
  5
10797
  8
0
 10
1259.2832655459249054
 20
14.7973838123831403
 30
0.0
 11
1259.2833252115240157
 21
14.7967310805831396
 31
0.0
  0
LINE
  5
10798
  8
0
 10
1259.2833252115240157
 20
14.7967310805831396
 30
0.0
 11
1259.2839483635250417
 21
14.7921524265831401
 31
0.0
  0
LINE
  5
10799
  8
0
 10
1259.2839483635250417
 20
14.7921524265831401
 30
0.0
 11
1259.2839417415709704
 21
14.7917068642177298
 31
0.0
  0
ARC
  5
1079A
  8
0
 10
1259.1926533391349494
 20
15.1408743472415495
 30
0.0
 40
0.3611505275109226
 50
284.8047316031546075
 51
289.1349277445693815
  0
ARC
  5
1079B
  8
0
 10
1259.2762293381128984
 20
15.1360983694912807
 30
0.0
 40
0.3382165305657589
 50
275.9069485310748178
 51
280.2563867579569887
  0
ARC
  5
1079C
  8
0
 10
1259.3337704653149558
 20
14.8196301473522496
 30
0.0
 40
0.0165620738380902
 50
279.310256969506213
 51
294.7848233273230107
  0
ARC
  5
1079D
  8
0
 10
1259.1806840560429919
 20
15.2110249609237105
 30
0.0
 40
0.4368018347935755
 50
291.4916844331995094
 51
295.0020527565163775
  0
ARC
  5
1079E
  8
0
 10
1259.2925733674530875
 20
15.1302558102489897
 30
0.0
 40
0.3233847522534045
 50
282.996283826696299
 51
287.6849185031315983
  0
LINE
  5
1079F
  8
0
 10
1259.4376696136389455
 20
14.8600014325263405
 30
0.0
 11
1259.427045050309971
 21
14.8579016781999602
 31
0.0
  0
LINE
  5
107A0
  8
0
 10
1259.427045050309971
 20
14.8579016781999602
 30
0.0
 11
1259.4178297950249998
 21
14.8517321722831408
 31
0.0
  0
LINE
  5
107A1
  8
0
 10
1259.3689253552240643
 20
14.8244294359831397
 30
0.0
 11
1259.3689253552240643
 21
14.8200326926831405
 31
0.0
  0
LINE
  5
107A2
  8
0
 10
1259.3590828355249869
 20
14.8214634459831505
 30
0.0
 11
1259.3590925961229914
 21
14.8191654701418702
 31
0.0
  0
ARC
  5
107A3
  8
0
 10
1259.3643304524259747
 20
14.8201068028648102
 30
0.0
 40
0.0045955004136667
 50
296.1191006158239816
 51
359.0759690307177721
  0
ARC
  5
107A4
  8
0
 10
1259.3635279257230195
 20
14.8196734399539594
 30
0.0
 40
0.0044643232406836
 50
186.533509238906305
 51
280.8531325149597251
  0
LINE
  5
107A5
  8
0
 10
1259.3643685227250444
 20
14.8152889697831398
 30
0.0
 11
1259.3663535687248896
 21
14.8159805909831395
 31
0.0
  0
LINE
  5
107A6
  8
0
 10
1259.3370912455250163
 20
14.8180902384831406
 30
0.0
 11
1259.3370912455250163
 21
14.8097487630831406
 31
0.0
  0
LINE
  5
107A7
  8
0
 10
1259.3370912455250163
 20
14.8097487630831406
 30
0.0
 11
1259.337257030525052
 21
14.8086527486831407
 31
0.0
  0
LINE
  5
107A8
  8
0
 10
1259.337257030525052
 20
14.8086527486831407
 30
0.0
 11
1259.3382216394250008
 21
14.8044931672831392
 31
0.0
  0
LINE
  5
107A9
  8
0
 10
1259.3382216394250008
 20
14.8044931672831392
 30
0.0
 11
1259.3382216394250008
 21
14.8036774253631904
 31
0.0
  0
LINE
  5
107AA
  8
0
 10
1259.3150996555250458
 20
14.8087900450831391
 30
0.0
 11
1259.3150996555250458
 21
14.8045956095831404
 31
0.0
  0
ARC
  5
107AB
  8
0
 10
1259.3105208385100013
 20
14.8046954254653897
 30
0.0
 40
0.0045799048528164
 50
289.8442346386510167
 51
358.7511789412901066
  0
ARC
  5
107AC
  8
0
 10
1259.3097349420340834
 20
14.8044126955886401
 30
0.0
 40
0.0044837539671849
 50
182.9514905985190865
 51
274.5483642021304149
  0
LINE
  5
107AD
  8
0
 10
1259.3120755523250409
 20
14.8003874800831401
 30
0.0
 11
1259.3100905063249684
 21
14.7999430620831394
 31
0.0
  0
LINE
  5
107AE
  8
0
 10
1259.4129394908100039
 20
14.8412652503361908
 30
0.0
 11
1259.3909169451849266
 21
14.8289016387744503
 31
0.0
  0
LINE
  5
107AF
  8
0
 10
1259.3912420269250561
 20
14.8273532512831405
 30
0.0
 11
1259.3689253551860929
 21
14.8212194360529104
 31
0.0
  0
LINE
  5
107B0
  8
0
 10
1259.3590925961229914
 20
14.8191654701418702
 30
0.0
 11
1259.3370912455250163
 21
14.8097487630831406
 31
0.0
  0
LINE
  5
107B1
  8
0
 10
1259.3372570305089084
 20
14.8086527486066704
 30
0.0
 11
1259.3150996555709753
 21
14.8055044529962601
 31
0.0
  0
LINE
  5
107B2
  8
0
 10
1259.3052571358250589
 20
14.8068931045831391
 30
0.0
 11
1259.3052571358200566
 21
14.8041818250902502
 31
0.0
  0
LINE
  5
107B3
  8
0
 10
1259.3052571358200566
 20
14.8041818250902502
 30
0.0
 11
1259.283265545841914
 21
14.7973838124164399
 31
0.0
  0
ARC
  5
107B4
  8
0
 10
1258.9294931905828889
 20
16.0240143160088593
 30
0.0
 40
1.2912188535742231
 50
291.0111030704316022
 51
291.3516191346971027
  0
ARC
  5
107B5
  8
0
 10
1259.213294265884997
 20
15.1913808151605192
 30
0.0
 40
0.4135576808697209
 50
291.7220240543293812
 51
295.6724695291761122
  0
LINE
  5
107B6
  8
0
 10
1259.3860506368250753
 20
14.81563795108314
 30
0.0
 11
1259.3860506368250753
 21
14.8091726076831396
 31
0.0
  0
ARC
  5
107B7
  8
0
 10
1259.380818322812047
 20
14.8090259553662804
 30
0.0
 40
0.0052343688088209
 50
301.7751096978590795
 51
1.605476952544457
  0
LINE
  5
107B8
  8
0
 10
1259.3809194326249781
 20
14.8038393030831408
 30
0.0
 11
1259.3668997534339269
 21
14.8066100412878701
 31
0.0
  0
LINE
  5
107B9
  8
0
 10
1259.3809194326249781
 20
14.8038393030831408
 30
0.0
 11
1259.3818483380009638
 21
14.8039280241385303
 31
0.0
  0
ARC
  5
107BA
  8
0
 10
1259.3649883473749469
 20
14.8100519241386106
 30
0.0
 40
0.0039370078336349
 50
290.289650132641782
 51
328.3707664525206269
  0
ARC
  5
107BB
  8
0
 10
1259.3630198433259011
 20
14.8093291595050207
 30
0.0
 40
0.0039370073218754
 50
250.0262215690871983
 51
290.0332015369945111
  0
LINE
  5
107BC
  8
0
 10
1259.3663535687699095
 20
14.8063592013922207
 30
0.0
 11
1259.3643685227250444
 21
14.8056303636831394
 31
0.0
  0
ARC
  5
107BD
  8
0
 10
1259.2610500241351019
 20
15.1305051236994306
 30
0.0
 40
0.3401027832429952
 50
283.1089147534480048
 51
287.6851477625132247
  0
ARC
  5
107BE
  8
0
 10
1259.2080476746539262
 20
15.1698756143619793
 30
0.0
 40
0.3927953076971298
 50
285.3574410083525095
 51
289.3485562404379721
  0
ARC
  5
107BF
  8
0
 10
1259.3068932574560677
 20
14.80904224802795
 30
0.0
 40
0.0186698160571849
 50
279.8606381783258144
 51
286.1155923557627148
  0
ARC
  5
107C0
  8
0
 10
1259.2499399754678961
 20
15.1118393465136496
 30
0.0
 40
0.3267748690016895
 50
275.9688423199690988
 51
280.6071089930670723
  0
ARC
  5
107C1
  8
0
 10
1259.2199921975459347
 20
15.0584722725014899
 30
0.0
 40
0.2790574551885717
 50
281.3709636284505109
 51
283.2433012250264142
  0
LINE
  5
107C2
  8
0
 10
1259.3420125053251013
 20
14.7983761477115898
 30
0.0
 11
1259.3420125053251013
 21
14.7957933570831504
 31
0.0
  0
LINE
  5
107C3
  8
0
 10
1259.3321699857240219
 20
14.7953692776470405
 30
0.0
 11
1259.3321699857240219
 21
14.7935790579831394
 31
0.0
  0
ARC
  5
107C4
  8
0
 10
1259.2304103954320453
 20
15.1803865955924593
 30
0.0
 40
0.3979786592553361
 50
285.717712939812202
 51
289.6696348093843767
  0
ARC
  5
107C5
  8
0
 10
1259.2381736213349086
 20
15.1021769449966996
 30
0.0
 40
0.3208835634043394
 50
283.1331347394573754
 51
288.1671617791458857
  0
ARC
  5
107C6
  8
0
 10
1259.2255474878838868
 20
15.1487669221770105
 30
0.0
 40
0.369127768833963
 50
279.1025149710890219
 51
283.3985567369210798
  0
ARC
  5
107C7
  8
0
 10
1259.2080572704510359
 20
15.1940551362004808
 30
0.0
 40
0.4167351776534895
 50
275.525344339893195
 51
280.492001416551318
  0
ARC
  5
107C8
  8
0
 10
1259.2477189879909929
 20
14.7830827642459006
 30
0.0
 40
0.0038545681755425
 50
178.5947283888318111
 51
276.9148307853583901
  0
ARC
  5
107C9
  8
0
 10
1259.2377804706229654
 20
14.8117407284945006
 30
0.0
 40
0.0304399005899465
 50
254.1738986563902074
 51
281.8562384524294089
  0
LINE
  5
107CA
  8
0
 10
1259.2438655791249857
 20
14.8145755720831396
 30
0.0
 11
1259.2332311293250768
 21
14.8103358075831402
 31
0.0
  0
LINE
  5
107CB
  8
0
 10
1259.2343611061251067
 20
14.8107898100831399
 30
0.0
 11
1259.2343611061251067
 21
14.7931523598831394
 31
0.0
  0
LINE
  5
107CC
  8
0
 10
1259.2438655985740752
 20
14.7873807235503794
 30
0.0
 11
1259.2340957161250117
 21
14.7918038555831401
 31
0.0
  0
ARC
  5
107CD
  8
0
 10
1259.2294554061670624
 20
14.7934174505188203
 30
0.0
 40
0.0049128571236532
 50
281.3718026345774774
 51
356.9069007662882882
  0
LINE
  5
107CE
  8
0
 10
1259.2304240982250576
 20
14.7886010409831403
 30
0.0
 11
1259.2284555943249416
 21
14.7886010409831403
 31
0.0
  0
ARC
  5
107CF
  8
0
 10
1259.2303519268050422
 20
14.7942198833422704
 30
0.0
 40
0.0059302163817728
 50
190.3705898758821888
 51
251.3507067232380905
  0
LINE
  5
107D0
  8
0
 10
1259.2245185864248924
 20
14.7931523598831394
 30
0.0
 11
1259.2245185864248924
 21
14.81079006938314
 31
0.0
  0
LINE
  5
107D1
  8
0
 10
1259.2256485625250662
 20
14.8103358076831402
 30
0.0
 11
1259.202529477654025
 21
14.8194411854588601
 31
0.0
  0
ARC
  5
107D2
  8
0
 10
1259.2320125324679339
 20
14.8142595212526107
 30
0.0
 40
0.0041085894489456
 50
247.2560838876435128
 51
287.2533478838287238
  0
ARC
  5
107D3
  8
0
 10
1259.2268670941600703
 20
14.8142608982312201
 30
0.0
 40
0.0041098850540737
 50
252.7532136449285076
 51
292.7373409976688095
  0
LINE
  5
107D4
  8
0
 10
1259.2304240982250576
 20
14.8104704073831392
 30
0.0
 11
1259.2284555943249416
 21
14.8104704071831392
 31
0.0
  0
ARC
  5
107D5
  8
0
 10
1259.2185220638800729
 20
14.8091495984289292
 30
0.0
 40
0.0288560483133035
 50
273.4989045986051224
 51
292.3156148216335737
  0
ARC
  5
107D6
  8
0
 10
1259.2025309726270734
 20
15.3002801795331003
 30
0.0
 40
0.5202358100677366
 50
270.7798487707448203
 51
271.9555004301506074
  0
ARC
  5
107D7
  8
0
 10
1259.2035712458960006
 20
14.7810924573770492
 30
0.0
 40
0.003911056697725
 50
270.7085378580850943
 51
345.7103141224774276
  0
LINE
  5
107D8
  8
0
 10
1259.2245185864248924
 20
14.86598771210606
 30
0.0
 11
1259.2245185864248924
 21
14.8495081148831396
 31
0.0
  0
ARC
  5
107D9
  8
0
 10
1259.2383871648689819
 20
14.8516044150388709
 30
0.0
 40
0.0140261164409854
 50
188.5954555697310013
 51
224.9213300824555972
  0
ARC
  5
107DA
  8
0
 10
1259.2272944703220219
 20
14.8693737293104906
 30
0.0
 40
0.0040069247139938
 50
255.7073566980023998
 51
286.8447459435527094
  0
LINE
  5
107DB
  8
0
 10
1259.2263052624250577
 20
14.8654908291831394
 30
0.0
 11
1259.202529477654025
 21
14.8721029857416802
 31
0.0
  0
LINE
  5
107DC
  8
0
 10
1259.2284555943249416
 20
14.8417000801831396
 30
0.0
 11
1259.2284555941250801
 21
14.8655387276831394
 31
0.0
  0
LINE
  5
107DD
  8
0
 10
1259.2438655791249857
 20
14.8885599468831398
 30
0.0
 11
1259.2294398463250218
 21
14.8917574016831402
 31
0.0
  0
LINE
  5
107DE
  8
0
 10
1259.2294398463250218
 20
14.8917574016831402
 30
0.0
 11
1259.2052980803250648
 21
14.8863297465831401
 31
0.0
  0
ARC
  5
107DF
  8
0
 10
1259.2025285175679983
 20
14.9038703708959908
 30
0.0
 40
0.0177579272198341
 50
273.1723922332777192
 51
278.9725963263553012
  0
LINE
  5
107E0
  8
0
 10
1259.2074482562250068
 20
14.8868131583264898
 30
0.0
 11
1259.2074482562250068
 21
14.8780220182831506
 31
0.0
  0
ARC
  5
107E1
  8
0
 10
1259.2022922101009499
 20
14.8785110087825903
 30
0.0
 40
0.0051791817241919
 50
283.6135970090556953
 51
354.5823711499119781
  0
LINE
  5
107E2
  8
0
 10
1259.2291017995250968
 20
14.8845806920831496
 30
0.0
 11
1259.2291017995250968
 21
14.8716365404831397
 31
0.0
  0
LINE
  5
107E3
  8
0
 10
1259.2122936522218879
 20
14.8879025209810596
 30
0.0
 11
1259.2291017995250968
 21
14.8845806920831496
 31
0.0
  0
LINE
  5
107E4
  8
0
 10
1259.2438655791249857
 20
14.9247027992831391
 30
0.0
 11
1259.2438655791249857
 21
14.7831772942831403
 31
0.0
  0
ARC
  5
107E5
  8
0
 10
1259.2332279407639817
 20
14.9025133775494201
 30
0.0
 40
0.0184012567386762
 50
257.0423087886126723
 51
305.3165283727220753
  0
ARC
  5
107E6
  8
0
 10
1259.2339076419209505
 20
14.8915843161763597
 30
0.0
 40
0.0254757916318698
 50
254.5787846304490927
 51
293.0091683588325964
  0
LINE
  5
107E7
  8
0
 10
1259.2271332957238883
 20
14.8670257293831405
 30
0.0
 11
1259.2035112484250021
 21
14.87347733528315
 31
0.0
  0
ARC
  5
107E8
  8
0
 10
1259.2218731154009674
 20
14.8719970842195792
 30
0.0
 40
0.0072376699255701
 50
316.6169702411106073
 51
357.1446352308655037
  0
LINE
  5
107E9
  8
0
 10
1259.2438655790929261
 20
14.9059499935949908
 30
0.0
 11
1259.2294398462929621
 21
14.9034579796146698
 31
0.0
  0
LINE
  5
107EA
  8
0
 10
1259.2294398462929621
 20
14.9034579796146698
 30
0.0
 11
1259.2035112484429646
 21
14.9078406588330807
 31
0.0
  0
LINE
  5
107EB
  8
0
 10
1259.2074482562250068
 20
14.9156499921160908
 30
0.0
 11
1259.2074482562250068
 21
14.9122500721831504
 31
0.0
  0
ARC
  5
107EC
  8
0
 10
1259.2027440540409771
 20
14.9124879729157502
 30
0.0
 40
0.0047102138952904
 50
279.3740366387144718
 51
357.104906442002175
  0
LINE
  5
107ED
  8
0
 10
1259.2294398462240679
 20
14.9164269359831394
 30
0.0
 11
1259.2294398462929621
 21
14.9034579796146698
 31
0.0
  0
LINE
  5
107EE
  8
0
 10
1259.2294398462240679
 20
14.9164269359831394
 30
0.0
 11
1259.2385451931249918
 21
14.9182264444831407
 31
0.0
  0
LINE
  5
107EF
  8
0
 10
1259.2294398462240679
 20
14.9164269359831394
 30
0.0
 11
1259.2235239983249357
 21
14.9175960069831408
 31
0.0
  0
ARC
  5
107F0
  8
0
 10
1259.2344395028881081
 20
14.8700393916116003
 30
0.0
 40
0.0483616455133675
 50
78.7606451443934361
 51
92.222852685096484
  0
ARC
  5
107F1
  8
0
 10
1259.2363875039659433
 20
14.8198533230087399
 30
0.0
 40
0.0985855062770274
 50
92.222852685096484
 51
97.4973708707061348
  0
LINE
  5
107F2
  8
0
 10
1259.2235239983249357
 20
14.9175960069831408
 30
0.0
 11
1259.2045036023250759
 21
14.9152935332831493
 31
0.0
  0
LINE
  5
107F3
  8
0
 10
1259.202529477654025
 20
14.9209240582519804
 30
0.0
 11
1259.2245185864248924
 21
14.9235000185831499
 31
0.0
  0
LINE
  5
107F4
  8
0
 10
1259.2245185864248924
 20
14.9244818409049795
 30
0.0
 11
1259.2245185864248924
 21
14.9229608842831407
 31
0.0
  0
ARC
  5
107F5
  8
0
 10
1259.2289615604440769
 20
14.9230949266285293
 30
0.0
 40
0.0044449955551903
 50
181.7280613788072969
 51
263.4639543747434232
  0
LINE
  5
107F6
  8
0
 10
1259.2284555943249416
 20
14.9245800154872601
 30
0.0
 11
1259.2284555943249416
 21
14.9186788215831392
 31
0.0
  0
LINE
  5
107F7
  8
0
 10
1259.2284555943249416
 20
14.9186788215831392
 30
0.0
 11
1259.202529477654025
 21
14.9156665184837909
 31
0.0
  0
ARC
  5
107F8
  8
0
 10
1259.240425657113974
 20
14.9466624861568498
 30
0.0
 40
0.0222274809870934
 50
268.6254163196048239
 51
278.9028696214510887
  0
ARC
  5
107F9
  8
0
 10
1259.2316600352760361
 20
14.7170849226072793
 30
0.0
 40
0.2075198352232484
 50
87.7264518359319538
 51
93.1427141764931719
  0
ARC
  5
107FA
  8
0
 10
1259.2161934219141131
 20
14.9987786207458704
 30
0.0
 40
0.0745981466564732
 50
259.4456968229997074
 51
273.1427141764930866
  0
LINE
  5
107FB
  8
0
 10
1259.2563526960250329
 20
14.9240046263008797
 30
0.0
 11
1259.2563526960250329
 21
14.8934192740831399
 31
0.0
  0
LINE
  5
107FC
  8
0
 10
1259.2783442860250034
 20
14.9217393411777692
 30
0.0
 11
1259.2783442860250034
 21
14.9070876616831391
 31
0.0
  0
LINE
  5
107FD
  8
0
 10
1259.2881868057249903
 20
14.9204730163906891
 30
0.0
 11
1259.2881868057249903
 21
14.90743695158314
 31
0.0
  0
LINE
  5
107FE
  8
0
 10
1259.3101783957249609
 20
14.9170732222737605
 30
0.0
 11
1259.3101783957249609
 21
14.9030907082831394
 31
0.0
  0
ARC
  5
107FF
  8
0
 10
1259.0452971586219064
 20
15.3203617765002296
 30
0.0
 40
0.5015384337313615
 50
302.4447239840044972
 51
305.4836346803759284
  0
ARC
  5
10800
  8
0
 10
1259.3665342634030822
 20
15.2575191897484004
 30
0.0
 40
0.366740018820817
 50
256.976887533355125
 51
260.6714770698407051
  0
ARC
  5
10801
  8
0
 10
1259.0987661576630217
 20
15.2144652398554303
 30
0.0
 40
0.3647280021196117
 50
299.3472341034196234
 51
300.502180261934086
  0
LINE
  5
10802
  8
0
 10
1259.3052571358250589
 20
14.8959346836638709
 30
0.0
 11
1259.3052571358250589
 21
14.8813542784831405
 31
0.0
  0
LINE
  5
10803
  8
0
 10
1259.2832655459249054
 20
14.8998380341831407
 30
0.0
 11
1259.2832655459249054
 21
14.8681248179831407
 31
0.0
  0
LINE
  5
10804
  8
0
 10
1259.2783442860250034
 20
14.8970105270831503
 30
0.0
 11
1259.2783442860250034
 21
14.8688388424831395
 31
0.0
  0
LINE
  5
10805
  8
0
 10
1259.3150996555250458
 20
14.8975779696831498
 30
0.0
 11
1259.3150996555250458
 21
14.8818089910831404
 31
0.0
  0
LINE
  5
10806
  8
0
 10
1259.3370912455250163
 20
14.9118238366059792
 30
0.0
 11
1259.3370912455250163
 21
14.8806992981831403
 31
0.0
  0
LINE
  5
10807
  8
0
 10
1259.3590828355249869
 20
14.9063519097405202
 30
0.0
 11
1259.3590828355249869
 21
14.8970739875831502
 31
0.0
  0
LINE
  5
10808
  8
0
 10
1259.3689254810690272
 20
14.9032434749538396
 30
0.0
 11
1259.3689180195390236
 21
14.8975461604930199
 31
0.0
  0
ARC
  5
10809
  8
0
 10
1259.362989816991103
 20
15.2144320110593494
 30
0.0
 40
0.3234140112017561
 50
270.3994043062854189
 51
274.6000514395622076
  0
ARC
  5
1080A
  8
0
 10
1259.0824747935919277
 20
15.2868687584885095
 30
0.0
 40
0.4864670505526107
 50
302.1219621589341955
 51
305.5400325401841997
  0
LINE
  5
1080B
  8
0
 10
1259.3859956853250424
 20
14.8918372921568007
 30
0.0
 11
1259.3859956853250424
 21
14.8807632410831392
 31
0.0
  0
LINE
  5
1080C
  8
0
 10
1259.3640040953250718
 20
14.8901428536885803
 30
0.0
 11
1259.3640040953250718
 21
14.8646281444831398
 31
0.0
  0
LINE
  5
1080D
  8
0
 10
1259.3420125053251013
 20
14.8754223714831397
 30
0.0
 11
1259.3420125053251013
 21
14.8625283466831402
 31
0.0
  0
LINE
  5
1080E
  8
0
 10
1259.3958382050250293
 20
14.8926763632360402
 30
0.0
 11
1259.3958382050250293
 21
14.8815857641831393
 31
0.0
  0
ARC
  5
1080F
  8
0
 10
1259.415632091066982
 20
14.8838681770934205
 30
0.0
 40
0.0046171738705938
 50
281.9746480699500921
 51
299.8281833840123909
  0
ARC
  5
10810
  8
0
 10
1259.3528097662499476
 20
15.1886580048432105
 30
0.0
 40
0.3158139559236512
 50
277.1952447409312867
 51
281.6513208814798759
  0
ARC
  5
10811
  8
0
 10
1259.1071329101830543
 20
15.2744516229007203
 30
0.0
 40
0.4905660002600254
 50
302.1131470062468907
 51
305.5516215279084236
  0
ARC
  5
10812
  8
0
 10
1259.3611001041929285
 20
14.8700456347163001
 30
0.0
 40
0.0130276307866606
 50
274.9384481819129178
 51
301.5377255558572074
  0
ARC
  5
10813
  8
0
 10
1259.3394220260040584
 20
15.1885968189676692
 30
0.0
 40
0.332313499198775
 50
269.7807019403829258
 51
273.9340744675495785
  0
ARC
  5
10814
  8
0
 10
1259.0985291200140637
 20
15.2732228740224301
 30
0.0
 40
0.4808895716057163
 50
296.5964621770277745
 51
299.8867287413938243
  0
ARC
  5
10815
  8
0
 10
1259.308774878802069
 20
14.8525404628859903
 30
0.0
 40
0.0106006970264507
 50
265.4006278569680148
 51
298.4517372666002188
  0
ARC
  5
10816
  8
0
 10
1259.3273059027969794
 20
15.20770127934518
 30
0.0
 40
0.366240549398019
 50
263.1908003461048224
 51
266.9665494076087953
  0
ARC
  5
10817
  8
0
 10
1259.1150592092560601
 20
15.21561008523277
 30
0.0
 40
0.4081211558534122
 50
293.3691363276591915
 51
294.4350466408033071
  0
ARC
  5
10818
  8
0
 10
1259.2755899365029109
 20
14.8443866659263701
 30
0.0
 40
0.0036765108731481
 50
260.9449386815687149
 51
291.5753445356367024
  0
LINE
  5
10819
  8
0
 10
1259.2750113141250949
 20
14.8407559733831391
 30
0.0
 11
1259.2750113141250949
 21
14.8188492945831403
 31
0.0
  0
LINE
  5
1081A
  8
0
 10
1259.2750113141250949
 20
14.8188492945831403
 30
0.0
 11
1259.2839440211239435
 21
14.8182689533157106
 31
0.0
  0
LINE
  5
1081B
  8
0
 10
1259.2783442860250034
 20
14.8415778350831395
 30
0.0
 11
1259.2783442860250034
 21
14.8233194942831492
 31
0.0
  0
ARC
  5
1081C
  8
0
 10
1259.2732855439389823
 20
14.8236136537808392
 30
0.0
 40
0.0050672873707726
 50
289.9116549609969979
 51
356.6720699015223204
  0
LINE
  5
1081D
  8
0
 10
1259.2832655459249054
 20
14.8437619679831503
 30
0.0
 11
1259.2832655459249054
 21
14.8237864101831391
 31
0.0
  0
ARC
  5
1081E
  8
0
 10
1259.2869713357920318
 20
14.8237913307147302
 30
0.0
 40
0.0037057931342646
 50
180.0760770409071938
 51
190.1959095571995135
  0
ARC
  5
1081F
  8
0
 10
1258.2176576128790657
 20
14.6849014982348596
 30
0.0
 40
1.0745946130913051
 50
7.1293364012894127
 51
7.3909027886122818
  0
ARC
  5
10820
  8
0
 10
1259.2851960607399633
 20
14.8212582407685201
 30
0.0
 40
0.0034785919718829
 50
265.721534856745393
 51
290.9107351011364244
  0
LINE
  5
10821
  8
0
 10
1259.2839494035249572
 20
14.8182710079831406
 30
0.0
 11
1259.2849365441250029
 21
14.81778934278314
 31
0.0
  0
LINE
  5
10822
  8
0
 10
1259.2881868057249903
 20
14.8186855552831407
 30
0.0
 11
1259.2881868057249903
 21
14.8118425519831405
 31
0.0
  0
ARC
  5
10823
  8
0
 10
1259.2833256619119311
 20
14.8120455425080397
 30
0.0
 40
0.0048653801820878
 50
289.3349909309632153
 51
357.6088452036044032
  0
LINE
  5
10824
  8
0
 10
1259.2838925011999436
 20
14.8065014535384893
 30
0.0
 11
1259.2849365441250029
 21
14.8074545749831401
 31
0.0
  0
LINE
  5
10825
  8
0
 10
1259.3101783957249609
 20
14.8279159298831509
 30
0.0
 11
1259.3101783957249609
 21
14.8136687137831409
 31
0.0
  0
LINE
  5
10826
  8
0
 10
1259.3321699857240219
 20
14.8287481077831504
 30
0.0
 11
1259.3321699857240219
 21
14.8233798868831403
 31
0.0
  0
ARC
  5
10827
  8
0
 10
1259.3368999804270061
 20
14.8238198953308409
 30
0.0
 40
0.0047504165417789
 50
185.3146530394488138
 51
273.9777751294628843
  0
ARC
  5
10828
  8
0
 10
1259.314102687724926
 20
15.1778250419820893
 30
0.0
 40
0.3495470635989501
 50
269.4923042466958236
 51
273.5123565904037832
  0
ARC
  5
10829
  8
0
 10
1259.3350213452920343
 20
14.8406696372571094
 30
0.0
 40
0.0117455470905945
 50
272.4198764134126236
 51
298.2129265223726975
  0
ARC
  5
1082A
  8
0
 10
1259.1255198385010772
 20
15.2369599578644905
 30
0.0
 40
0.4487924236739118
 50
291.0116181862877056
 51
294.4122569215282965
  0
ARC
  5
1082B
  8
0
 10
1259.3690046815170263
 20
14.82028208273349
 30
0.0
 40
0.0591968626617435
 50
186.4143737154633982
 51
192.546510235116898
  0
LINE
  5
1082C
  8
0
 10
1259.3392145605180303
 20
14.8196405036359007
 30
0.0
 11
1259.3372295145250064
 21
14.8190809223831401
 31
0.0
  0
ARC
  5
1082D
  8
0
 10
1259.4367008644790076
 20
14.8599614831887195
 30
0.0
 40
0.0098730716532404
 50
192.0419960458357025
 51
211.8726518045064893
  0
ARC
  5
1082E
  8
0
 10
1259.4332856826390525
 20
14.8578379807346099
 30
0.0
 40
0.0058515384039817
 50
211.8726518045098999
 51
232.7555450957192136
  0
ARC
  5
1082F
  8
0
 10
1259.4288841103200411
 20
14.8520484564642494
 30
0.0
 40
0.0014211798051014
 50
6.002468026509221
 51
52.7555450957389667
  0
ARC
  5
10830
  8
0
 10
1258.9130865625349998
 20
16.8476174743754399
 30
0.0
 40
2.0451533914032409
 50
284.3377845882333759
 51
284.6236691892116255
  0
LINE
  5
10831
  8
0
 10
1259.4294246037250105
 20
14.8687169155831391
 30
0.0
 11
1259.4310908245399787
 21
14.8683876168999696
 31
0.0
  0
LINE
  5
10832
  8
0
 10
1259.3909169451248999
 20
14.8742879261831398
 30
0.0
 11
1259.3909169451248999
 21
14.85487183918314
 31
0.0
  0
LINE
  5
10833
  8
0
 10
1259.3689253552240643
 20
14.8595784900875802
 30
0.0
 11
1259.3689253552240643
 21
14.84942763228314
 31
0.0
  0
LINE
  5
10834
  8
0
 10
1259.3590828355249869
 20
14.8568654301623102
 30
0.0
 11
1259.3590828355249869
 21
14.8487600969831508
 31
0.0
  0
LINE
  5
10835
  8
0
 10
1259.3370912455250163
 20
14.8556805886831391
 30
0.0
 11
1259.3370912455250163
 21
14.8359893931831497
 31
0.0
  0
LINE
  5
10836
  8
0
 10
1259.3150996555250458
 20
14.8438618519831405
 30
0.0
 11
1259.3150996555250458
 21
14.8340772117831392
 31
0.0
  0
ARC
  5
10837
  8
0
 10
1259.3636841380580336
 20
14.8496497313992197
 30
0.0
 40
0.0052459208348015
 50
300.5878154796017725
 51
357.5735152944533866
  0
ARC
  5
10838
  8
0
 10
1259.363896602576915
 20
14.8492642237623897
 30
0.0
 40
0.0048400926689663
 50
185.9785671418156028
 51
275.5953596109478099
  0
ARC
  5
10839
  8
0
 10
1259.382377027217899
 20
14.8421156154186793
 30
0.0
 40
0.0456982781126262
 50
187.7041552544559124
 51
196.1008364887343873
  0
LINE
  5
1083A
  8
0
 10
1259.3663535687248896
 20
14.8451337790831399
 30
0.0
 11
1259.3643685227250444
 21
14.8444471926831394
 31
0.0
  0
ARC
  5
1083B
  8
0
 10
1259.3949059251749532
 20
14.8548679579328091
 30
0.0
 40
0.0039889819389819
 50
179.9442516157816954
 51
203.0552380868610953
  0
ARC
  5
1083C
  8
0
 10
1259.3727579006429096
 20
14.8454414690650101
 30
0.0
 40
0.0200816159565654
 50
8.4815567233468325
 51
23.0552380868618201
  0
LINE
  5
1083D
  8
0
 10
1259.4129085351250978
 20
14.8786180120831393
 30
0.0
 11
1259.4129085351250978
 21
14.8709545227831406
 31
0.0
  0
LINE
  5
1083E
  8
0
 10
1259.4227510548250848
 20
14.8760685645951298
 30
0.0
 11
1259.4227510548250848
 21
14.8718817601831397
 31
0.0
  0
ARC
  5
1083F
  8
0
 10
1259.4174693516440584
 20
14.87201954270685
 30
0.0
 40
0.00528350002446
 50
306.7633395806516887
 51
358.5056776560484195
  0
ARC
  5
10840
  8
0
 10
1259.4178295350359349
 20
14.8717338676445401
 30
0.0
 40
0.0049823306328701
 50
188.9992622236979116
 51
279.4380045208690717
  0
LINE
  5
10841
  8
0
 10
1259.4206315852241005
 20
14.8677868542831408
 30
0.0
 11
1259.4186465392249374
 21
14.8668189797831403
 31
0.0
  0
LINE
  5
10842
  8
0
 10
1259.4257966261359343
 20
14.8734414313622398
 30
0.0
 11
1259.4227510547939346
 21
14.8726364734322392
 31
0.0
  0
LINE
  5
10843
  8
0
 10
1259.4131784620581129
 20
14.8699474917893308
 30
0.0
 11
1259.3909169451360412
 21
14.8548718391608396
 31
0.0
  0
LINE
  5
10844
  8
0
 10
1259.3912355522829785
 20
14.8533057992832003
 30
0.0
 11
1259.3689253552270202
 21
14.8498959383622093
 31
0.0
  0
LINE
  5
10845
  8
0
 10
1259.3592404679109222
 20
14.8479425176606394
 30
0.0
 11
1259.3370912454759036
 21
14.8359893931828601
 31
0.0
  0
LINE
  5
10846
  8
0
 10
1259.3372537968750748
 20
14.8348888107424894
 30
0.0
 11
1259.3151065391818975
 21
14.8343005026307999
 31
0.0
  0
LINE
  5
10847
  8
0
 10
1259.3322277163940726
 20
14.8229617542429004
 30
0.0
 11
1259.3101783956990403
 21
14.8136687136645406
 31
0.0
  0
LINE
  5
10848
  8
0
 10
1259.3102826513340915
 20
14.8127993211954294
 30
0.0
 11
1259.2881868057108932
 21
14.8122841643884904
 31
0.0
  0
LINE
  5
10849
  8
0
 10
1259.4379569920249651
 20
14.8414649844831406
 30
0.0
 11
1259.4232969356251033
 21
14.8443622816831393
 31
0.0
  0
LINE
  5
1084A
  8
0
 10
1259.4232969356251033
 20
14.8443622816831393
 30
0.0
 11
1259.4227510548250848
 21
14.8441510788831401
 31
0.0
  0
ARC
  5
1084B
  8
0
 10
1259.4176141918069334
 20
14.8428770469964704
 30
0.0
 40
0.005873627445402
 50
324.7754174612998099
 51
14.6471119415167408
  0
ARC
  5
1084C
  8
0
 10
1259.4199398804630619
 20
14.8412349593002109
 30
0.0
 40
0.0030266501487698
 50
292.8580637718512776
 51
324.7754174613003215
  0
ARC
  5
1084D
  8
0
 10
1259.3554912841250371
 20
15.1917547391824392
 30
0.0
 40
0.3125422685992913
 50
277.4171652604036922
 51
280.3307656511261143
  0
ARC
  5
1084E
  8
0
 10
1259.3903117738821038
 20
14.8818341199069
 30
0.0
 40
0.0055320088340704
 50
305.0983417694855007
 51
357.4268806215164886
  0
ARC
  5
1084F
  8
0
 10
1259.3910768257319432
 20
14.8816077020089796
 30
0.0
 40
0.0051508350868696
 50
189.4360348145283979
 51
274.7965900309902736
  0
ARC
  5
10850
  8
0
 10
1259.0965897026260336
 20
15.2878951430819505
 30
0.0
 40
0.500664967298543
 50
302.2841461059948074
 51
305.3609125399150912
  0
ARC
  5
10851
  8
0
 10
1259.3419027246250153
 20
15.1989102608840501
 30
0.0
 40
0.3363819321009118
 50
270.0186989080037847
 51
273.8077196826935165
  0
ARC
  5
10852
  8
0
 10
1259.3679849392060532
 20
14.8646244764074993
 30
0.0
 40
0.0039808455713106
 50
179.9472058689511016
 51
199.8785127665346124
  0
ARC
  5
10853
  8
0
 10
1259.3415577098830909
 20
14.8550691609569991
 30
0.0
 40
0.0241208003425054
 50
6.4821437246312001
 51
19.8785127665338308
  0
ARC
  5
10854
  8
0
 10
1259.3365185622969875
 20
14.8629064569925493
 30
0.0
 40
0.0055069390223951
 50
299.311918232739572
 51
356.0629338948853047
  0
LINE
  5
10855
  8
0
 10
1259.3321699857240219
 20
14.8732821647831397
 30
0.0
 11
1259.3321699857240219
 21
14.8619645854831397
 31
0.0
  0
ARC
  5
10856
  8
0
 10
1259.337100318092098
 20
14.8624935566004996
 30
0.0
 40
0.0049586276016969
 50
186.1237896797586018
 51
271.4930034512831867
  0
LINE
  5
10857
  8
0
 10
1259.3392145605250789
 20
14.8581045853831402
 30
0.0
 11
1259.3372295145250064
 21
14.8575366123831394
 31
0.0
  0
ARC
  5
10858
  8
0
 10
1259.3337380486871098
 20
14.8897253008230592
 30
0.0
 40
0.0165960568624073
 50
273.0578592090720917
 51
296.4894738679714123
  0
ARC
  5
10859
  8
0
 10
1259.3516397621599481
 20
15.2254542279851997
 30
0.0
 40
0.3527120670499473
 50
263.3842323313716065
 51
267.2347220023198133
  0
ARC
  5
1085A
  8
0
 10
1259.0771671875409083
 20
15.2796698110701801
 30
0.0
 40
0.4672939382828615
 50
296.6920987422628855
 51
300.0268280499482216
  0
ARC
  5
1085B
  8
0
 10
1259.2856197009000425
 20
14.8654673418344192
 30
0.0
 40
0.0036001727482976
 50
259.0614161939432734
 51
293.8195928405040149
  0
LINE
  5
1085C
  8
0
 10
1259.3101783957249609
 20
14.8746076965831495
 30
0.0
 11
1259.3101783957249609
 21
14.8490277887831397
 31
0.0
  0
LINE
  5
1085D
  8
0
 10
1259.2881868048509659
 20
14.8627353487549598
 30
0.0
 11
1259.2881789524890337
 21
14.8500382202773
 31
0.0
  0
LINE
  5
1085E
  8
0
 10
1259.2849365441250029
 20
14.8619325800831401
 30
0.0
 11
1259.2839440211068904
 21
14.8627449641365601
 31
0.0
  0
ARC
  5
1085F
  8
0
 10
1259.2870764980500553
 20
14.8681270039621491
 30
0.0
 40
0.0038109527521113
 50
180.0328651091217864
 51
190.2651447766153012
  0
LINE
  5
10860
  8
0
 10
1259.2833265448250586
 20
14.8674478782831407
 30
0.0
 11
1259.2839440211068904
 21
14.8627449641365601
 31
0.0
  0
LINE
  5
10861
  8
0
 10
1259.2839440211250803
 20
14.8627449641831397
 30
0.0
 11
1259.2750113141651127
 21
14.8642973072754305
 31
0.0
  0
LINE
  5
10862
  8
0
 10
1259.2750113141651127
 20
14.8642973072754305
 30
0.0
 11
1259.2750113141250949
 21
14.8963685921831406
 31
0.0
  0
ARC
  5
10863
  8
0
 10
1259.276013489296929
 20
14.9000528036907003
 30
0.0
 40
0.0038180845340159
 50
254.7826648421481934
 51
293.2359302837784867
  0
ARC
  5
10864
  8
0
 10
1259.2727591384359584
 20
14.8694439282131796
 30
0.0
 40
0.0056178289695866
 50
293.6343209082310182
 51
353.8167851694894921
  0
ARC
  5
10865
  8
0
 10
1259.3102926098360967
 20
14.8819203144555008
 30
0.0
 40
0.0050671881001578
 50
186.4136758401454017
 51
267.714166052405119
  0
ARC
  5
10866
  8
0
 10
1259.3095387524829221
 20
14.8822865643143292
 30
0.0
 40
0.0055813724863317
 50
297.0335291319684075
 51
355.0914527630629891
  0
LINE
  5
10867
  8
0
 10
1259.3120755523250409
 20
14.8773150086831496
 30
0.0
 11
1259.3100905063249684
 21
14.8768571583831406
 31
0.0
  0
ARC
  5
10868
  8
0
 10
1259.0703846894259641
 20
15.2888967285815802
 30
0.0
 40
0.4715583312982185
 50
296.836187159993699
 51
299.9128135344856219
  0
ARC
  5
10869
  8
0
 10
1259.3448355741429623
 20
15.2363378277186108
 30
0.0
 40
0.3739828277497001
 50
259.7464500607101741
 51
260.5335414820527831
  0
ARC
  5
1086A
  8
0
 10
1259.3410816061270907
 20
14.8806968678855007
 30
0.0
 40
0.0039903613422266
 50
179.9651044617050104
 51
196.7619700115675982
  0
ARC
  5
1086B
  8
0
 10
1259.3207520386899887
 20
14.8745737303863592
 30
0.0
 40
0.0172413160522513
 50
357.0216583441567195
 51
16.7619700115707602
  0
ARC
  5
1086C
  8
0
 10
1259.3545307085130389
 20
15.2279088007690095
 30
0.0
 40
0.3487905497196895
 50
263.4993893622706196
 51
267.161912330522398
  0
ARC
  5
1086D
  8
0
 10
1259.3643775234008899
 20
14.8980724284147996
 30
0.0
 40
0.0053880055494814
 50
190.6790932320859042
 51
269.9042872177652157
  0
ARC
  5
1086E
  8
0
 10
1259.3630454916340113
 20
14.8983106168852508
 30
0.0
 40
0.0059220754451282
 50
303.9591006460320273
 51
352.5832272749885874
  0
ARC
  5
1086F
  8
0
 10
1259.3657254696249765
 20
15.2188653787784194
 30
0.0
 40
0.321335078095275
 50
270.569258253780788
 51
273.1231940835953083
  0
ARC
  5
10870
  8
0
 10
1259.0696794773250531
 20
15.3038799874824605
 30
0.0
 40
0.5005906007991846
 50
302.2891685123988168
 51
305.3804114617428809
  0
LINE
  5
10871
  8
0
 10
1259.3663535687248896
 20
14.8933986311831408
 30
0.0
 11
1259.3643685227250444
 21
14.8926844303831505
 31
0.0
  0
ARC
  5
10872
  8
0
 10
1259.388262562790942
 20
14.9053632066049406
 30
0.0
 40
0.0133202095265555
 50
272.861534412894116
 51
296.2180094713385188
  0
LINE
  5
10873
  8
0
 10
1259.3934925770240625
 20
14.8773080163831501
 30
0.0
 11
1259.3915075310248994
 21
14.8764749059831392
 31
0.0
  0
ARC
  5
10874
  8
0
 10
1259.0968585307070953
 20
15.2725815589353697
 30
0.0
 40
0.4742395607933298
 50
296.7317876996081054
 51
299.7778598028730812
  0
ARC
  5
10875
  8
0
 10
1259.3140057877069466
 20
14.8490317814983701
 30
0.0
 40
0.0038273940649925
 50
180.059770634826009
 51
193.4772090929949968
  0
ARC
  5
10876
  8
0
 10
1259.2946269415699589
 20
14.8433277035859508
 30
0.0
 40
0.0163796496087052
 50
355.9420301002800215
 51
17.0846056770637205
  0
ARC
  5
10877
  8
0
 10
1259.3303166325520124
 20
15.21103489616325
 30
0.0
 40
0.3634476359557934
 50
263.3422238844631806
 51
266.8403169697461976
  0
ARC
  5
10878
  8
0
 10
1259.2827413227739726
 20
14.8507691030088207
 30
0.0
 40
0.005486529547531
 50
293.5851238038750921
 51
352.3446412355060033
  0
LINE
  5
10879
  8
0
 10
1259.2839440211250803
 20
14.8447110083831397
 30
0.0
 11
1259.2849365441250029
 21
14.84574088168314
 31
0.0
  0
LINE
  5
1087A
  8
0
 10
1259.2849365441250029
 20
14.84574088168314
 30
0.0
 11
1259.2849365441250029
 21
14.8619325800831401
 31
0.0
  0
ARC
  5
1087B
  8
0
 10
1259.2816881932910746
 20
14.8445805137821196
 30
0.0
 40
0.0022595990922425
 50
346.2649997355935056
 51
3.3107431605718691
  0
ARC
  5
1087C
  8
0
 10
1259.3074815953539201
 20
14.9123305892078708
 30
0.0
 40
0.0167059833205093
 50
268.6483040232760118
 51
294.3339015557858147
  0
ARC
  5
1087D
  8
0
 10
1259.314187592719918
 20
14.9030887007017601
 30
0.0
 40
0.0040091974977423
 50
179.9713094839698044
 51
193.6706255581052005
  0
ARC
  5
1087E
  8
0
 10
1259.290775332658086
 20
14.8973941216156796
 30
0.0
 40
0.0200856598826046
 50
355.9040557951410051
 51
13.6706255581024596
  0
ARC
  5
1087F
  8
0
 10
1259.0443978295641045
 20
15.3191342411083902
 30
0.0
 40
0.4936917363642256
 50
302.5716097680880807
 51
304.8574117959909131
  0
ARC
  5
10880
  8
0
 10
1259.3694973986519017
 20
15.2601231183141497
 30
0.0
 40
0.3628448151374016
 50
257.0215482542321865
 51
260.6090517164980156
  0
ARC
  5
10881
  8
0
 10
1259.2824450510629504
 20
14.9081279138115192
 30
0.0
 40
0.0057831803875781
 50
295.5194271801381092
 51
353.1380285230870868
  0
ARC
  5
10882
  8
0
 10
1259.2838380917150971
 20
14.9080670079097093
 30
0.0
 40
0.0055804139627751
 50
190.1075850353255134
 51
260.8583414138557259
  0
ARC
  5
10883
  8
0
 10
1259.0447858212251049
 20
15.3058841419820908
 30
0.0
 40
0.4635599311988086
 50
297.1547880912928008
 51
300.3161911875571946
  0
ARC
  5
10884
  8
0
 10
1259.8142599508450985
 20
14.9395156626337702
 30
0.0
 40
0.5598083440062539
 50
184.7232634816550956
 51
185.255555639431293
  0
ARC
  5
10885
  8
0
 10
1259.3626941887239354
 20
15.2705323694826607
 30
0.0
 40
0.3922575202994977
 50
253.2689223560946914
 51
254.276060929561595
  0
ARC
  5
10886
  8
0
 10
1259.3616515358251036
 20
15.2681462425853294
 30
0.0
 40
0.394110243602273
 50
253.2670973447021936
 51
254.5716281038928912
  0
ARC
  5
10887
  8
0
 10
1259.2492787655069151
 20
14.8969183527776501
 30
0.0
 40
0.0062908270815732
 50
210.6284878673855872
 51
259.9692871164446046
  0
LINE
  5
10888
  8
0
 10
1259.2497710909249236
 20
14.9245320038242308
 30
0.0
 11
1259.2497710909249236
 21
14.8948804878831407
 31
0.0
  0
ARC
  5
10889
  8
0
 10
1259.241760703996988
 20
14.8955589777893795
 30
0.0
 40
0.0080390700512819
 50
323.0244419884890021
 51
355.1585309836077045
  0
LINE
  5
1088A
  8
0
 10
1259.27353362698409
 20
14.8971496928735103
 30
0.0
 11
1259.2568050128800223
 21
14.8882382396178006
 31
0.0
  0
LINE
  5
1088B
  8
0
 10
1259.27353362698409
 20
14.8971496928735103
 30
0.0
 11
1259.2750113141250949
 21
14.8963685921831406
 31
0.0
  0
LINE
  5
1088C
  8
0
 10
1259.2849365441250029
 20
14.9029089447831407
 30
0.0
 11
1259.2829514981240209
 21
14.9025574732831405
 31
0.0
  0
LINE
  5
1088D
  8
0
 10
1259.3052571358250589
 20
14.8421271178831393
 30
0.0
 11
1259.3052571358250589
 21
14.8336431084831393
 31
0.0
  0
ARC
  5
1088E
  8
0
 10
1259.3099539450840894
 20
14.8343459385870897
 30
0.0
 40
0.005152722584741
 50
294.3144938606246797
 51
357.0105318856076906
  0
ARC
  5
1088F
  8
0
 10
1259.3101859740008877
 20
14.8341642496901702
 30
0.0
 40
0.0049563125336727
 50
186.0356337490250951
 51
268.8963098629312185
  0
LINE
  5
10890
  8
0
 10
1259.3120755523250409
 20
14.8296502668831494
 30
0.0
 11
1259.3100905063249684
 21
14.8292088566831399
 31
0.0
  0
ARC
  5
10891
  8
0
 10
1259.1220675787239998
 20
15.2399662499836701
 30
0.0
 40
0.4463075662005554
 50
291.1727642187020137
 51
294.2418748002006055
  0
ARC
  5
10892
  8
0
 10
1259.3045159541259181
 20
15.1882243513998407
 30
0.0
 40
0.3657035329167372
 50
265.8968427233223792
 51
266.6779471523784082
  0
LINE
  5
10893
  8
0
 10
1259.2750113141250949
 20
14.8038068219831391
 30
0.0
 11
1259.2750163753250945
 21
14.7914361626831496
 31
0.0
  0
LINE
  5
10894
  8
0
 10
1259.2833252115381129
 20
14.7967310806533092
 30
0.0
 11
1259.2783442860120431
 21
14.7964941392356497
 31
0.0
  0
LINE
  5
10895
  8
0
 10
1259.2849365441250029
 20
14.81778934278314
 30
0.0
 11
1259.2849365441250029
 21
14.8074545749831401
 31
0.0
  0
LINE
  5
10896
  8
0
 10
1259.3640040953250718
 20
14.8145560284831408
 30
0.0
 11
1259.3640040953250718
 21
14.8125908922831506
 31
0.0
  0
ARC
  5
10897
  8
0
 10
1259.3897973485420607
 20
14.8166687391063903
 30
0.0
 40
0.0261136122786987
 50
188.9839567532499984
 51
200.7452493655252113
  0
ARC
  5
10898
  8
0
 10
1259.3556549365530373
 20
14.8068144797556407
 30
0.0
 40
0.009740660079987
 50
0.179662672120884
 51
3.5578265622450429
  0
ARC
  5
10899
  8
0
 10
1259.2094638712781034
 20
15.1943205328103605
 30
0.0
 40
0.4118254475988628
 50
292.0401741844165144
 51
293.9812110522523767
  0
ARC
  5
1089A
  8
0
 10
1259.2681170019750425
 20
15.1178204888121499
 30
0.0
 40
0.3212856039168562
 50
283.3434599318019878
 51
287.4105893447328981
  0
LINE
  5
1089B
  8
0
 10
1259.3420125053251013
 20
14.8051075132433603
 30
0.0
 11
1259.3420125053251013
 21
14.8037441425831506
 31
0.0
  0
ARC
  5
1089C
  8
0
 10
1259.3377533653360842
 20
14.8037758759417599
 30
0.0
 40
0.0042592582036731
 50
290.0636173412701737
 51
359.5731171360441181
  0
ARC
  5
1089D
  8
0
 10
1259.3363691872489198
 20
14.8033156966683208
 30
0.0
 40
0.0042062650384462
 50
190.4778490379692073
 51
281.8022638316519988
  0
LINE
  5
1089E
  8
0
 10
1259.3372295145250064
 20
14.7991983549831403
 30
0.0
 11
1259.3392145605250789
 21
14.7997751023831405
 31
0.0
  0
ARC
  5
1089F
  8
0
 10
1259.3369041519990787
 20
14.7961668112121405
 30
0.0
 40
0.0051219861076339
 50
285.307937898518901
 51
355.8187411900728989
  0
ARC
  5
108A0
  8
0
 10
1259.3351583842209038
 20
14.7935717293973106
 30
0.0
 40
0.0029884074827518
 50
179.8594912302980049
 51
275.6866682313614092
  0
ARC
  5
108A1
  8
0
 10
1259.3664944388960976
 20
14.8103834944203498
 30
0.0
 40
0.0036944506859908
 50
287.4461714142585151
 51
330.0258573400374758
  0
LINE
  5
108A2
  8
0
 10
1259.3676020709119712
 20
14.8068589920173199
 30
0.0
 11
1259.3669322471200758
 21
14.8066035983595103
 31
0.0
  0
LINE
  5
108A3
  8
0
 10
1259.3663535687248896
 20
14.80718971008314
 30
0.0
 11
1259.3643685227250444
 21
14.8064755092831408
 31
0.0
  0
ARC
  5
108A4
  8
0
 10
1259.3901583081269564
 20
14.8223909063702202
 30
0.0
 40
0.0041878826545901
 50
202.9872427706133067
 51
288.794392325313197
  0
LINE
  5
108A5
  8
0
 10
1259.3915075310248994
 20
14.8184263182831408
 30
0.0
 11
1259.3934925770240625
 21
14.8192728176831405
 31
0.0
  0
LINE
  5
108A6
  8
0
 10
1259.4171892464250959
 20
14.8242939884831397
 30
0.0
 11
1259.4021803651251048
 21
14.8272602246831404
 31
0.0
  0
LINE
  5
108A7
  8
0
 10
1259.4021803651251048
 20
14.8272602246831404
 30
0.0
 11
1259.3980481220569345
 21
14.8256179670606691
 31
0.0
  0
ARC
  5
108A8
  8
0
 10
1259.3966088463969299
 20
14.8258220141106101
 30
0.0
 40
0.0057541524645093
 50
321.261259702342727
 51
14.4741438031187499
  0
ARC
  5
108A9
  8
0
 10
1259.3971792326040031
 20
14.8277019015451792
 30
0.0
 40
0.006737031313523
 50
291.1831779830927189
 51
305.5593757076675274
  0
LINE
  5
108AA
  8
0
 10
1259.1300476411170166
 20
14.7848923753613093
 30
0.0
 11
1259.1300476411170166
 21
14.7827336508381109
 31
0.0
  0
ARC
  5
108AB
  8
0
 10
1259.2170075387800807
 20
15.3350337276589705
 30
0.0
 40
0.5549904517902783
 50
268.5051528154431253
 51
269.2364446022958191
  0
ARC
  5
108AC
  8
0
 10
1259.204463123412097
 20
15.4391820137164899
 30
0.0
 40
0.6620008513875965
 50
269.9177051985170124
 51
278.5721279831676043
  0
LINE
  5
108AD
  8
0
 10
1259.2750113141250949
 20
14.7848923753831407
 30
0.0
 11
1259.2750113141250949
 21
14.7827336508272502
 31
0.0
  0
LINE
  5
108AE
  8
0
 10
1259.2015477068650853
 20
14.9078406588330807
 30
0.0
 11
1259.2035112484250021
 21
14.9078406588831403
 31
0.0
  0
LINE
  5
108AF
  8
0
 10
1259.1801483008150626
 20
14.79186191346135
 30
0.0
 11
1259.202529477654025
 21
14.78160429648314
 31
0.0
  0
LINE
  5
108B0
  8
0
 10
1259.202529477654025
 20
14.78160429648314
 30
0.0
 11
1259.2249114814460427
 21
14.79186000609368
 31
0.0
  0
LINE
  5
108B1
  8
0
 10
1258.8828136597169305
 20
17.7840447181917582
 30
0.0
 11
1258.9366965200370032
 21
17.7548899556540007
 31
0.0
  0
LINE
  5
108B2
  8
0
 10
1258.946736627681048
 20
17.706140202421949
 30
0.0
 11
1258.9085078378438993
 21
17.6625303935496092
 31
0.0
  0
LINE
  5
108B3
  8
0
 10
1259.202529477654025
 20
17.9121061825831411
 30
0.0
 11
1259.202529477654025
 21
17.8615038055831405
 31
0.0
  0
LINE
  5
108B4
  8
0
 10
1259.4683624352710467
 20
17.7548899556540007
 30
0.0
 11
1259.5222452955908921
 21
17.7840447181917582
 31
0.0
  0
LINE
  5
108B5
  8
0
 10
1259.4583223276270019
 20
17.706140202421949
 30
0.0
 11
1259.4965511174639232
 21
17.6625303935496092
 31
0.0
  0
LINE
  5
108B6
  8
0
 10
1259.202529477654025
 20
17.6723927199831401
 30
0.0
 11
1259.202529477654025
 21
17.6226177032805715
 31
0.0
  0
LINE
  5
108B7
  8
0
 10
1259.202529477654025
 20
15.0206586772273596
 30
0.0
 11
1259.202529477654025
 21
16.1931333147831502
 31
0.0
  0
ENDSEC
  0
EOF
