  0
SECTION
  2
HEADER
  9
$ACADVER
  1
AC1009
  9
$INSBASE
 10
905.0747216283766647
 20
41.9736371667978432
 30
0.0
  9
$EXTMIN
 10
898.6189867976801224
 20
41.9675478010175311
 30
-0.0000000000112498
  9
$EXTMAX
 10
906.4042033515314643
 20
55.1738009287446403
 30
0.0000000000002956
  9
$LIMMIN
 10
0.0
 20
0.0
  9
$LIMMAX
 10
11.6929133858000007
 20
8.2677165353999982
  9
$ORTHOMODE
 70
     0
  9
$REGENMODE
 70
     1
  9
$FILLMODE
 70
     1
  9
$QTEXTMODE
 70
     0
  9
$MIRRTEXT
 70
     0
  9
$DRAGMODE
 70
     2
  9
$LTSCALE
 40
0.6431102362
  9
$OSMODE
 70
  4095
  9
$ATTMODE
 70
     1
  9
$TEXTSIZE
 40
0.2
  9
$TRACEWID
 40
0.05
  9
$TEXTSTYLE
  7
STANDARD
  9
$CLAYER
  8
0
  9
$CELTYPE
  6
BYLAYER
  9
$CECOLOR
 62
   256
  9
$DIMSCALE
 40
1.0
  9
$DIMASZ
 40
0.1875
  9
$DIMEXO
 40
0.0625
  9
$DIMDLI
 40
0.4443307087
  9
$DIMRND
 40
0.0
  9
$DIMDLE
 40
0.0
  9
$DIMEXE
 40
0.125
  9
$DIMTP
 40
0.01
  9
$DIMTM
 40
0.01
  9
$DIMTXT
 40
1.0
  9
$DIMCEN
 40
0.1052362205
  9
$DIMTSZ
 40
0.0
  9
$DIMTOL
 70
     1
  9
$DIMLIM
 70
     0
  9
$DIMTIH
 70
     0
  9
$DIMTOH
 70
     1
  9
$DIMSE1
 70
     0
  9
$DIMSE2
 70
     0
  9
$DIMTAD
 70
     0
  9
$DIMZIN
 70
     0
  9
$DIMBLK
  1

  9
$DIMASO
 70
     1
  9
$DIMSHO
 70
     1
  9
$DIMPOST
  1
\X
  9
$DIMAPOST
  1

  9
$DIMALT
 70
     1
  9
$DIMALTD
 70
     2
  9
$DIMALTF
 40
25.3999999999999986
  9
$DIMLFAC
 40
1.0
  9
$DIMTOFL
 70
     0
  9
$DIMTVP
 40
0.0
  9
$DIMTIX
 70
     0
  9
$DIMSOXD
 70
     0
  9
$DIMSAH
 70
     0
  9
$DIMBLK1
  1

  9
$DIMBLK2
  1

  9
$DIMSTYLE
  2
STANDARD
  9
$DIMCLRD
 70
     0
  9
$DIMCLRE
 70
     0
  9
$DIMCLRT
 70
     0
  9
$DIMTFAC
 40
1.0
  9
$DIMGAP
 40
0.09
  9
$LUNITS
 70
     2
  9
$LUPREC
 70
     4
  9
$SKETCHINC
 40
0.1
  9
$FILLETRAD
 40
0.0
  9
$AUNITS
 70
     0
  9
$AUPREC
 70
     0
  9
$MENU
  1
.
  9
$ELEVATION
 40
0.0
  9
$PELEVATION
 40
0.0
  9
$THICKNESS
 40
0.0
  9
$LIMCHECK
 70
     0
  9
$BLIPMODE
 70
     0
  9
$CHAMFERA
 40
0.0
  9
$CHAMFERB
 40
0.0
  9
$SKPOLY
 70
     0
  9
$TDCREATE
 40
2458172.5207638889551163
  9
$TDUPDATE
 40
2460158.5948379631154239
  9
$TDINDWG
 40
0.2408308333
  9
$TDUSRTIMER
 40
0.2408308333
  9
$USRTIMER
 70
     1
  9
$ANGBASE
 50
0.0
  9
$ANGDIR
 70
     0
  9
$PDMODE
 70
     0
  9
$PDSIZE
 40
0.3125
  9
$PLINEWID
 40
0.0
  9
$COORDS
 70
     1
  9
$SPLFRAME
 70
     0
  9
$SPLINETYPE
 70
     6
  9
$SPLINESEGS
 70
     8
  9
$ATTDIA
 70
     1
  9
$ATTREQ
 70
     1
  9
$HANDLING
 70
     1
  9
$HANDSEED
  5
10F53
  9
$SURFTAB1
 70
     6
  9
$SURFTAB2
 70
     6
  9
$SURFTYPE
 70
     6
  9
$SURFU
 70
     6
  9
$SURFV
 70
     6
  9
$UCSNAME
  2

  9
$UCSORG
 10
0.0
 20
0.0
 30
0.0
  9
$UCSXDIR
 10
1.0
 20
0.0
 30
0.0
  9
$UCSYDIR
 10
0.0
 20
1.0
 30
0.0
  9
$PUCSNAME
  2

  9
$PUCSORG
 10
0.0
 20
0.0
 30
0.0
  9
$PUCSXDIR
 10
1.0
 20
0.0
 30
0.0
  9
$PUCSYDIR
 10
0.0
 20
1.0
 30
0.0
  9
$USERI1
 70
     0
  9
$USERI2
 70
     0
  9
$USERI3
 70
     0
  9
$USERI4
 70
     0
  9
$USERI5
 70
     0
  9
$USERR1
 40
0.0
  9
$USERR2
 40
0.0
  9
$USERR3
 40
0.0
  9
$USERR4
 40
0.0
  9
$USERR5
 40
0.0
  9
$WORLDVIEW
 70
     1
  9
$SHADEDGE
 70
     3
  9
$SHADEDIF
 70
    70
  9
$TILEMODE
 70
     1
  9
$MAXACTVP
 70
    64
  9
$PLIMCHECK
 70
     0
  9
$PEXTMIN
 10
1.0000000000000000E+20
 20
1.0000000000000000E+20
 30
1.0000000000000000E+20
  9
$PEXTMAX
 10
-1.0000000000000000E+20
 20
-1.0000000000000000E+20
 30
-1.0000000000000000E+20
  9
$PLIMMIN
 10
0.0
 20
0.0
  9
$PLIMMAX
 10
12.0
 20
9.0
  9
$UNITMODE
 70
     0
  9
$VISRETAIN
 70
     1
  9
$PLINEGEN
 70
     0
  9
$PSLTSCALE
 70
     1
  0
ENDSEC
  0
SECTION
  2
TABLES
  0
TABLE
  2
VPORT
 70
     1
  0
VPORT
  2
*ACTIVE
 70
     0
 10
0.0
 20
0.0
 11
1.0
 21
1.0
 12
528.6904585999963047
 22
6.6842262326176174
 13
0.0
 23
0.0
 14
1.0
 24
1.0
 15
0.0
 25
0.0
 16
0.0
 26
0.0
 36
25.5757211105568096
 17
373.821136474609375
 27
41.8864481322634603
 37
0.0
 40
13.3246948598143398
 41
2.8368263473053892
 42
50.0
 43
0.0
 44
0.0
 50
0.0
 51
0.0
 71
     0
 72
   100
 73
     1
 74
     1
 75
     0
 76
     0
 77
     0
 78
     0
  0
ENDTAB
  0
TABLE
  2
LTYPE
 70
     2
  0
LTYPE
  2
CONTINUOUS
 70
     0
  3
Solid line
 72
    65
 73
     0
 40
0.0
  0
LTYPE
  2
PHANTOM2
 70
     0
  3
___ _ _ ___ _ _ ___ _ _ ___ _ _
 72
    65
 73
     6
 40
1.25
 49
0.625
 49
-0.125
 49
0.125
 49
-0.125
 49
0.125
 49
-0.125
  0
ENDTAB
  0
TABLE
  2
LAYER
 70
     2
  0
LAYER
  2
0
 70
     0
 62
   255
  6
CONTINUOUS
  0
LAYER
  2
DEFPOINTS
 70
     0
 62
     7
  6
CONTINUOUS
  0
ENDTAB
  0
TABLE
  2
STYLE
 70
     1
  0
STYLE
  2
STANDARD
 70
     0
 40
0.0
 41
0.8
 50
0.0
 71
     0
 42
0.2
  3
txt
  4

  0
ENDTAB
  0
TABLE
  2
VIEW
 70
     0
  0
ENDTAB
  0
TABLE
  2
UCS
 70
     0
  0
ENDTAB
  0
TABLE
  2
APPID
 70
    10
  0
APPID
  2
ACAD
 70
     0
  0
APPID
  2
ACAD_MLEADERVER
 70
     0
  0
APPID
  2
ACAD_EXEMPT_FROM_CAD_STANDARDS
 70
     0
  0
APPID
  2
ACAD_DSTYLE_DIMJAG
 70
     0
  0
APPID
  2
ACAD_DSTYLE_DIMTALN
 70
     0
  0
APPID
  2
ACAD_NAV_VCDISPLAY
 70
     0
  0
APPID
  2
ACAECLAYERSTANDARD
 70
     0
  0
APPID
  2
ACCMTRANSPARENCY
 70
     0
  0
APPID
  2
DCO15
 70
     0
  0
APPID
  2
ACDBATTR
 70
     0
  0
ENDTAB
  0
TABLE
  2
DIMSTYLE
 70
     1
  0
DIMSTYLE
  2
STANDARD
 70
     0
  3

  4

  5

  6

  7

 40
1.0
 41
0.1875
 42
0.0625
 43
0.38
 44
0.125
 45
0.0
 46
0.0
 47
0.01
 48
0.01
140
0.15625
141
0.09
142
0.0
143
25.3999999999999986
144
1.0
145
0.0
146
1.0
147
0.09
 71
     1
 72
     0
 73
     1
 74
     1
 75
     0
 76
     0
 77
     0
 78
     4
170
     0
171
     2
172
     0
173
     0
174
     0
175
     0
176
     0
177
     0
178
     0
  0
ENDTAB
  0
ENDSEC
  0
SECTION
  2
BLOCKS
  0
BLOCK
  8
0
  2
$MODEL_SPACE
 70
     0
 10
0.0
 20
0.0
 30
0.0
  3
$MODEL_SPACE
  1

  0
ENDBLK
  5
21
  8
0
  0
BLOCK
 67
     1
  8
0
  2
$PAPER_SPACE
 70
     0
 10
0.0
 20
0.0
 30
0.0
  3
$PAPER_SPACE
  1

  0
ENDBLK
  5
1D
 67
     1
  8
0
  0
BLOCK
  8
0
  2
_FILLED
 70
     0
 10
0.0
 20
0.0
 30
0.0
  3
_FILLED
  1

  0
SOLID
  5
B17D
  8
0
  6
BYBLOCK
 62
     0
 10
0.0
 20
0.0
 30
0.0
 11
-1.0
 21
0.1666666667
 31
0.0
 12
-1.0
 22
-0.1666666667
 32
0.0
 13
-1.0
 23
-0.1666666667
 33
0.0
  0
ENDBLK
  5
B17E
  8
0
  6
BYBLOCK
 62
     0
  0
ENDSEC
  0
SECTION
  2
ENTITIES
  0
ATTDEF
  5
829
  8
DEFPOINTS
 10
905.0633999273705967
 20
41.9718621969439312
 30
0.0
 40
0.001
  1
K-EX27005T-4
  3

  2
MODELNUMBER
 70
     0
1001
ACDBATTR
1070
     0
1070
     1
  0
ATTDEF
  5
82A
  8
DEFPOINTS
 10
905.0633999273705967
 20
41.9701955302772589
 30
0.0
 40
0.001
  1
OCCASION
  3

  2
TRADENAME
 70
     0
1001
ACDBATTR
1070
     0
1070
     1
  0
ATTDEF
  5
82B
  8
DEFPOINTS
 10
905.0633999273705967
 20
41.9685288636105867
 30
0.0
 40
0.001
  1
BATHROOM SINK FAUCET
  3

  2
PRODUCT
 70
     0
1001
ACDBATTR
1070
     0
1070
     1
  0
LINE
  5
10CBA
  8
0
 10
903.892329949547161
 20
41.9736371667978432
 30
0.0
 11
906.2571133072065095
 21
41.9736371667978432
 31
0.0
  0
ARC
  5
10CBB
  8
0
 10
899.489270423990547
 20
51.7207418589071111
 30
0.0
 40
0.0393700798098483
 50
249.9804564892758947
 51
294.9823993106771809
  0
LINE
  5
10CBC
  8
0
 10
904.300350405805375
 20
55.1704086042978403
 30
0.0
 11
905.7807146197275188
 21
55.1704086042978403
 31
0.0
  0
LINE
  5
10CBD
  8
0
 10
904.1755776871277703
 20
55.0619398333978296
 30
0.0
 11
905.9086161669620196
 21
55.0619398333978296
 31
0.0
  0
LINE
  5
10CBE
  8
0
 10
904.0853062202041883
 20
54.9209598553978324
 30
0.0
 11
901.2821799390278557
 21
54.9209598553978324
 31
0.0
  0
LINE
  5
10CBF
  8
0
 10
904.0853067554588733
 20
54.6314713760978421
 30
0.0
 11
901.2820925543761632
 21
54.6314713760978421
 31
0.0
  0
LINE
  5
10CC0
  8
0
 10
904.0262511809788748
 20
53.2019869875978273
 30
0.0
 11
899.9516579555781846
 21
53.2019869875978273
 31
0.0
  0
LINE
  5
10CC1
  8
0
 10
904.2502002685305342
 20
54.3436371667978335
 30
0.0
 11
905.8321020777322019
 21
54.3436371667978335
 31
0.0
  0
LINE
  5
10CC2
  8
0
 10
904.2570921032528304
 20
54.4223773242978268
 30
0.0
 11
904.8570100513478565
 21
54.4223773242978268
 31
0.0
  0
LINE
  5
10CC3
  8
0
 10
904.1755776870278396
 20
54.2771683957978297
 30
0.0
 11
905.9086164509283208
 21
54.2771683957978297
 31
0.0
  0
ARC
  5
10CC4
  8
0
 10
901.2820925543761632
 20
54.6629674388379172
 30
0.0
 40
0.0314960627400893
 50
224.9999997321758087
 51
270.0000000940523819
  0
LINE
  5
10CC5
  8
0
 10
901.2598214747280281
 20
54.640696359397829
 30
0.0
 11
901.2192714413279191
 21
54.6812463927978314
 31
0.0
  0
ARC
  5
10CC6
  8
0
 10
901.241542521232418
 20
54.7035174726385094
 30
0.0
 40
0.0314960632045443
 50
180.0000000740126893
 51
224.9999999178562859
  0
LINE
  5
10CC7
  8
0
 10
901.2100464580280459
 20
54.848251791495727
 30
0.0
 11
901.2100464580280459
 21
54.7035174726385094
 31
0.0
  0
ARC
  5
10CC8
  8
0
 10
901.2415428419079717
 20
54.848251791495727
 30
0.0
 40
0.0314963838800786
 50
135.4245091586261083
 51
179.9999972674868047
  0
LINE
  5
10CC9
  8
0
 10
901.2191071381279244
 20
54.8703574783978283
 30
0.0
 11
901.2598214746999474
 21
54.9116465707181121
 31
0.0
  0
ARC
  5
10CCA
  8
0
 10
901.282340141806003
 20
54.8890805563507129
 30
0.0
 40
0.0318797015774369
 50
90.2879255837620747
 51
134.939828847468192
  0
LINE
  5
10CCB
  8
0
 10
899.475792445227853
 20
51.6837506805978322
 30
0.0
 11
898.7101577974278825
 21
51.9626852746978329
 31
0.0
  0
LINE
  5
10CCC
  8
0
 10
903.7897976558499522
 20
42.1464895313978332
 30
0.0
 11
906.3635133658058294
 21
42.1464895313978332
 31
0.0
  0
LINE
  5
10CCD
  8
0
 10
904.1755776871277703
 20
54.4875882951978312
 30
0.0
 11
905.1131313123563586
 21
54.4875882951978312
 31
0.0
  0
LINE
  5
10CCE
  8
0
 10
904.1640464580278831
 20
43.4182812061731269
 30
0.0
 11
904.1640464580278831
 21
52.0965815670832484
 31
0.0
  0
LINE
  5
10CCF
  8
0
 10
904.1640464580278831
 20
53.3397822646466935
 30
0.0
 11
904.1640464580278831
 21
54.2493295461509391
 31
0.0
  0
LINE
  5
10CD0
  8
0
 10
904.1640464580278831
 20
54.5154271449447165
 30
0.0
 11
904.1640464580278831
 21
54.552731673528811
 31
0.0
  0
LINE
  5
10CD1
  8
0
 10
904.1640464580278831
 20
54.9997000932213496
 30
0.0
 11
904.1640464580278831
 21
55.0341009836509372
 31
0.0
  0
LINE
  5
10CD2
  8
0
 10
905.9204964323280365
 20
55.0341009836978401
 30
0.0
 11
905.9204964323280365
 21
54.9263143321978333
 31
0.0
  0
LINE
  5
10CD3
  8
0
 10
905.9204964323280365
 20
54.6507237809978292
 30
0.0
 11
905.9204964323280365
 21
54.5247395289978272
 31
0.0
  0
LINE
  5
10CD4
  8
0
 10
905.9204964323280365
 20
54.2489740349023393
 30
0.0
 11
905.9204964323280365
 21
43.4182812061732903
 31
0.0
  0
ARC
  5
10CD5
  8
0
 10
899.9516579555781846
 20
51.9556371666379633
 30
0.0
 40
1.2463498209598649
 50
90.0000000023188989
 51
159.9823999927234013
  0
LINE
  5
10CD6
  8
0
 10
898.7806032240278
 20
52.3822736534978333
 30
0.0
 11
898.6633417446279282
 21
52.060408049697827
 31
0.0
  0
ARC
  5
10CD7
  8
0
 10
898.7006520046898004
 20
52.0469342298122299
 30
0.0
 40
0.0396686189350088
 50
160.1438748676696946
 51
206.0521397688272884
  0
ARC
  5
10CD8
  8
0
 10
898.7236385297214838
 20
51.9996785793110305
 30
0.0
 40
0.0393730203232749
 50
206.3206873410001094
 51
249.9777509285630117
  0
LINE
  5
10CD9
  8
0
 10
898.665013925627818
 20
52.0295122135978332
 30
0.0
 11
898.6883474523278892
 21
51.9822207848978266
 31
0.0
  0
LINE
  5
10CDA
  8
0
 10
899.098966011327775
 20
52.2662883135978333
 30
0.0
 11
898.9817045277278567
 21
51.9444226985978332
 31
0.0
  0
LINE
  5
10CDB
  8
0
 10
898.9755052845920318
 20
51.9164438161389796
 30
0.0
 11
898.9741405824277081
 21
51.8787848210978311
 31
0.0
  0
LINE
  5
10CDC
  8
0
 10
899.9516579555278213
 20
52.863154496297831
 30
0.0
 11
904.1435518695277551
 21
52.863154496297831
 31
0.0
  0
ARC
  5
10CDD
  8
0
 10
899.9516579475385925
 20
51.9556371921434774
 30
0.0
 40
0.9075173041543466
 50
89.9999994955992406
 51
159.9824013299374883
  0
ARC
  5
10CDE
  8
0
 10
899.1228821669691342
 20
51.8984659398725725
 30
0.0
 40
0.1484693554047188
 50
161.9686698717605964
 51
173.0450943312173138
  0
ARC
  5
10CDF
  8
0
 10
898.9943438026378999
 20
51.880629600566607
 30
0.0
 40
0.0202872698544869
 50
185.2172761012747912
 51
244.111963169538086
  0
LINE
  5
10CE0
  8
0
 10
898.665013925627818
 20
52.0295122135978332
 30
0.0
 11
899.5519661787278665
 21
51.7065200690978273
 31
0.0
  0
ARC
  5
10CE1
  8
0
 10
899.9516579555379394
 20
51.9556371667658468
 30
0.0
 40
0.2787392046319759
 50
90.0000000020713742
 51
159.9823999899066962
  0
LINE
  5
10CE2
  8
0
 10
899.6897580788278219
 20
52.0510520438978332
 30
0.0
 11
899.5723302602278864
 21
51.7287298636978292
 31
0.0
  0
ARC
  5
10CE3
  8
0
 10
899.5353386252402288
 20
51.7422065877892834
 30
0.0
 40
0.039370079391618
 50
294.9824004778694757
 51
339.9823996205615799
  0
LINE
  5
10CE4
  8
0
 10
899.5058979769279404
 20
51.6850553394978292
 30
0.0
 11
899.5519661787278665
 21
51.7065200690978273
 31
0.0
  0
LINE
  5
10CE5
  8
0
 10
904.272515228927773
 20
55.1588773751978323
 30
0.0
 11
904.1755776871277703
 21
55.0619398333978296
 31
0.0
  0
ARC
  5
10CE6
  8
0
 10
904.3003540797770938
 20
55.1310385232861506
 30
0.0
 40
0.0393700811831109
 50
89.9946532527005729
 51
134.9999989066359092
  0
ARC
  5
10CE7
  8
0
 10
904.2034165369636867
 20
55.0341009836509372
 30
0.0
 40
0.0393700789357622
 50
135.0000000914477027
 51
179.9999999317543029
  0
LINE
  5
10CE8
  8
0
 10
904.2793847832277834
 20
54.2492594485978401
 30
0.0
 11
904.2793847832277834
 21
43.4182812061731269
 31
0.0
  0
LINE
  5
10CE9
  8
0
 10
904.3688356421279195
 20
55.1588773751978323
 30
0.0
 11
904.2878149070277232
 21
55.0619398333978296
 31
0.0
  0
ARC
  5
10CEA
  8
0
 10
904.4013257321655601
 20
55.1286344890757576
 30
0.0
 40
0.0443873643243086
 50
109.7584305816647969
 51
137.0515568929359915
  0
ARC
  5
10CEB
  8
0
 10
904.3368036577625162
 20
55.0292205723564365
 30
0.0
 40
0.0589105062075575
 50
146.2613018558616886
 51
175.2479135120914009
  0
LINE
  5
10CEC
  8
0
 10
905.3006836923278797
 20
55.0341009836978401
 30
0.0
 11
905.3006836923278797
 21
54.520802521097842
 31
0.0
  0
LINE
  5
10CED
  8
0
 10
905.3006836923278797
 20
54.2492594294794799
 30
0.0
 11
905.3006836923278797
 21
43.4182812061732903
 31
0.0
  0
LINE
  5
10CEE
  8
0
 10
905.2647591012279236
 20
55.1588764881978335
 30
0.0
 11
905.2957063175279018
 21
55.0619390207978299
 31
0.0
  0
ARC
  5
10CEF
  8
0
 10
905.2446644175184929
 20
55.1481714125617515
 30
0.0
 40
0.0227682884238672
 50
28.0456442914020592
 51
77.6004172878926965
  0
ARC
  5
10CF0
  8
0
 10
905.1985331341481924
 20
55.0302006968723276
 30
0.0
 40
0.1022249909451695
 50
2.1865908315897098
 51
18.0878702306200587
  0
ARC
  5
10CF1
  8
0
 10
905.8810987639685663
 20
55.0337423616239718
 30
0.0
 40
0.0393993005260969
 50
0.5215274063039758
 51
45.699330942863611
  0
LINE
  5
10CF2
  8
0
 10
905.8080747443278824
 20
55.1593482163978308
 30
0.0
 11
905.9086161669620196
 21
55.0619398333978296
 31
0.0
  0
ARC
  5
10CF3
  8
0
 10
905.780516043750481
 20
55.1305467688194426
 30
0.0
 40
0.0398623300890105
 50
46.2631730729678807
 51
89.7145773353040283
  0
ARC
  5
10CF4
  8
0
 10
905.9254666103082627
 20
54.9062166970092989
 30
0.0
 40
0.0207030821214661
 50
103.8906406531285
 51
149.0709581535720076
  0
ARC
  5
10CF5
  8
0
 10
906.0164408862583514
 20
54.8469810787679535
 30
0.0
 40
0.1292505105916594
 50
147.2735670432358859
 51
165.6857281040742009
  0
ARC
  5
10CF6
  8
0
 10
906.2373027305338837
 20
54.788520003552847
 30
0.0
 40
0.3577152730366882
 50
165.3589546090937006
 51
194.6410453909066121
  0
ARC
  5
10CF7
  8
0
 10
906.0265661949053992
 20
54.7341328063777084
 30
0.0
 40
0.140076141066927
 50
194.9049327100757125
 51
211.0331410420430984
  0
ARC
  5
10CF8
  8
0
 10
905.9287038245721533
 20
54.6752540930737112
 30
0.0
 40
0.0258669189891566
 50
211.0331410420409952
 51
251.5007044475551083
  0
ARC
  5
10CF9
  8
0
 10
905.7881243849672046
 20
54.808204095862628
 30
0.0
 40
0.1500492126691206
 50
0.0000000000032569
 51
40.8477596294144973
  0
ARC
  5
10CFA
  8
0
 10
905.7881243850277997
 20
54.7688340171978112
 30
0.0
 40
0.1500492125999706
 50
319.1705143419782189
 51
0.0000000000048853
  0
LINE
  5
10CFB
  8
0
 10
905.9381735976279515
 20
54.8082040958978283
 30
0.0
 11
905.9381735976279515
 21
54.7688340171978112
 31
0.0
  0
LINE
  5
10CFC
  8
0
 10
905.91655942442776
 20
54.520802521097842
 30
0.0
 11
905.2532061498278608
 21
54.520802521097842
 31
0.0
  0
LINE
  5
10CFD
  8
0
 10
905.2337624481277771
 20
54.5183615440978215
 30
0.0
 11
904.8579832236280254
 21
54.4224994970978315
 31
0.0
  0
ARC
  5
10CFE
  8
0
 10
904.8570100513478565
 20
54.426314331879901
 30
0.0
 40
0.0039370075820795
 50
269.999995344701972
 51
284.3110432626244233
  0
ARC
  5
10CFF
  8
0
 10
905.253216185311544
 20
54.4420622956836979
 30
0.0
 40
0.0787402260536413
 50
90.0073023777029846
 51
104.3037389398357959
  0
ARC
  5
10D00
  8
0
 10
905.91655942442776
 20
54.5247395289978272
 30
0.0
 40
0.003937007900003
 50
270.0000000000521254
 51
359.9999999999482725
  0
LINE
  5
10D01
  8
0
 10
905.8457873093277612
 20
54.338094175797842
 30
0.0
 11
905.9086164509283208
 21
54.2771683957978297
 31
0.0
  0
ARC
  5
10D02
  8
0
 10
905.8320940732058943
 20
54.3239520003737866
 30
0.0
 40
0.0196851680514728
 50
45.9240063595435615
 51
89.9767019852975238
  0
ARC
  5
10D03
  8
0
 10
905.8810820929583087
 20
54.2489664572733403
 30
0.0
 40
0.0394143400979852
 50
0.0110154300068108
 51
45.6862264220109395
  0
ARC
  5
10D04
  8
0
 10
905.7806999904289569
 20
54.3415040976977721
 30
0.0
 40
1.248031496101057
 50
176.2845940785497874
 51
179.1028371990981043
  0
ARC
  5
10D05
  8
0
 10
904.5131387786232153
 20
54.3613537572848315
 30
0.0
 40
0.0196851262795909
 50
295.8420874423836722
 51
359.102837199100577
  0
ARC
  5
10D06
  8
0
 10
904.4618023744284301
 20
54.3415040976978716
 30
0.0
 40
1.2480314960994101
 50
0.8971628008985815
 51
8.2599789388562268
  0
ARC
  5
10D07
  8
0
 10
905.7293635863192094
 20
54.3613537572861816
 30
0.0
 40
0.0196851263663055
 50
180.8971628009026063
 51
244.3533958302932092
  0
LINE
  5
10D08
  8
0
 10
904.1755776871277703
 20
54.4875882951978312
 30
0.0
 11
904.2292574289278946
 21
54.4339085533978277
 31
0.0
  0
ARC
  5
10D09
  8
0
 10
904.2034165369634593
 20
54.5154271449447165
 30
0.0
 40
0.0393700789357521
 50
180.0000000682350105
 51
224.9999999085522973
  0
ARC
  5
10D0A
  8
0
 10
904.25709627949891
 20
54.4617474044670615
 30
0.0
 40
0.0393700803907255
 50
225.0000005126422877
 51
270.0060777191927741
  0
LINE
  5
10D0B
  8
0
 10
904.2362808435277657
 20
54.3378715522978268
 30
0.0
 11
904.1755776871277703
 21
54.2771683958978315
 31
0.0
  0
ARC
  5
10D0C
  8
0
 10
904.2502002685305342
 20
54.3239521270795009
 30
0.0
 40
0.0196850397716029
 50
89.9957848394438145
 51
134.9999995558409864
  0
ARC
  5
10D0D
  8
0
 10
904.2034165369636867
 20
54.2493295461509391
 30
0.0
 40
0.039370078935761
 50
135.0000000914484986
 51
179.9999999317572019
  0
LINE
  5
10D0E
  8
0
 10
904.3385058930279001
 20
54.3378711474978289
 30
0.0
 11
904.2878166638280391
 21
54.2771681875978302
 31
0.0
  0
ARC
  5
10D0F
  8
0
 10
904.3510370577886306
 20
54.3283265322864679
 30
0.0
 40
0.0157540983243887
 50
103.626803601710705
 51
142.7081414601285871
  0
ARC
  5
10D10
  8
0
 10
904.3498455520135622
 20
54.2431997112562385
 30
0.0
 40
0.0707208622299058
 50
151.2938515679252873
 51
175.0845673324809866
  0
LINE
  5
10D11
  8
0
 10
905.2763409807280368
 20
54.3378711459978305
 30
0.0
 11
905.2957025479280446
 21
54.2771681856978319
 31
0.0
  0
ARC
  5
10D12
  8
0
 10
905.1695565272935937
 20
54.2402547964805422
 30
0.0
 40
0.1314359799497586
 50
3.928397934320345
 51
16.3107576119617086
  0
ARC
  5
10D13
  8
0
 10
905.267588855798067
 20
54.3342441491225401
 30
0.0
 40
0.0094739008395805
 50
22.509766927992569
 51
82.5077588801024291
  0
ARC
  5
10D14
  8
0
 10
904.0262511809788748
 20
53.3397822646466935
 30
0.0
 40
0.1377952770488573
 50
269.9999992718705926
 51
359.9999999381053044
  0
ARC
  5
10D15
  8
0
 10
904.1096804335337538
 20
53.0539263395348186
 30
0.0
 40
0.1937554395322806
 50
280.0679161105588832
 51
324.7071603522193186
  0
LINE
  5
10D16
  8
0
 10
904.0262516537133024
 20
52.2343763713978291
 30
0.0
 11
899.9516579555379394
 21
52.2343763713978291
 31
0.0
  0
ARC
  5
10D17
  8
0
 10
904.0262516537133024
 20
52.0965815670832484
 30
0.0
 40
0.1377948043151596
 50
359.9998359709605893
 51
90.000165567516305
  0
LINE
  5
10D18
  8
0
 10
904.1640464580278831
 20
53.3397822644978277
 30
0.0
 11
904.2664535084278441
 21
52.9571199326978288
 31
0.0
  0
LINE
  5
10D19
  8
0
 10
904.2739091133313423
 20
52.8446765266834007
 30
0.0
 11
904.2664535084278441
 21
52.5328562437978377
 31
0.0
  0
LINE
  5
10D1A
  8
0
 10
904.2664535084278441
 20
52.5328562437978377
 30
0.0
 11
904.2158702984279444
 21
52.2128252162978299
 31
0.0
  0
ARC
  5
10D1B
  8
0
 10
903.9945010580311191
 20
52.2492913020784968
 30
0.0
 40
0.2243526599039969
 50
334.5416990266962216
 51
350.6456928471471883
  0
LINE
  5
10D1C
  8
0
 10
904.1640464580278831
 20
52.0965811725978369
 30
0.0
 11
904.1970687078277251
 21
52.1528523925978433
 31
0.0
  0
ARC
  5
10D1D
  8
0
 10
902.9547935696618879
 20
52.8305999309705498
 30
0.0
 40
1.3177477398198221
 50
0.6131802548084609
 51
5.5095871343799834
  0
ARC
  5
10D1E
  8
0
 10
904.0853062202044157
 20
54.9997000932213282
 30
0.0
 40
0.0787402378235047
 50
269.9999999999739089
 51
359.9999822280968829
  0
LINE
  5
10D1F
  8
0
 10
901.2598214746999474
 20
54.640696359369862
 30
0.0
 11
901.2598214746999474
 21
54.9116465707181121
 31
0.0
  0
LINE
  5
10D20
  8
0
 10
901.2192713828541173
 20
54.7771912229256799
 30
0.0
 11
901.2598200788717122
 21
54.7979326887340434
 31
0.0
  0
LINE
  5
10D21
  8
0
 10
901.2192714823626147
 20
54.7252785531482004
 30
0.0
 11
901.2598214689588758
 21
54.6901086726298686
 31
0.0
  0
ARC
  5
10D22
  8
0
 10
901.2354309619822743
 20
54.7576105219036293
 30
0.0
 40
0.0253877106118728
 50
129.5322073640058136
 51
179.0893390506049911
  0
ARC
  5
10D23
  8
0
 10
901.231191286636431
 20
54.7515257737138228
 30
0.0
 40
0.0288270414948186
 50
222.8188140794248966
 51
245.575497416295093
  0
LINE
  5
10D24
  8
0
 10
904.1280702446279065
 20
54.8024522798978282
 30
0.0
 11
901.2836770392278822
 21
54.8024522798978282
 31
0.0
  0
LINE
  5
10D25
  8
0
 10
904.1337763031278882
 20
54.6831589351978309
 30
0.0
 11
901.2830643012279097
 21
54.6831589351978309
 31
0.0
  0
ARC
  5
10D26
  8
0
 10
901.2871274390702183
 20
54.739089520530321
 30
0.0
 40
0.0560779766464576
 50
240.8610941571675994
 51
265.8449851908089272
  0
ARC
  5
10D27
  8
0
 10
901.2878655108702333
 20
54.7151180900397094
 30
0.0
 40
0.0874345698958464
 50
92.7457517995617593
 51
108.7088368901954993
  0
ARC
  5
10D28
  8
0
 10
904.1210985007012368
 20
54.8878041619622579
 30
0.0
 40
0.0856361429848295
 50
274.6696880176493778
 51
346.9884644588606761
  0
ARC
  5
10D29
  8
0
 10
904.1318146700890566
 20
54.5613468935406374
 30
0.0
 40
0.1218278354764305
 50
50.1141102126076703
 51
89.0774017219094389
  0
ARC
  5
10D2A
  8
0
 10
904.0853067554588733
 20
54.552731673528811
 30
0.0
 40
0.0787397025697746
 50
359.9997484251824176
 51
90.000251647580555
  0
LINE
  5
10D2B
  8
0
 10
904.1640464580278831
 20
54.5527313277978294
 30
0.0
 11
904.1930612356278516
 21
54.5882210902978287
 31
0.0
  0
ARC
  5
10D2C
  8
0
 10
903.9052569252340845
 20
54.7808110783998004
 30
0.0
 40
0.3118675501025875
 50
357.3643113659190931
 51
16.3347453085188796
  0
ARC
  5
10D2D
  8
0
 10
902.5937670086223079
 20
54.8101169543054993
 30
0.0
 40
1.623614331792143
 50
354.5116207373367274
 51
358.4595478438391751
  0
ARC
  5
10D2E
  8
0
 10
903.9846175973083291
 20
54.6764779775133505
 30
0.0
 40
0.2263581862819
 50
337.0517693694949912
 51
354.5116206880207983
  0
ARC
  5
10D2F
  8
0
 10
905.0138642198528487
 20
55.1901707488257216
 30
0.0
 40
0.8709014342986477
 50
192.6329950623230047
 51
201.6741115136420035
  0
LINE
  5
10D30
  8
0
 10
903.7897976558499522
 20
42.1464895313978332
 30
0.0
 11
903.8563575750279142
 21
41.9969935039978282
 31
0.0
  0
ARC
  5
10D31
  8
0
 10
903.8252175920380296
 20
42.1638518244107914
 30
0.0
 40
0.0394464332765817
 50
139.9062424724085929
 51
206.1133638057239921
  0
ARC
  5
10D32
  8
0
 10
902.6141570738769815
 20
43.1551447818272322
 30
0.0
 40
1.5255907599337211
 50
320.7190290521730844
 51
351.311127223607798
  0
ARC
  5
10D33
  8
0
 10
900.4056569933402443
 20
43.4880362842967969
 30
0.0
 40
3.7590367302273
 50
351.3807010594151734
 51
358.936722018617786
  0
ARC
  5
10D34
  8
0
 10
903.892329949547161
 20
42.0130168476252734
 30
0.0
 40
0.0393796809224711
 50
204.0098499659040101
 51
269.9960194980615142
  0
LINE
  5
10D35
  8
0
 10
903.9214108858147938
 20
42.1464895313978332
 30
0.0
 11
903.9783882377278132
 21
41.9969947332978322
 31
0.0
  0
ARC
  5
10D36
  8
0
 10
902.6569847544917593
 20
43.1627303728800698
 30
0.0
 40
1.600209083705997
 50
322.5397312734946809
 51
351.4518427834569252
  0
ARC
  5
10D37
  8
0
 10
900.5321863099499069
 20
43.4734916655730288
 30
0.0
 40
3.7476051810406612
 50
351.5821364005097962
 51
359.1558767282667759
  0
ARC
  5
10D38
  8
0
 10
903.9661689958337547
 20
42.1623461723206105
 30
0.0
 40
0.0474839075247313
 50
145.1713384280170942
 51
199.5079197687632018
  0
ARC
  5
10D39
  8
0
 10
904.0241301357557404
 20
42.0172699444168387
 30
0.0
 40
0.0500340426220747
 50
203.9054357420301073
 51
240.6983060829718113
  0
ARC
  5
10D3A
  8
0
 10
908.6714304204813288
 20
43.0912671020044797
 30
0.0
 40
3.359519554217818
 50
182.9468469837989915
 51
195.5709146969878134
  0
ARC
  5
10D3B
  8
0
 10
914.4856343684640478
 20
43.4561802727458613
 30
0.0
 40
9.1850288656215522
 50
180.2364132715914025
 51
183.3555939124769054
  0
LINE
  5
10D3C
  8
0
 10
905.4374171568714473
 20
42.1464895313978332
 30
0.0
 11
905.4156543114277156
 21
41.9969943468978286
 31
0.0
  0
ARC
  5
10D3D
  8
0
 10
905.3881290362663776
 20
42.0006372015465601
 30
0.0
 40
0.0277652870092538
 50
283.4827816921701924
 51
352.4609567976239077
  0
ARC
  5
10D3E
  8
0
 10
905.3514581165774189
 20
42.1636188125402995
 30
0.0
 40
0.0876491236733229
 50
348.7301473153510187
 51
17.1528188934158088
  0
ARC
  5
10D3F
  8
0
 10
907.4004177654950354
 20
43.2074889517272069
 30
0.0
 40
1.45809555851405
 50
191.2954234905641044
 51
224.2818349571408874
  0
ARC
  5
10D40
  8
0
 10
908.4896543494867274
 20
43.426704386708721
 30
0.0
 40
2.5691717251422692
 50
180.1878479179279964
 51
191.3316163825525109
  0
ARC
  5
10D41
  8
0
 10
906.3363670134317545
 20
42.1641404259772301
 30
0.0
 40
0.0323802181380115
 50
326.9675786964455142
 51
51.4493607905799593
  0
ARC
  5
10D42
  8
0
 10
906.2569295229670843
 20
42.0133931176295192
 30
0.0
 40
0.0397563756293015
 50
269.735134337766624
 51
334.6548978968842789
  0
LINE
  5
10D43
  8
0
 10
906.2928591829278275
 20
41.9963746294978293
 30
0.0
 11
906.3635133658058294
 21
42.1464895313978332
 31
0.0
  0
LINE
  5
10D44
  8
0
 10
904.2878164968666397
 20
54.4875882951978312
 30
0.0
 11
904.3326317415278481
 21
54.4339085533978277
 31
0.0
  0
LINE
  5
10D45
  8
0
 10
904.2780956572277091
 20
55.0341009836978401
 30
0.0
 11
904.2780956572277091
 21
54.5157826526978297
 31
0.0
  0
ARC
  5
10D46
  8
0
 10
904.330906711839134
 20
54.518217875205309
 30
0.0
 40
0.0528671712674019
 50
182.6401518655380869
 51
215.4061469076040112
  0
ARC
  5
10D47
  8
0
 10
904.3569760810106573
 20
54.4519105083700197
 30
0.0
 40
0.0302773388473818
 50
216.4818846839092998
 51
257.2707165571554242
  0
ENDSEC
  0
EOF
