  0
SECTION
  2
HEADER
  9
$ACADVER
  1
AC1009
  9
$INSBASE
 10
3148.3978831854228702
 20
197.86110359830829
 30
0.0
  9
$EXTMIN
 10
3147.1040112180639881
 20
196.5337210945297954
 30
0.0
  9
$EXTMAX
 10
3149.691847447480086
 20
199.1526537201272902
 30
0.0
  9
$LIMMIN
 10
0.0
 20
0.0
  9
$LIMMAX
 10
11.6929133858000007
 20
8.2677165353999982
  9
$ORTHOMODE
 70
     0
  9
$REGENMODE
 70
     1
  9
$FILLMODE
 70
     1
  9
$QTEXTMODE
 70
     0
  9
$MIRRTEXT
 70
     0
  9
$DRAGMODE
 70
     2
  9
$LTSCALE
 40
0.6431102362
  9
$OSMODE
 70
  4095
  9
$ATTMODE
 70
     1
  9
$TEXTSIZE
 40
0.2
  9
$TRACEWID
 40
0.05
  9
$TEXTSTYLE
  7
STANDARD
  9
$CLAYER
  8
0
  9
$CELTYPE
  6
BYLAYER
  9
$CECOLOR
 62
   256
  9
$DIMSCALE
 40
1.0
  9
$DIMASZ
 40
0.1875
  9
$DIMEXO
 40
0.0625
  9
$DIMDLI
 40
0.4443307087
  9
$DIMRND
 40
0.0
  9
$DIMDLE
 40
0.0
  9
$DIMEXE
 40
0.125
  9
$DIMTP
 40
0.01
  9
$DIMTM
 40
0.01
  9
$DIMTXT
 40
2.0
  9
$DIMCEN
 40
0.1052362205
  9
$DIMTSZ
 40
0.0
  9
$DIMTOL
 70
     1
  9
$DIMLIM
 70
     0
  9
$DIMTIH
 70
     1
  9
$DIMTOH
 70
     1
  9
$DIMSE1
 70
     0
  9
$DIMSE2
 70
     0
  9
$DIMTAD
 70
     0
  9
$DIMZIN
 70
     0
  9
$DIMBLK
  1

  9
$DIMASO
 70
     1
  9
$DIMSHO
 70
     1
  9
$DIMPOST
  1
\X
  9
$DIMAPOST
  1

  9
$DIMALT
 70
     1
  9
$DIMALTD
 70
     2
  9
$DIMALTF
 40
25.3999999999999986
  9
$DIMLFAC
 40
1.0
  9
$DIMTOFL
 70
     0
  9
$DIMTVP
 40
0.0
  9
$DIMTIX
 70
     0
  9
$DIMSOXD
 70
     0
  9
$DIMSAH
 70
     0
  9
$DIMBLK1
  1

  9
$DIMBLK2
  1

  9
$DIMSTYLE
  2
STANDARD
  9
$DIMCLRD
 70
     0
  9
$DIMCLRE
 70
     0
  9
$DIMCLRT
 70
     0
  9
$DIMTFAC
 40
1.0
  9
$DIMGAP
 40
0.09
  9
$LUNITS
 70
     2
  9
$LUPREC
 70
     4
  9
$SKETCHINC
 40
0.1
  9
$FILLETRAD
 40
0.0
  9
$AUNITS
 70
     0
  9
$AUPREC
 70
     0
  9
$MENU
  1
.
  9
$ELEVATION
 40
0.0
  9
$PELEVATION
 40
0.0
  9
$THICKNESS
 40
0.0
  9
$LIMCHECK
 70
     0
  9
$BLIPMODE
 70
     0
  9
$CHAMFERA
 40
0.0
  9
$CHAMFERB
 40
0.0
  9
$SKPOLY
 70
     0
  9
$TDCREATE
 40
2458060.468368056230247
  9
$TDUPDATE
 40
2459457.5352546297945082
  9
$TDINDWG
 40
0.3867431713
  9
$TDUSRTIMER
 40
0.3867431713
  9
$USRTIMER
 70
     1
  9
$ANGBASE
 50
0.0
  9
$ANGDIR
 70
     0
  9
$PDMODE
 70
     0
  9
$PDSIZE
 40
0.3125
  9
$PLINEWID
 40
0.0
  9
$COORDS
 70
     1
  9
$SPLFRAME
 70
     0
  9
$SPLINETYPE
 70
     6
  9
$SPLINESEGS
 70
     8
  9
$ATTDIA
 70
     1
  9
$ATTREQ
 70
     1
  9
$HANDLING
 70
     1
  9
$HANDSEED
  5
84A3
  9
$SURFTAB1
 70
     6
  9
$SURFTAB2
 70
     6
  9
$SURFTYPE
 70
     6
  9
$SURFU
 70
     6
  9
$SURFV
 70
     6
  9
$UCSNAME
  2

  9
$UCSORG
 10
0.0
 20
0.0
 30
0.0
  9
$UCSXDIR
 10
1.0
 20
0.0
 30
0.0
  9
$UCSYDIR
 10
0.0
 20
1.0
 30
0.0
  9
$PUCSNAME
  2

  9
$PUCSORG
 10
0.0
 20
0.0
 30
0.0
  9
$PUCSXDIR
 10
1.0
 20
0.0
 30
0.0
  9
$PUCSYDIR
 10
0.0
 20
1.0
 30
0.0
  9
$USERI1
 70
     0
  9
$USERI2
 70
     0
  9
$USERI3
 70
     0
  9
$USERI4
 70
     0
  9
$USERI5
 70
     0
  9
$USERR1
 40
0.0
  9
$USERR2
 40
0.0
  9
$USERR3
 40
0.0
  9
$USERR4
 40
0.0
  9
$USERR5
 40
0.0
  9
$WORLDVIEW
 70
     1
  9
$SHADEDGE
 70
     3
  9
$SHADEDIF
 70
    70
  9
$TILEMODE
 70
     1
  9
$MAXACTVP
 70
    64
  9
$PLIMCHECK
 70
     0
  9
$PEXTMIN
 10
1.0000000000000000E+20
 20
1.0000000000000000E+20
 30
1.0000000000000000E+20
  9
$PEXTMAX
 10
-1.0000000000000000E+20
 20
-1.0000000000000000E+20
 30
-1.0000000000000000E+20
  9
$PLIMMIN
 10
0.0
 20
0.0
  9
$PLIMMAX
 10
12.0
 20
9.0
  9
$UNITMODE
 70
     0
  9
$VISRETAIN
 70
     1
  9
$PLINEGEN
 70
     0
  9
$PSLTSCALE
 70
     1
  0
ENDSEC
  0
SECTION
  2
TABLES
  0
TABLE
  2
VPORT
 70
     1
  0
VPORT
  2
*ACTIVE
 70
     0
 10
0.0
 20
0.0
 11
1.0
 21
1.0
 12
66.2863485882260335
 22
0.0023416196906183
 13
0.0
 23
0.0
 14
1.0
 24
1.0
 15
0.0
 25
0.0
 16
0.0
 26
0.0
 36
95.5902297660485658
 17
3089.811279296875
 27
197.161570589386713
 37
0.0
 40
18.3794512538755903
 41
2.000833333333333
 42
50.0
 43
0.0
 44
0.0
 50
0.0
 51
0.0
 71
     0
 72
   100
 73
     1
 74
     1
 75
     0
 76
     0
 77
     0
 78
     0
  0
ENDTAB
  0
TABLE
  2
LTYPE
 70
     2
  0
LTYPE
  2
CONTINUOUS
 70
     0
  3
Solid line
 72
    65
 73
     0
 40
0.0
  0
LTYPE
  2
PHANTOM2
 70
     0
  3
___ _ _ ___ _ _ ___ _ _ ___ _ _
 72
    65
 73
     6
 40
1.25
 49
0.625
 49
-0.125
 49
0.125
 49
-0.125
 49
0.125
 49
-0.125
  0
ENDTAB
  0
TABLE
  2
LAYER
 70
     2
  0
LAYER
  2
0
 70
     0
 62
   255
  6
CONTINUOUS
  0
LAYER
  2
DEFPOINTS
 70
     0
 62
     7
  6
CONTINUOUS
  0
ENDTAB
  0
TABLE
  2
STYLE
 70
     1
  0
STYLE
  2
STANDARD
 70
     0
 40
0.0
 41
0.8
 50
0.0
 71
     0
 42
0.2
  3
txt
  4

  0
ENDTAB
  0
TABLE
  2
VIEW
 70
     0
  0
ENDTAB
  0
TABLE
  2
UCS
 70
     0
  0
ENDTAB
  0
TABLE
  2
APPID
 70
     9
  0
APPID
  2
ACAD
 70
     0
  0
APPID
  2
ACAD_MLEADERVER
 70
     0
  0
APPID
  2
ACAD_EXEMPT_FROM_CAD_STANDARDS
 70
     0
  0
APPID
  2
ACAD_NAV_VCDISPLAY
 70
     0
  0
APPID
  2
ACAECLAYERSTANDARD
 70
     0
  0
APPID
  2
ACCMTRANSPARENCY
 70
     0
  0
APPID
  2
ACAD_DSTYLE_DIMJAG
 70
     0
  0
APPID
  2
ACAD_DSTYLE_DIMTALN
 70
     0
  0
APPID
  2
ACDBATTR
 70
     0
  0
ENDTAB
  0
TABLE
  2
DIMSTYLE
 70
     1
  0
DIMSTYLE
  2
STANDARD
 70
     0
  3

  4

  5

  6

  7

 40
1.0
 41
0.1875
 42
0.0625
 43
0.38
 44
0.125
 45
0.0
 46
0.0
 47
0.01
 48
0.01
140
0.15625
141
0.09
142
0.0
143
25.3999999999999986
144
1.0
145
0.0
146
1.0
147
0.09
 71
     1
 72
     0
 73
     1
 74
     1
 75
     0
 76
     0
 77
     0
 78
     4
170
     0
171
     2
172
     0
173
     0
174
     0
175
     0
176
     0
177
     0
178
     0
  0
ENDTAB
  0
ENDSEC
  0
SECTION
  2
BLOCKS
  0
BLOCK
  8
0
  2
$MODEL_SPACE
 70
     0
 10
0.0
 20
0.0
 30
0.0
  3
$MODEL_SPACE
  1

  0
ENDBLK
  5
21
  8
0
  0
BLOCK
 67
     1
  8
0
  2
$PAPER_SPACE
 70
     0
 10
0.0
 20
0.0
 30
0.0
  3
$PAPER_SPACE
  1

  0
ENDBLK
  5
1D
 67
     1
  8
0
  0
ENDSEC
  0
SECTION
  2
ENTITIES
  0
ATTDEF
  5
3930
  8
DEFPOINTS
 10
3148.3993754533089486
 20
197.8649069258939051
 30
0.0
 40
0.001
  1
K-EX27024T
  3

  2
MODELNUMBER
 70
     0
1001
ACDBATTR
1070
     0
1070
     1
  0
ATTDEF
  5
3931
  8
DEFPOINTS
 10
3148.3993754533089486
 20
197.8632402592272967
 30
0.0
 40
0.001
  1
OCCASION
  3

  2
TRADENAME
 70
     0
1001
ACDBATTR
1070
     0
1070
     1
  0
ATTDEF
  5
3932
  8
DEFPOINTS
 10
3148.3993754533089486
 20
197.8615735925606032
 30
0.0
 40
0.001
  1
BATH SPOUT
  3

  2
PRODUCT
 70
     0
1001
ACDBATTR
1070
     0
1070
     1
  0
ARC
  5
81F7
  8
0
 10
3148.3992107846579529
 20
199.1186304674322969
 30
0.0
 40
0.0340491445366334
 50
92.2345677336275287
 51
110.1890373176459974
  0
ARC
  5
81F8
  8
0
 10
3149.2057015587370188
 20
196.6619783009722937
 30
0.0
 40
2.6126487811788319
 50
130.4981681106526992
 51
143.3130474780637087
  0
ARC
  5
81F9
  8
0
 10
3149.3261775626119743
 20
196.4366262686037032
 30
0.0
 40
2.8717202455915372
 50
109.0797213098474998
 51
111.7920885606576036
  0
ARC
  5
81FA
  8
0
 10
3149.2517345915721307
 20
196.6112062827046998
 30
0.0
 40
2.6819835118262279
 50
111.6999694784605026
 51
119.3442850598699039
  0
ARC
  5
81FB
  8
0
 10
3149.1839759114500339
 20
196.7152711289431863
 30
0.0
 40
2.5580782956922241
 50
119.163600792095707
 51
130.9033254635384083
  0
ARC
  5
81FC
  8
0
 10
3147.1329815991830401
 20
198.2045063818162021
 30
0.0
 40
0.0289703811187669
 50
140.6228151888147124
 51
183.3771082206264964
  0
ARC
  5
81FD
  8
0
 10
3149.9032462166737787
 20
198.2532061940623009
 30
0.0
 40
2.7996385002221271
 50
181.0316436340254995
 51
191.8484060497173118
  0
ARC
  5
81FE
  8
0
 10
3149.7650931708540156
 20
198.2377065105046938
 30
0.0
 40
2.6612869319683892
 50
210.8649323366871897
 51
215.2502831141655975
  0
ARC
  5
81FF
  8
0
 10
3149.7139128377098132
 20
198.2099075954525915
 30
0.0
 40
2.6030946194034841
 50
200.1451393914869925
 51
210.9176329119424906
  0
ARC
  5
8200
  8
0
 10
3149.8914714037900922
 20
198.2786861752938137
 30
0.0
 40
2.793480120658407
 50
192.4094756750606905
 51
200.2152825260600935
  0
ARC
  5
8201
  8
0
 10
3147.6155637709771327
 20
196.7165124753267946
 30
0.0
 40
0.0279917348588572
 50
211.836732872971794
 51
256.1632160549413015
  0
ARC
  5
8202
  8
0
 10
3148.3799627526091172
 20
199.1651946027052986
 30
0.0
 40
2.5931593729991129
 50
252.7010886948318102
 51
259.8848673741417201
  0
ARC
  5
8203
  8
0
 10
3148.3980207578720183
 20
198.4184720090896974
 30
0.0
 40
0.0390051260283918
 50
90.2020846456112935
 51
106.5810941899076028
  0
ARC
  5
8204
  8
0
 10
3148.7134621121931559
 20
197.3592178834445008
 30
0.0
 40
1.144230239138919
 50
106.5832312609444017
 51
145.4268485870931897
  0
ARC
  5
8205
  8
0
 10
3147.8040323499599253
 20
197.9865331780924009
 30
0.0
 40
0.0394313578359266
 50
146.1094172900872934
 51
178.0841065867415125
  0
LINE
  5
8206
  8
0
 10
3147.7642642402679485
 20
196.8192259490485867
 30
0.0
 11
3147.764264239971908
 21
197.9592407400710954
 31
0.0
  0
ARC
  5
8207
  8
0
 10
3195.3169122264230282
 20
197.3772105957382905
 30
0.0
 40
47.5562097902287988
 50
179.264278920028687
 51
179.2987518656277075
  0
ARC
  5
8208
  8
0
 10
3147.9155377583078916
 20
196.8214904734751087
 30
0.0
 40
0.1512904667548862
 50
180.8576385568474905
 51
215.0043191487910121
  0
ARC
  5
8209
  8
0
 10
3148.1136865879511788
 20
196.9676898442812956
 30
0.0
 40
0.3975080738547554
 50
215.8817836204727882
 51
233.0067449970053985
  0
ARC
  5
820A
  8
0
 10
3148.0555121110819528
 20
196.6012186769696086
 30
0.0
 40
0.0500384136051699
 50
248.3623956745148007
 51
264.5357998936693207
  0
ARC
  5
820B
  8
0
 10
3148.293704678155791
 20
197.1944438513376952
 30
0.0
 40
0.6892968048111625
 50
237.6170930332974081
 51
248.1408297119581903
  0
ARC
  5
820C
  8
0
 10
3148.0998622756860641
 20
196.8960779673431887
 30
0.0
 40
0.333536156357116
 50
227.492803966160011
 51
238.2871057953128968
  0
ARC
  5
820D
  8
0
 10
3148.3955294938700717
 20
199.9031753284785964
 30
0.0
 40
3.3694541695924838
 50
264.1268814769767914
 51
270.040023278683293
  0
ARC
  5
820E
  8
0
 10
3148.5529204144700088
 20
194.7943261139606079
 30
0.0
 40
2.163639727539703
 50
94.3577952000197655
 51
111.3635713369859985
  0
ARC
  5
820F
  8
0
 10
3148.5531420259458173
 20
194.87265292963761
 30
0.0
 40
2.017290539362012
 50
94.5158491035251984
 51
112.2757327569546959
  0
LINE
  5
8210
  8
0
 10
3148.3883818577728562
 20
196.95171074592389
 30
0.0
 11
3148.4073845130728841
 21
196.9517109549711051
 31
0.0
  0
ARC
  5
8211
  8
0
 10
3148.3980196508978224
 20
196.8450281194855904
 30
0.0
 40
0.0388303735863757
 50
84.5193381773477626
 51
95.4807070851779542
  0
ARC
  5
8212
  8
0
 10
3148.3972090890451909
 20
195.306197082898592
 30
0.0
 40
1.5469183851208159
 50
89.9750323746679186
 51
94.7800363088890236
  0
ARC
  5
8213
  8
0
 10
3148.2681514787650485
 20
196.1138947312290952
 30
0.0
 40
0.7279959058167683
 50
100.297560518729
 51
110.8839323136338066
  0
ARC
  5
8214
  8
0
 10
3148.3686269071558854
 20
195.6119846284219079
 30
0.0
 40
1.239816244059962
 50
94.6413365668346103
 51
100.719740750597694
  0
ARC
  5
8215
  8
0
 10
3148.133061354667916
 20
196.4762555245696944
 30
0.0
 40
0.3412970214784897
 50
111.3804535281650061
 51
119.5384990027854997
  0
ARC
  5
8216
  8
0
 10
3148.0355498178000744
 20
196.6395583520460093
 30
0.0
 40
0.1512074931446999
 50
117.898380736573003
 51
140.501159906270999
  0
ARC
  5
8217
  8
0
 10
3147.9654122306528734
 20
196.6985510649072069
 30
0.0
 40
0.0595705823672975
 50
141.375569808119991
 51
177.6054021508813889
  0
ARC
  5
8218
  8
0
 10
3147.9645385241410622
 20
196.7026564369978132
 30
0.0
 40
0.058667129804303
 50
181.5788423865841992
 51
225.543252161066988
  0
ARC
  5
8219
  8
0
 10
3148.3975703088008231
 20
198.1123880492336866
 30
0.0
 40
1.563423370145073
 50
266.3563992779118053
 51
270.0114661904113973
  0
ARC
  5
821A
  8
0
 10
3148.3730455646618793
 20
197.8134099700774868
 30
0.0
 40
1.2635029439211729
 50
258.847625133790018
 51
266.6046791407349019
  0
ARC
  5
821B
  8
0
 10
3148.075920919975033
 20
196.8117121956088909
 30
0.0
 40
0.2145405701371694
 50
224.7091849540618114
 51
251.8330704044988124
  0
ARC
  5
821C
  8
0
 10
3148.2629446909591024
 20
197.2717728805639013
 30
0.0
 40
0.7108058655543357
 50
249.0703867098750948
 51
259.110316216195713
  0
ARC
  5
821D
  8
0
 10
3148.3978511652790075
 20
195.6786637407053888
 30
0.0
 40
1.1702113208392499
 50
89.998432232633931
 51
93.8380089447248338
  0
ARC
  5
821E
  8
0
 10
3148.3786662362558673
 20
195.9148377585439107
 30
0.0
 40
0.9332887684777876
 50
93.6333666264189048
 51
101.9954816515721063
  0
ARC
  5
821F
  8
0
 10
3148.2419731473919455
 20
196.4987986921169068
 30
0.0
 40
0.3338978045766885
 50
99.8773240265585827
 51
124.4790194877553944
  0
ARC
  5
8220
  8
0
 10
3148.0687758827370999
 20
196.7356623689952073
 30
0.0
 40
0.0376469372148675
 50
145.6188138978280051
 51
201.4588569310591879
  0
ARC
  5
8221
  8
0
 10
3148.1009929035999448
 20
196.7159113349233905
 30
0.0
 40
0.0754126874365312
 50
129.5713351199981105
 51
147.056676659540301
  0
ARC
  5
8222
  8
0
 10
3148.5955675502591475
 20
196.9415031090096875
 30
0.0
 40
0.6032260999168316
 50
201.3500242383543082
 51
204.6222449302294137
  0
ARC
  5
8223
  8
0
 10
3148.1412123709151274
 20
196.7495390136629965
 30
0.0
 40
0.1111927277109439
 50
212.2659735366239033
 51
248.5176014968735103
  0
ARC
  5
8224
  8
0
 10
3148.3945942628429293
 20
195.7825894431408926
 30
0.0
 40
1.032443192917109
 50
89.8174798352545452
 51
100.0045685205749066
  0
ARC
  5
8225
  8
0
 10
3148.2946442645497882
 20
196.3278723955284875
 30
0.0
 40
0.4781021987543585
 50
99.5611631528399244
 51
114.6578737297678998
  0
ARC
  5
8226
  8
0
 10
3148.1452449443740988
 20
196.6526975958317109
 30
0.0
 40
0.1205671650400842
 50
114.5344958099419017
 51
140.5784115487047927
  0
ARC
  5
8227
  8
0
 10
3148.0871874403569564
 20
196.7031319790820021
 30
0.0
 40
0.0437412262709412
 50
143.320390807361207
 51
171.1677230836006061
  0
ARC
  5
8228
  8
0
 10
3148.0790961070060803
 20
196.7055095606133932
 30
0.0
 40
0.0353980942910913
 50
172.9598585156585955
 51
205.6642771421441012
  0
ARC
  5
8229
  8
0
 10
3148.1079335214130879
 20
196.7056048376319097
 30
0.0
 40
0.0327114023273954
 50
150.56425755720079
 51
198.1045744370221087
  0
ARC
  5
822A
  8
0
 10
3148.3953292121282175
 20
195.8553840615354886
 30
0.0
 40
0.9499139502723472
 50
89.8459522917479063
 51
99.5205912154942354
  0
ARC
  5
822B
  8
0
 10
3148.3062000423101381
 20
196.3558802117794073
 30
0.0
 40
0.4415990393313534
 50
98.8564790987817759
 51
114.7794548369956971
  0
ARC
  5
822C
  8
0
 10
3148.1400591057049496
 20
196.6861410545726017
 30
0.0
 40
0.0702648596460371
 50
125.232517295661097
 51
149.6157711120501119
  0
ARC
  5
822D
  8
0
 10
3148.1896178080742175
 20
196.6213082662337115
 30
0.0
 40
0.1518428531595595
 50
116.8173815276353054
 51
126.3942811151665069
  0
ARC
  5
822E
  8
0
 10
3148.280015896779787
 20
196.7624214565981049
 30
0.0
 40
0.2139306876275585
 50
198.2461688227843979
 51
212.9475223357437983
  0
ARC
  5
822F
  8
0
 10
3148.3534895269190201
 20
197.0939988173103927
 30
0.0
 40
0.5417483430311114
 50
253.4296796720190912
 51
262.7022167208227756
  0
ARC
  5
8230
  8
0
 10
3148.4084479035859658
 20
197.5857909569284914
 30
0.0
 40
1.036568349142976
 50
263.1420580326956156
 51
269.4160305558662003
  0
ARC
  5
8231
  8
0
 10
3148.2724743572298394
 20
196.7553377256172951
 30
0.0
 40
0.2037577611635956
 50
212.4293208416800951
 51
225.1272768801649988
  0
ARC
  5
8232
  8
0
 10
3148.2462842573859234
 20
196.7529033133949952
 30
0.0
 40
0.1843256529971545
 50
230.3699829788700129
 51
255.1319041257798119
  0
ARC
  5
8233
  8
0
 10
3148.395412549411958
 20
195.902728135785793
 30
0.0
 40
0.8205259728168875
 50
89.8274798913064245
 51
100.1229476178805982
  0
ARC
  5
8234
  8
0
 10
3148.3229183712451231
 20
196.3061135557929049
 30
0.0
 40
0.4106787224168622
 50
100.0579030083285943
 51
111.9272478316525934
  0
ARC
  5
8235
  8
0
 10
3148.2174940639552005
 20
196.5650841032779113
 30
0.0
 40
0.1310784685633076
 50
111.4504971748351068
 51
133.0123649539218889
  0
ARC
  5
8236
  8
0
 10
3148.1487829020011304
 20
196.6361947854919094
 30
0.0
 40
0.0322567428693188
 50
129.9318414136081117
 51
231.5310112735442942
  0
ARC
  5
8237
  8
0
 10
3148.3978392910721595
 20
195.8962550996710092
 30
0.0
 40
0.8196950007001607
 50
90.2625864740982138
 51
94.1223841947437023
  0
ARC
  5
8238
  8
0
 10
3148.3976095437410549
 20
196.0667597376381082
 30
0.0
 40
0.631548227551784
 50
90.3199717031665443
 51
93.9870158531469571
  0
ARC
  5
8239
  8
0
 10
3148.395705137954792
 20
196.1292260397883922
 30
0.0
 40
0.5672491325868224
 50
90.1638825324385067
 51
99.3028013407739252
  0
ARC
  5
823A
  8
0
 10
3148.3963475152318097
 20
196.2774151119901092
 30
0.0
 40
0.4014183021328791
 50
90.3232744801426151
 51
99.1434093673226471
  0
ARC
  5
823B
  8
0
 10
3148.3844231766402118
 20
196.0491557731234025
 30
0.0
 40
0.6661870980445086
 50
95.2295854307799488
 51
99.6712519200041669
  0
ARC
  5
823C
  8
0
 10
3148.3872548615931919
 20
196.1801209720015038
 30
0.0
 40
0.5177011908394946
 50
95.4053992015210781
 51
99.5846993700590559
  0
ARC
  5
823D
  8
0
 10
3148.3389743113398254
 20
196.4356981591272131
 30
0.0
 40
0.2555393128224905
 50
99.4111507790336901
 51
114.9329250284588966
  0
ARC
  5
823E
  8
0
 10
3148.3476228177778466
 20
196.2533839534044091
 30
0.0
 40
0.4586522288767603
 50
100.2906884480478027
 51
105.9835157691891965
  0
ARC
  5
823F
  8
0
 10
3148.3588798311229766
 20
196.3373889595133903
 30
0.0
 40
0.3578766013844196
 50
100.4066006224430936
 51
105.7531844724347962
  0
ARC
  5
8240
  8
0
 10
3148.3060247956382227
 20
196.5087224552227951
 30
0.0
 40
0.178489200980946
 50
108.0964358098580931
 51
116.589244464631804
  0
ARC
  5
8241
  8
0
 10
3148.2805765316011275
 20
196.4710417788105019
 30
0.0
 40
0.2308154105096803
 50
107.7543562262546004
 51
116.7494829800650962
  0
ARC
  5
8242
  8
0
 10
3148.217083256603928
 20
196.591593420238695
 30
0.0
 40
0.0944991271120263
 50
117.9772568969673046
 51
134.2975028614465884
  0
ARC
  5
8243
  8
0
 10
3148.2574175461909363
 20
196.6009405124270017
 30
0.0
 40
0.0741807642060573
 50
118.3453920668867028
 51
133.5999922707096914
  0
ARC
  5
8244
  8
0
 10
3148.2209310506132169
 20
196.6353702663975866
 30
0.0
 40
0.0237540670837522
 50
142.1076032246809859
 51
174.9046950717703908
  0
ARC
  5
8245
  8
0
 10
3148.1708789709050507
 20
196.6350644770060114
 30
0.0
 40
0.0307981465338548
 50
140.8042329539946138
 51
175.5017598620962076
  0
ARC
  5
8246
  8
0
 10
3148.1708789706090101
 20
196.6374621755172996
 30
0.0
 40
0.0307981462289325
 50
184.4982399606903982
 51
219.1957672232124992
  0
ARC
  5
8247
  8
0
 10
3148.2209310501671098
 20
196.6371563861127072
 30
0.0
 40
0.023754066627809
 50
185.095304700753104
 51
217.8923972208094995
  0
ARC
  5
8248
  8
0
 10
3148.2170832570909624
 20
196.6809332330689131
 30
0.0
 40
0.0944991279276344
 50
225.7024972094660029
 51
242.0227430321336044
  0
ARC
  5
8249
  8
0
 10
3148.2574175439781357
 20
196.6715861363487932
 30
0.0
 40
0.0741807597675118
 50
226.4000068253197071
 51
241.6546080049940031
  0
ARC
  5
824A
  8
0
 10
3148.3060247828070715
 20
196.7638041662731041
 30
0.0
 40
0.178489167296248
 50
243.4107547290674916
 51
251.9035649888450905
  0
ARC
  5
824B
  8
0
 10
3148.2805765376278941
 20
196.8014848885626122
 30
0.0
 40
0.2308154263767213
 50
243.250517329744298
 51
252.2456434639410929
  0
ARC
  5
824C
  8
0
 10
3148.3476228177992198
 20
197.0191426993278867
 30
0.0
 40
0.4586522289690797
 50
254.0164842313803035
 51
259.7093115513698081
  0
ARC
  5
824D
  8
0
 10
3148.3588683258140009
 20
196.9350881732931953
 30
0.0
 40
0.3578258178927372
 50
254.2464358519889061
 51
259.5937790531129963
  0
ARC
  5
824E
  8
0
 10
3148.387248694245045
 20
197.0923588036910985
 30
0.0
 40
0.5176539413730284
 50
260.4151098100717263
 51
264.5947916183657753
  0
ARC
  5
824F
  8
0
 10
3148.3978763977170274
 20
197.2128634886927898
 30
0.0
 40
0.6386462212536343
 50
266.0333690145224068
 51
269.6596434937969207
  0
ARC
  5
8250
  8
0
 10
3148.3844326322778215
 20
197.2234431955832008
 30
0.0
 40
0.6662599748483499
 50
260.3289912313305763
 51
264.7701716379650065
  0
ARC
  5
8251
  8
0
 10
3148.3974615533747965
 20
197.3664050490307034
 30
0.0
 40
0.8098269374633558
 50
265.8540902135617898
 51
269.7609392288970867
  0
ARC
  5
8252
  8
0
 10
3148.3974591055598466
 20
196.8195448324565859
 30
0.0
 40
0.2045725694193833
 50
261.4476963170731096
 51
270.1187744955411176
  0
ARC
  5
8253
  8
0
 10
3148.396767644927877
 20
196.9831806452394005
 30
0.0
 40
0.3876755189635122
 50
260.9089911557092023
 51
270.1648694522485243
  0
ARC
  5
8254
  8
0
 10
3148.3963475144942095
 20
196.9951115239529997
 30
0.0
 40
0.401418285429841
 50
260.8565903557358183
 51
269.6767256118072851
  0
ARC
  5
8255
  8
0
 10
3148.3956977607667795
 20
197.1432406898557019
 30
0.0
 40
0.5671888051745234
 50
260.6969555600080071
 51
269.825398760449616
  0
ARC
  5
8256
  8
0
 10
3148.3561144219038397
 20
196.7781338027307072
 30
0.0
 40
0.1806945545942298
 50
245.3329941479271099
 51
260.3229299546554216
  0
ARC
  5
8257
  8
0
 10
3148.3389743097868632
 20
196.836828489726912
 30
0.0
 40
0.2555393087328117
 50
245.0670749292432902
 51
260.5888494219238964
  0
ARC
  5
8258
  8
0
 10
3148.2884417944687812
 20
196.6428124034842995
 30
0.0
 40
0.029212274203574
 50
195.4166449261215917
 51
246.440590252805606
  0
ARC
  5
8259
  8
0
 10
3148.288441795304152
 20
196.6297142484345954
 30
0.0
 40
0.0292122752001714
 50
113.5594106800269003
 51
164.5833541410434009
  0
ARC
  5
825A
  8
0
 10
3148.2433283512350499
 20
196.6270462781990034
 30
0.0
 40
0.0414843253925538
 50
112.7095461163677044
 51
165.4332188333411864
  0
ARC
  5
825B
  8
0
 10
3148.2433246154760127
 20
196.6454771352971989
 30
0.0
 40
0.0414798951048681
 50
194.5637486128509863
 51
247.2934866412061012
  0
ARC
  5
825C
  8
0
 10
3148.3561144233931373
 20
196.4943928439145964
 30
0.0
 40
0.1806945607561547
 50
99.6770701909809418
 51
114.6670054741571931
  0
ARC
  5
825D
  8
0
 10
3148.290727300035087
 20
196.631363450759892
 30
0.0
 40
0.025289445819424
 50
118.8327550991837001
 51
166.0037189989103865
  0
ARC
  5
825E
  8
0
 10
3148.3670716667397755
 20
196.4634869248540099
 30
0.0
 40
0.2109681920367975
 50
100.4809862352034031
 51
109.168113050373293
  0
ARC
  5
825F
  8
0
 10
3148.3276455024570168
 20
196.5758117516251104
 30
0.0
 40
0.0919262139983735
 50
108.9440433240349932
 51
122.294959935735406
  0
ARC
  5
8260
  8
0
 10
3148.2859041846431865
 20
196.638458666435298
 30
0.0
 40
0.0200085779960585
 50
189.8182860691711085
 51
234.0221147731809879
  0
ARC
  5
8261
  8
0
 10
3148.3646978629981277
 20
196.7997438356921975
 30
0.0
 40
0.2013966091191757
 50
250.2107248617907942
 51
259.7019964149104112
  0
ARC
  5
8262
  8
0
 10
3148.3212292328798867
 20
196.6830083177399047
 30
0.0
 40
0.0768505677867186
 50
232.2214234560676118
 51
251.2391642186657919
  0
ARC
  5
8263
  8
0
 10
3148.3974571423877933
 20
196.4529993745128138
 30
0.0
 40
0.2045549183408348
 50
89.8806653703383347
 51
98.5524911257761147
  0
ARC
  5
8264
  8
0
 10
3148.3971288377288147
 20
196.2846841503115058
 30
0.0
 40
0.3923360702146892
 50
89.889836879573437
 51
99.0355244829359975
  0
ARC
  5
8265
  8
0
 10
3148.340901418555859
 20
196.6341773306623111
 30
0.0
 40
0.0121252634014218
 50
123.7506304140258067
 51
164.194458964323502
  0
ARC
  5
8266
  8
0
 10
3148.3591733473840577
 20
196.6090890656184911
 30
0.0
 40
0.0431549678708495
 50
109.7483300101618937
 51
125.4156620297679012
  0
ARC
  5
8267
  8
0
 10
3148.3788787679918642
 20
196.5569414069034906
 30
0.0
 40
0.0988981959014035
 50
100.8764000302505934
 51
110.2849977463780959
  0
ARC
  5
8268
  8
0
 10
3148.345884077116807
 20
196.6343182680514019
 30
0.0
 40
0.0111893689074553
 50
122.1526390722658988
 51
163.5869867161065088
  0
ARC
  5
8269
  8
0
 10
3148.3739978727558082
 20
196.5880808176322887
 30
0.0
 40
0.0653019963267919
 50
99.539428633450413
 51
121.4468313529121986
  0
ARC
  5
826A
  8
0
 10
3148.3833629194919013
 20
196.6261947296841015
 30
0.0
 40
0.0169296045419631
 50
98.1191797779763561
 51
138.1951519242614097
  0
ARC
  5
826B
  8
0
 10
3148.3978831854228702
 20
196.5607721969022919
 30
0.0
 40
0.0840074566094978
 50
90.0
 51
96.8998561234795091
  0
ARC
  5
826C
  8
0
 10
3148.3975215809477959
 20
196.4683452050097969
 30
0.0
 40
0.187384087868455
 50
89.8894333913089838
 51
98.4473645010189102
  0
ARC
  5
826D
  8
0
 10
3148.3978781720220468
 20
196.7116907875212064
 30
0.0
 40
0.0839436472594631
 50
263.0983203421974963
 51
270.0034218996070194
  0
ARC
  5
826E
  8
0
 10
3148.3975280689528518
 20
196.8042402201010077
 30
0.0
 40
0.1874431758342875
 50
261.5533128954747895
 51
270.1085485616148958
  0
ARC
  5
826F
  8
0
 10
3148.3833629194577952
 20
196.6463319228959961
 30
0.0
 40
0.0169296044757108
 50
221.8048479938609887
 51
261.8808203037436897
  0
ARC
  5
8270
  8
0
 10
3148.3505645426389492
 20
196.641421725465193
 30
0.0
 40
0.0166801648333341
 50
202.4694369883933973
 51
251.9855847568283878
  0
ARC
  5
8271
  8
0
 10
3148.3783612153310969
 20
196.7003952162978919
 30
0.0
 40
0.0817707934508104
 50
246.2330030362207083
 51
259.2975087509954051
  0
ARC
  5
8272
  8
0
 10
3148.3410437988509329
 20
196.6383313128484076
 30
0.0
 40
0.0122574837444117
 50
195.5432677220669007
 51
240.0860770966382916
  0
ARC
  5
8273
  8
0
 10
3148.3725846213587829
 20
196.6915056648934126
 30
0.0
 40
0.0740816190891414
 50
239.4512057122576891
 51
260.3901554800660847
  0
LINE
  5
8274
  8
0
 10
3148.3940826432281028
 20
196.7159414920002973
 30
0.0
 11
3148.3940826432722133
 21
196.69829811707109
 31
0.0
  0
LINE
  5
8275
  8
0
 10
3148.3940826432722133
 20
196.6964728519710945
 30
0.0
 11
3148.3940826432722133
 21
196.6788270246711079
 31
0.0
  0
LINE
  5
8276
  8
0
 10
3148.338913780672101
 20
196.713829364471195
 30
0.0
 11
3148.353697737892162
 21
196.6967795127490035
 31
0.0
  0
LINE
  5
8277
  8
0
 10
3148.353697737892162
 20
196.6967795127490035
 30
0.0
 11
3148.3536977378721531
 21
196.7147592012711073
 31
0.0
  0
LINE
  5
8278
  8
0
 10
3148.3040081409722006
 20
196.6890146062710869
 30
0.0
 11
3148.3325596893719194
 21
196.6737328715711044
 31
0.0
  0
LINE
  5
8279
  8
0
 10
3148.3325596893719194
 20
196.6737328715711044
 30
0.0
 11
3148.3325596893719194
 21
196.6929495808471131
 31
0.0
  0
LINE
  5
827A
  8
0
 10
3148.3355137052722057
 20
196.6721517843710956
 30
0.0
 11
3148.3670366699720944
 21
196.6552796490711046
 31
0.0
  0
LINE
  5
827B
  8
0
 10
3148.3670366699720944
 20
196.6552796490711046
 30
0.0
 11
3148.3670366699720944
 21
196.6758644845710933
 31
0.0
  0
LINE
  5
827C
  8
0
 10
3148.3699947128720851
 20
196.6536964065711004
 30
0.0
 11
3148.3877910045721364
 21
196.6441712415710867
 31
0.0
  0
LINE
  5
827D
  8
0
 10
3148.3877910045721364
 20
196.6441712415710867
 30
0.0
 11
3148.3877910045721364
 21
196.6554666856712004
 31
0.0
  0
LINE
  5
827E
  8
0
 10
3148.3351506769718071
 20
196.6374799286710982
 30
0.0
 11
3148.3707432604719543
 21
196.6374799286710982
 31
0.0
  0
LINE
  5
827F
  8
0
 10
3148.3707432604719543
 20
196.6374799286710982
 30
0.0
 11
3148.3707432604719543
 21
196.6484293497053102
 31
0.0
  0
LINE
  5
8280
  8
0
 10
3148.3631756152722119
 20
196.6524798041710937
 30
0.0
 11
3148.3809719068372033
 21
196.6429546392432997
 31
0.0
  0
LINE
  5
8281
  8
0
 10
3148.2661886617720484
 20
196.6374799286710982
 30
0.0
 11
3148.3292345912718702
 21
196.6374799286830068
 31
0.0
  0
LINE
  5
8282
  8
0
 10
3148.3292345912718702
 20
196.6374799286830068
 30
0.0
 11
3148.3292345912718702
 21
196.6706461648037987
 31
0.0
  0
LINE
  5
8283
  8
0
 10
3148.3286946075718333
 20
196.6709351819710889
 30
0.0
 11
3148.3602175723722212
 21
196.6540630467711139
 31
0.0
  0
LINE
  5
8284
  8
0
 10
3148.3351506769718071
 20
196.6350467239711008
 30
0.0
 11
3148.3707432604719543
 21
196.6350467239711008
 31
0.0
  0
LINE
  5
8285
  8
0
 10
3148.3631756152722119
 20
196.6350467239711008
 30
0.0
 11
3148.3631756152722119
 21
196.6200468484711052
 31
0.0
  0
LINE
  5
8286
  8
0
 10
3148.3631756152722119
 20
196.6200468484711052
 30
0.0
 11
3148.3809719068372033
 21
196.629572013399013
 31
0.0
  0
LINE
  5
8287
  8
0
 10
3148.3877910045721364
 20
196.6283554110711123
 30
0.0
 11
3148.3699947128720851
 21
196.6188302460710986
 31
0.0
  0
LINE
  5
8288
  8
0
 10
3148.3670366699720944
 20
196.6172470035710944
 30
0.0
 11
3148.3355137052722057
 21
196.6003748682711034
 31
0.0
  0
LINE
  5
8289
  8
0
 10
3148.3602175723722212
 20
196.6184636058711135
 30
0.0
 11
3148.3286946075718333
 21
196.6015914706711101
 31
0.0
  0
LINE
  5
828A
  8
0
 10
3148.3286946075718333
 20
196.6015914706711101
 30
0.0
 11
3148.3286946075718333
 21
196.6350467239711008
 31
0.0
  0
LINE
  5
828B
  8
0
 10
3148.3292345912718702
 20
196.6350467239711008
 30
0.0
 11
3148.2661886617720484
 21
196.6350467239711008
 31
0.0
  0
LINE
  5
828C
  8
0
 10
3148.3257405916388052
 20
196.6000103834533945
 30
0.0
 11
3148.2971890432718283
 21
196.5847286487710903
 31
0.0
  0
LINE
  5
828D
  8
0
 10
3148.2971890432718283
 20
196.5847286487710903
 30
0.0
 11
3148.2971890432718283
 21
196.6073171705982077
 31
0.0
  0
LINE
  5
828E
  8
0
 10
3148.2807026636719456
 20
196.6139278686711975
 30
0.0
 11
3148.2312499311719876
 21
196.6051049549710967
 31
0.0
  0
LINE
  5
828F
  8
0
 10
3148.2273129232721658
 20
196.6072121720710868
 30
0.0
 11
3148.2767656557730334
 21
196.6160350856712
 31
0.0
  0
LINE
  5
8290
  8
0
 10
3148.2273129232721658
 20
196.6072121720710868
 30
0.0
 11
3148.2273129232721658
 21
196.6350467239711008
 31
0.0
  0
LINE
  5
8291
  8
0
 10
3148.2602806299719305
 20
196.6350467239711008
 30
0.0
 11
3148.2031775331720382
 21
196.6350467239711008
 31
0.0
  0
LINE
  5
8292
  8
0
 10
3148.2031775331720382
 20
196.6374799286710982
 30
0.0
 11
3148.2602806299719305
 21
196.6374799296532956
 31
0.0
  0
LINE
  5
8293
  8
0
 10
3148.2602806299719305
 20
196.6374799296532956
 30
0.0
 11
3148.2602806299719305
 21
196.6594326776564969
 31
0.0
  0
LINE
  5
8294
  8
0
 10
3148.2273129232721658
 20
196.6653144806710998
 30
0.0
 11
3148.2767656557730334
 21
196.6564915669711979
 31
0.0
  0
LINE
  5
8295
  8
0
 10
3148.2312499311719876
 20
196.6674216976711023
 30
0.0
 11
3148.2807026636719456
 21
196.6585987840711027
 31
0.0
  0
LINE
  5
8296
  8
0
 10
3148.2807026636719456
 20
196.6585987840711027
 30
0.0
 11
3148.2807026636719456
 21
196.684504821971899
 31
0.0
  0
LINE
  5
8297
  8
0
 10
3148.2971890432718283
 20
196.6877980039710963
 30
0.0
 11
3148.3257405916388052
 21
196.6725162691888897
 31
0.0
  0
LINE
  5
8298
  8
0
 10
3148.2942357023721343
 20
196.6893787298710947
 30
0.0
 11
3148.2656881220718788
 21
196.7046583407710898
 31
0.0
  0
LINE
  5
8299
  8
0
 10
3148.2725072196722067
 20
196.7058749430711089
 30
0.0
 11
3148.3010548000720519
 21
196.6905953321711138
 31
0.0
  0
LINE
  5
829A
  8
0
 10
3148.3010548000720519
 20
196.6905953321711138
 30
0.0
 11
3148.3010548000720519
 21
196.7101058191854008
 31
0.0
  0
LINE
  5
829B
  8
0
 10
3148.3237023503720593
 20
196.7125698450711013
 30
0.0
 11
3148.338486307472067
 21
196.6955199932710912
 31
0.0
  0
LINE
  5
829C
  8
0
 10
3148.2213279797729228
 20
196.6943051265710949
 30
0.0
 11
3148.2617185017720658
 21
196.6818237688711974
 31
0.0
  0
LINE
  5
829D
  8
0
 10
3148.2617185017720658
 20
196.6818237688711974
 30
0.0
 11
3148.2617185017720658
 21
196.7039195408391947
 31
0.0
  0
LINE
  5
829E
  8
0
 10
3148.1766887350718207
 20
196.6771560176711091
 30
0.0
 11
3148.2261345946722031
 21
196.6683343302711933
 31
0.0
  0
LINE
  5
829F
  8
0
 10
3148.2261345946722031
 20
196.6683343302711933
 30
0.0
 11
3148.2261345946722031
 21
196.6859376588147938
 31
0.0
  0
LINE
  5
82A0
  8
0
 10
3148.2101924398730262
 20
196.6908640555710974
 30
0.0
 11
3148.2505829618698954
 21
196.6783826978719105
 31
0.0
  0
LINE
  5
82A1
  8
0
 10
3148.1727517271719989
 20
196.6750488006711066
 30
0.0
 11
3148.222197586747825
 21
196.6662271131754096
 31
0.0
  0
LINE
  5
82A2
  8
0
 10
3148.151086569472227
 20
196.6592286352710914
 30
0.0
 11
3148.2062610486718768
 21
196.6546601412711084
 31
0.0
  0
LINE
  5
82A3
  8
0
 10
3148.2062610486718768
 20
196.6546601412711084
 30
0.0
 11
3148.2062610486718768
 21
196.6690703675710949
 31
0.0
  0
LINE
  5
82A4
  8
0
 10
3148.1401756905720504
 20
196.6374799286710982
 30
0.0
 11
3148.197270851373105
 21
196.6374799286735993
 31
0.0
  0
LINE
  5
82A5
  8
0
 10
3148.197270851373105
 20
196.6374799286735993
 30
0.0
 11
3148.197270851373105
 21
196.650366459571103
 31
0.0
  0
LINE
  5
82A6
  8
0
 10
3148.2021851581439478
 20
196.6499595507733886
 30
0.0
 11
3148.1470106789720376
 21
196.6545280447710979
 31
0.0
  0
LINE
  5
82A7
  8
0
 10
3148.1401756905720504
 20
196.6350467239711008
 30
0.0
 11
3148.197270851373105
 21
196.6350467239711008
 31
0.0
  0
LINE
  5
82A8
  8
0
 10
3148.2021851581439478
 20
196.6225671018688956
 30
0.0
 11
3148.1470106789720376
 21
196.6179986078711863
 31
0.0
  0
LINE
  5
82A9
  8
0
 10
3148.1470106789720376
 20
196.6179986078711863
 30
0.0
 11
3148.1470106789720376
 21
196.6350467239711008
 31
0.0
  0
LINE
  5
82AA
  8
0
 10
3148.222197586747825
 20
196.6062995394667894
 30
0.0
 11
3148.1727517271719989
 21
196.5974778519710924
 31
0.0
  0
LINE
  5
82AB
  8
0
 10
3148.1727517271719989
 20
196.5974778519710924
 30
0.0
 11
3148.1727517271719989
 21
196.6150919109711026
 31
0.0
  0
LINE
  5
82AC
  8
0
 10
3148.2062610486718768
 20
196.6178665113710906
 30
0.0
 11
3148.151086569472227
 21
196.6132980173711076
 31
0.0
  0
LINE
  5
82AD
  8
0
 10
3148.1766887350718207
 20
196.5953706349710899
 30
0.0
 11
3148.2261345946722031
 21
196.604192322471107
 31
0.0
  0
LINE
  5
82AE
  8
0
 10
3148.2505829618721691
 20
196.5941439548711003
 30
0.0
 11
3148.2101924398730262
 21
196.5816625970711016
 31
0.0
  0
LINE
  5
82AF
  8
0
 10
3148.2101924398730262
 20
196.5816625970711016
 30
0.0
 11
3148.2101924398730262
 21
196.6013480659711092
 31
0.0
  0
LINE
  5
82B0
  8
0
 10
3148.2213279797729228
 20
196.5782215260711041
 30
0.0
 11
3148.2617185017720658
 21
196.5907028837710868
 31
0.0
  0
LINE
  5
82B1
  8
0
 10
3148.2942357023721343
 20
196.5831479227711043
 30
0.0
 11
3148.2656881220718788
 21
196.5678683118711092
 31
0.0
  0
LINE
  5
82B2
  8
0
 10
3148.2656881220718788
 20
196.5678683118711092
 30
0.0
 11
3148.2656881220718788
 21
196.5896076881986119
 31
0.0
  0
LINE
  5
82B3
  8
0
 10
3148.3010548000720519
 20
196.5819313204711136
 30
0.0
 11
3148.2725072196722067
 21
196.5666517095710901
 31
0.0
  0
LINE
  5
82B4
  8
0
 10
3148.3237023503720593
 20
196.5786200907257069
 30
0.0
 11
3148.3237023503720593
 21
196.5599568076711137
 31
0.0
  0
LINE
  5
82B5
  8
0
 10
3148.3237023503720593
 20
196.5599568076711137
 30
0.0
 11
3148.338486307472067
 21
196.5770066593711078
 31
0.0
  0
LINE
  5
82B6
  8
0
 10
3148.3536977378721531
 20
196.5757471398711971
 30
0.0
 11
3148.3389137807180305
 21
196.5586972882229873
 31
0.0
  0
LINE
  5
82B7
  8
0
 10
3148.3940826432722133
 20
196.5936996279710911
 30
0.0
 11
3148.3939693312740928
 21
196.5760545182623105
 31
0.0
  0
LINE
  5
82B8
  8
0
 10
3148.3940826432722133
 20
196.574228535571109
 30
0.0
 11
3148.3940073894568741
 21
196.5565854781428925
 31
0.0
  0
LINE
  5
82B9
  8
0
 10
3148.3040081409722006
 20
196.5835120463711121
 30
0.0
 11
3148.3325596893719194
 21
196.5987937811711106
 31
0.0
  0
ARC
  5
82BA
  8
0
 10
3148.0150018683689268
 20
196.7366869589733938
 30
0.0
 40
0.0500672452224775
 50
181.3725045406187917
 51
221.2997142734523095
  0
ARC
  5
82BB
  8
0
 10
3148.1294961151020289
 20
196.8539609353437072
 30
0.0
 40
0.2138514973282619
 50
224.6609041224978967
 51
251.5514882498223983
  0
ARC
  5
82BC
  8
0
 10
3148.0432074152968198
 20
196.7226805655016051
 30
0.0
 40
0.07929946344561
 50
115.9303293373455972
 51
170.7058096426650025
  0
LINE
  5
82BD
  8
0
 10
3147.9647991002830167
 20
196.7731923370724019
 30
0.0
 11
3147.9649489874718711
 21
196.7354877266710957
 31
0.0
  0
ARC
  5
82BE
  8
0
 10
3147.9966785483679814
 20
196.6939671065134974
 30
0.0
 40
0.0848786842328108
 50
135.2722595707718085
 51
151.7324747300575893
  0
ARC
  5
82BF
  8
0
 10
3147.9641474828240462
 20
196.7104862758027934
 30
0.0
 40
0.0484113717057447
 50
150.7179486916164137
 51
204.7333590160428969
  0
ARC
  5
82C0
  8
0
 10
3148.3111495930911587
 20
197.4446651803837938
 30
0.0
 40
0.8771171315098479
 50
252.1356086969005048
 51
262.6531230217620987
  0
ARC
  5
82C1
  8
0
 10
3148.1412164827879678
 20
196.9284612936831138
 30
0.0
 40
0.333689519590313
 50
235.7658987721943049
 51
252.717087231307687
  0
ARC
  5
82C2
  8
0
 10
3148.0101485307241092
 20
196.7362851171492935
 30
0.0
 40
0.1010733321740671
 50
207.1067003790736862
 51
235.9055052420401921
  0
ARC
  5
82C3
  8
0
 10
3148.2544748532741323
 20
197.1657533996126119
 30
0.0
 40
0.5495302810955093
 50
249.4774039803371011
 51
254.4401685137019058
  0
ARC
  5
82C4
  8
0
 10
3148.1762099017450964
 20
197.0569191507613027
 30
0.0
 40
0.4216325701835349
 50
241.3398920432765067
 51
254.2585480858963081
  0
ARC
  5
82C5
  8
0
 10
3148.0357702063051875
 20
196.8092300017322884
 30
0.0
 40
0.1370054682185473
 50
213.538828985843594
 51
243.1962803733962062
  0
LINE
  5
82C6
  8
0
 10
3147.1054291354239467
 20
198.2134587403309069
 30
0.0
 11
3147.7665103754970914
 21
197.9986547874397047
 31
0.0
  0
LINE
  5
82C7
  8
0
 10
3147.5991106319479513
 20
196.6938666934568971
 30
0.0
 11
3147.764264239971908
 21
196.9221664383101995
 31
0.0
  0
ARC
  5
82C8
  8
0
 10
3148.3966853575288951
 20
199.1187639648279912
 30
0.0
 40
0.0339109172083451
 50
69.7925487892704552
 51
87.9757326475270105
  0
ARC
  5
82C9
  8
0
 10
3147.5901571068070552
 20
196.6619783009722937
 30
0.0
 40
2.6126487811788319
 50
36.6869525219362629
 51
49.5018318893472866
  0
ARC
  5
82CA
  8
0
 10
3147.4696811029330092
 20
196.4366262686037032
 30
0.0
 40
2.8717202455915372
 50
68.2079114393424248
 51
70.9202786901524433
  0
ARC
  5
82CB
  8
0
 10
3147.5441240739719433
 20
196.6112062827046998
 30
0.0
 40
2.6819835118262279
 50
60.6557149401300677
 51
68.3000305215394832
  0
ARC
  5
82CC
  8
0
 10
3147.6118827540949496
 20
196.7152711289431863
 30
0.0
 40
2.5580782956922241
 50
49.0966745364615917
 51
60.8363992079042788
  0
ARC
  5
82CD
  8
0
 10
3149.6628770663619434
 20
198.2045063818162021
 30
0.0
 40
0.0289703811187669
 50
356.6228917793735036
 51
39.3771848111852592
  0
ARC
  5
82CE
  8
0
 10
3146.8926124488712048
 20
198.2532061940623009
 30
0.0
 40
2.7996385002221271
 50
348.1515939502825745
 51
358.9683563659745005
  0
ARC
  5
82CF
  8
0
 10
3147.0307654946900584
 20
198.2377065105046938
 30
0.0
 40
2.6612869319683892
 50
324.7497168858342889
 51
329.1350676633127819
  0
ARC
  5
82D0
  8
0
 10
3147.0819458278338061
 20
198.2099075954525915
 30
0.0
 40
2.6030946194034841
 50
329.0823670880574809
 51
339.8548606085129222
  0
ARC
  5
82D1
  8
0
 10
3146.9043872617539819
 20
198.2786861752938137
 30
0.0
 40
2.793480120658407
 50
339.7847174739399065
 51
347.5905243249392242
  0
ARC
  5
82D2
  8
0
 10
3149.1802948945669414
 20
196.7165124753267946
 30
0.0
 40
0.0279917348588572
 50
283.8367839450586985
 51
328.1632671270282913
  0
ARC
  5
82D3
  8
0
 10
3148.4158959129358664
 20
199.1651946027052986
 30
0.0
 40
2.5931593729991129
 50
280.1151326258582799
 51
287.2989113051683034
  0
ARC
  5
82D4
  8
0
 10
3148.3978401565750573
 20
198.4184821789386888
 30
0.0
 40
0.038994737307304
 50
73.4178085132007965
 51
89.9367768044815534
  0
ARC
  5
82D5
  8
0
 10
3148.0823965533509181
 20
197.3592178834445008
 30
0.0
 40
1.144230239138919
 50
34.5731514129067889
 51
73.4167687390555983
  0
ARC
  5
82D6
  8
0
 10
3148.9918263155841487
 20
197.9865331780924009
 30
0.0
 40
0.0394313578359266
 50
1.9158934132584611
 51
33.8905827099126711
  0
LINE
  5
82D7
  8
0
 10
3149.0315944252761255
 20
196.8192259490485867
 30
0.0
 11
3149.0315944255730756
 21
197.9592407400710954
 31
0.0
  0
ARC
  5
82D8
  8
0
 10
3101.4789464391210458
 20
197.3772105957382905
 30
0.0
 40
47.5562097902287988
 50
0.7012481343722853
 51
0.7357210799713068
  0
ARC
  5
82D9
  8
0
 10
3148.8803209072370919
 20
196.8214904734751087
 30
0.0
 40
0.1512904667548862
 50
324.9956808512091015
 51
359.1423614431524811
  0
ARC
  5
82DA
  8
0
 10
3148.6821720775928952
 20
196.9676898442812956
 30
0.0
 40
0.3975080738547554
 50
306.9932550029946015
 51
324.1182163795272118
  0
ARC
  5
82DB
  8
0
 10
3148.7403465544630308
 20
196.6012186769696086
 30
0.0
 40
0.0500384136051699
 50
275.4642001063306793
 51
291.637604325485313
  0
ARC
  5
82DC
  8
0
 10
3148.5021539873869187
 20
197.1944438513376952
 30
0.0
 40
0.6892968048111625
 50
291.8591702880418097
 51
302.3829069667025919
  0
ARC
  5
82DD
  8
0
 10
3148.6959963898589194
 20
196.8960779673431887
 30
0.0
 40
0.333536156357116
 50
301.7128942046870748
 51
312.5071960338398753
  0
ARC
  5
82DE
  8
0
 10
3148.4003272802078754
 20
199.903199940390607
 30
0.0
 40
3.3694788458608702
 50
269.9584397663271034
 51
275.8731076929896062
  0
ARC
  5
82DF
  8
0
 10
3148.24275323931397
 20
194.7937251764498114
 30
0.0
 40
2.164266770665682
 50
68.6376626790895017
 51
85.6338218969757321
  0
ARC
  5
82E0
  8
0
 10
3148.2425340546042207
 20
194.8720854611094921
 30
0.0
 40
2.0178848698865042
 50
67.7255775768044685
 51
85.4751391180263482
  0
LINE
  5
82E1
  8
0
 10
3148.4073845130728841
 20
196.9517109549711051
 30
0.0
 11
3148.3883818577728562
 21
196.95171074592389
 31
0.0
  0
ARC
  5
82E2
  8
0
 10
3148.3986480532198584
 20
195.3061727242516099
 30
0.0
 40
1.546942785983271
 50
85.2199826486899923
 51
90.028329230299164
  0
ARC
  5
82E3
  8
0
 10
3148.527707186779935
 20
196.1138947312290952
 30
0.0
 40
0.7279959058167683
 50
69.1160676863661223
 51
79.7024394812709289
  0
ARC
  5
82E4
  8
0
 10
3148.4272317583890981
 20
195.6119846284219079
 30
0.0
 40
1.239816244059962
 50
79.2802592494022491
 51
85.3586634331653755
  0
ARC
  5
82E5
  8
0
 10
3148.662797310876158
 20
196.4762555245696944
 30
0.0
 40
0.3412970214784897
 50
60.4615009972144435
 51
68.6195464718349797
  0
ARC
  5
82E6
  8
0
 10
3148.7603088477449091
 20
196.6395583520460093
 30
0.0
 40
0.1512074931446999
 50
39.4988400937289796
 51
62.1016192634269402
  0
ARC
  5
82E7
  8
0
 10
3148.8304464348912006
 20
196.6985510649072069
 30
0.0
 40
0.0595705823672975
 50
2.39459784911852
 51
38.6244301918799877
  0
ARC
  5
82E8
  8
0
 10
3148.8313201414030118
 20
196.7026564369978132
 30
0.0
 40
0.058667129804303
 50
314.4567478389329835
 51
358.4211576134158008
  0
ARC
  5
82E9
  8
0
 10
3148.3982873667910098
 20
198.1124088145768098
 30
0.0
 40
1.5634441564257231
 50
269.9851879027846167
 51
273.6435885667307844
  0
ARC
  5
82EA
  8
0
 10
3148.4228131008831042
 20
197.8134099700774868
 30
0.0
 40
1.2635029439211729
 50
273.3953208592652118
 51
281.152374866209982
  0
ARC
  5
82EB
  8
0
 10
3148.719937745569041
 20
196.8117121956088909
 30
0.0
 40
0.2145405701371694
 50
288.1669295955011876
 51
315.2908150459381886
  0
ARC
  5
82EC
  8
0
 10
3148.5329139745858811
 20
197.2717728805639013
 30
0.0
 40
0.7108058655543357
 50
280.889683783804287
 51
290.9296132901247915
  0
ARC
  5
82ED
  8
0
 10
3148.3980072253361868
 20
195.6786582710965092
 30
0.0
 40
1.17021679658399
 50
86.1619955499337067
 51
90.0060732024558234
  0
ARC
  5
82EE
  8
0
 10
3148.4171924292891163
 20
195.9148377585439107
 30
0.0
 40
0.9332887684777876
 50
78.0045183484278795
 51
86.3666333735811236
  0
ARC
  5
82EF
  8
0
 10
3148.5538855181521285
 20
196.4987986921169068
 30
0.0
 40
0.3338978045766885
 50
55.520980512244563
 51
80.1226759734414458
  0
ARC
  5
82F0
  8
0
 10
3148.7270827828069741
 20
196.7356623689952073
 30
0.0
 40
0.0376469372148675
 50
338.5411430689408121
 51
34.381186102172002
  0
ARC
  5
82F1
  8
0
 10
3148.6948657619450387
 20
196.7159113349233905
 30
0.0
 40
0.0754126874365312
 50
32.943323340459699
 51
50.4286648800018966
  0
ARC
  5
82F2
  8
0
 10
3148.200291115285836
 20
196.9415031090096875
 30
0.0
 40
0.6032260999168316
 50
335.3777550697706147
 51
338.6499757616458055
  0
ARC
  5
82F3
  8
0
 10
3148.6546462946289466
 20
196.7495390136629965
 30
0.0
 40
0.1111927277109439
 50
291.4823985031264897
 51
327.7340264633762104
  0
ARC
  5
82F4
  8
0
 10
3148.4012595045701346
 20
195.7825520219282964
 30
0.0
 40
1.032480896036736
 50
79.995524564651646
 51
90.1873634494374272
  0
ARC
  5
82F5
  8
0
 10
3148.5012144009951953
 20
196.3278723955284875
 30
0.0
 40
0.4781021987543585
 50
65.3421262702320718
 51
80.4388368471600899
  0
ARC
  5
82F6
  8
0
 10
3148.6506137211708847
 20
196.6526975958317109
 30
0.0
 40
0.1205671650400842
 50
39.4215884512951931
 51
65.4655041900580272
  0
ARC
  5
82F7
  8
0
 10
3148.7086712251871177
 20
196.7031319790820021
 30
0.0
 40
0.0437412262709412
 50
8.8322769163994082
 51
36.6796091926387504
  0
ARC
  5
82F8
  8
0
 10
3148.7167625585379938
 20
196.7055095606133932
 30
0.0
 40
0.0353980942910913
 50
334.3357228578560125
 51
7.0401414843413868
  0
ARC
  5
82F9
  8
0
 10
3148.6879251441318956
 20
196.7056048376319097
 30
0.0
 40
0.0327114023273954
 50
341.8954255629777776
 51
29.4357424427991887
  0
ARC
  5
82FA
  8
0
 10
3148.4005250715608781
 20
195.855348888085814
 30
0.0
 40
0.9499493640197554
 50
80.4794990307972
 51
90.1593444098528494
  0
ARC
  5
82FB
  8
0
 10
3148.4896586232348454
 20
196.3558802117794073
 30
0.0
 40
0.4415990393313534
 50
65.2205451630043171
 51
81.1435209012182241
  0
ARC
  5
82FC
  8
0
 10
3148.6557995598391244
 20
196.6861410545726017
 30
0.0
 40
0.0702648596460371
 50
30.3842288879499414
 51
54.7674827043389172
  0
ARC
  5
82FD
  8
0
 10
3148.6062408574698566
 20
196.6213082662337115
 30
0.0
 40
0.1518428531595595
 50
53.6057188848334789
 51
63.1826184723646875
  0
ARC
  5
82FE
  8
0
 10
3148.5158427687638323
 20
196.7624214565981049
 30
0.0
 40
0.2139306876275585
 50
327.0524776642561164
 51
341.7538311772156021
  0
ARC
  5
82FF
  8
0
 10
3148.4423691386250539
 20
197.0939988173103927
 30
0.0
 40
0.5417483430311114
 50
277.2977832791772244
 51
286.5703203279809941
  0
ARC
  5
8300
  8
0
 10
3148.3888656153440024
 20
197.5635340508603122
 30
0.0
 40
1.0142976897557789
 50
270.5093923793372142
 51
276.9264739447863235
  0
ARC
  5
8301
  8
0
 10
3148.5233843083137799
 20
196.7553377256172951
 30
0.0
 40
0.2037577611635956
 50
314.8727231198349727
 51
327.5706791583198765
  0
ARC
  5
8302
  8
0
 10
3148.5495744081581506
 20
196.7529033133949952
 30
0.0
 40
0.1843256529971545
 50
284.8680958742201028
 51
309.6300170211299019
  0
ARC
  5
8303
  8
0
 10
3148.4004415084550601
 20
195.9026933634270051
 30
0.0
 40
0.8205610137210868
 50
79.8771624039387831
 51
90.1786355279142242
  0
ARC
  5
8304
  8
0
 10
3148.4729402942998604
 20
196.3061135557929049
 30
0.0
 40
0.4106787224168622
 50
68.0727521683473782
 51
79.9420969916713915
  0
ARC
  5
8305
  8
0
 10
3148.5783646015888735
 20
196.5650841032779113
 30
0.0
 40
0.1310784685633076
 50
46.9876350460781183
 51
68.5495028251648506
  0
ARC
  5
8306
  8
0
 10
3148.6470757635429436
 20
196.6361947854919094
 30
0.0
 40
0.0322567428693188
 50
308.4689887264556774
 51
50.0681585863918812
  0
ARC
  5
8307
  8
0
 10
3148.3980193744719145
 20
195.8962550996710092
 30
0.0
 40
0.8196950007001607
 50
85.8776158052563119
 51
89.737413525901772
  0
ARC
  5
8308
  8
0
 10
3148.3982491218030191
 20
196.0667597376381082
 30
0.0
 40
0.631548227551784
 50
86.0129841468530572
 51
89.6800282968334557
  0
ARC
  5
8309
  8
0
 10
3148.4001535275888273
 20
196.1292260397883922
 30
0.0
 40
0.5672491325868224
 50
80.697198659226089
 51
89.8361174675614933
  0
ARC
  5
830A
  8
0
 10
3148.3995111503131739
 20
196.2774151119901092
 30
0.0
 40
0.4014183021328791
 50
80.8565906326773671
 51
89.6767255198573849
  0
ARC
  5
830B
  8
0
 10
3148.4114354889038623
 20
196.0491557731234025
 30
0.0
 40
0.6661870980445086
 50
80.3287480799958473
 51
84.7704145692200512
  0
ARC
  5
830C
  8
0
 10
3148.4086038039517916
 20
196.1801209720015038
 30
0.0
 40
0.5177011908394946
 50
80.4153006299409299
 51
84.5946007984789077
  0
ARC
  5
830D
  8
0
 10
3148.4568843542037939
 20
196.4356981591272131
 30
0.0
 40
0.2555393128224905
 50
65.0670749715410466
 51
80.5888492209662957
  0
ARC
  5
830E
  8
0
 10
3148.4482358477657726
 20
196.2533839534044091
 30
0.0
 40
0.4586522288767603
 50
74.0164842308107751
 51
79.7093115519521405
  0
ARC
  5
830F
  8
0
 10
3148.4369788344220069
 20
196.3373889595133903
 30
0.0
 40
0.3578766013844196
 50
74.2468155275652038
 51
79.5933993775568354
  0
ARC
  5
8310
  8
0
 10
3148.4898338699058513
 20
196.5087224552227951
 30
0.0
 40
0.178489200980946
 50
63.4107555353682102
 51
71.9035641901418217
  0
ARC
  5
8311
  8
0
 10
3148.5152821339429465
 20
196.4710417788105019
 30
0.0
 40
0.2308154105096803
 50
63.250517019934847
 51
72.2456437737453996
  0
ARC
  5
8312
  8
0
 10
3148.578775408940146
 20
196.591593420238695
 30
0.0
 40
0.0944991271120263
 50
45.7024971385534329
 51
62.0227431030326883
  0
ARC
  5
8313
  8
0
 10
3148.5384411193531378
 20
196.6009405124270017
 30
0.0
 40
0.0741807642060573
 50
46.4000077292903086
 51
61.6546079331133186
  0
ARC
  5
8314
  8
0
 10
3148.5749276149308571
 20
196.6353702663975866
 30
0.0
 40
0.0237540670837522
 50
5.0953049282296083
 51
37.8923967753189572
  0
ARC
  5
8315
  8
0
 10
3148.6249796946399329
 20
196.6350644770060114
 30
0.0
 40
0.0307981465338548
 50
4.4982401379037276
 51
39.1957670460053507
  0
ARC
  5
8316
  8
0
 10
3148.6249796949359734
 20
196.6374621755172996
 30
0.0
 40
0.0307981462289325
 50
320.8042327767876145
 51
355.5017600393096018
  0
ARC
  5
8317
  8
0
 10
3148.5749276153778737
 20
196.6371563861127072
 30
0.0
 40
0.023754066627809
 50
322.1076027791904721
 51
354.904695299246896
  0
ARC
  5
8318
  8
0
 10
3148.5787754084540211
 20
196.6809332330689131
 30
0.0
 40
0.0944991279276344
 50
297.977256967866424
 51
314.2975027905339971
  0
ARC
  5
8319
  8
0
 10
3148.5384411215668479
 20
196.6715861363487932
 30
0.0
 40
0.0741807597675118
 50
298.3453919950060254
 51
313.5999931746803213
  0
ARC
  5
831A
  8
0
 10
3148.4898338827370026
 20
196.7638041662731041
 30
0.0
 40
0.178489167296248
 50
288.0964350111549948
 51
296.5892452709326221
  0
ARC
  5
831B
  8
0
 10
3148.5152821279161799
 20
196.8014848885626122
 30
0.0
 40
0.2308154263767213
 50
287.7543565360588786
 51
296.749482670255702
  0
ARC
  5
831C
  8
0
 10
3148.4482358477448543
 20
197.0191426993278867
 30
0.0
 40
0.4586522289690797
 50
280.2906884486301919
 51
285.9835157686197249
  0
ARC
  5
831D
  8
0
 10
3148.4369903397300732
 20
196.9350881732931953
 30
0.0
 40
0.3578258178927372
 50
280.4062209468870037
 51
285.7535641480112076
  0
ARC
  5
831E
  8
0
 10
3148.408609971299029
 20
197.0923588036910985
 30
0.0
 40
0.5176539413730284
 50
275.4052083816342247
 51
279.5848901899282737
  0
ARC
  5
831F
  8
0
 10
3148.3979822678279561
 20
197.2128634886927898
 30
0.0
 40
0.6386462212536343
 50
270.3403565062030225
 51
273.9666309854775932
  0
ARC
  5
8320
  8
0
 10
3148.4114260332657977
 20
197.2234431955832008
 30
0.0
 40
0.6662599748483499
 50
275.2298283620349935
 51
279.6710087686694237
  0
ARC
  5
8321
  8
0
 10
3148.3983971121688228
 20
197.3664050490307034
 30
0.0
 40
0.8098269374633558
 50
270.2390607711029133
 51
274.1459097864382102
  0
ARC
  5
8322
  8
0
 10
3148.3983954668751721
 20
196.8195814311681033
 30
0.0
 40
0.2046093698724869
 50
269.8565481347869763
 51
278.551913026059708
  0
ARC
  5
8323
  8
0
 10
3148.3990860492190222
 20
196.9832224075643978
 30
0.0
 40
0.3877175421958158
 50
269.8222439743461223
 51
279.0907591561058894
  0
ARC
  5
8324
  8
0
 10
3148.3995111510507741
 20
196.9951115239529997
 30
0.0
 40
0.401418285429841
 50
270.3232743881927149
 51
279.1434096442641817
  0
ARC
  5
8325
  8
0
 10
3148.4001609047768397
 20
197.1432406898557019
 30
0.0
 40
0.5671888051745234
 50
270.174601239550384
 51
279.3030444399919929
  0
ARC
  5
8326
  8
0
 10
3148.4397442436411438
 20
196.7781338027307072
 30
0.0
 40
0.1806945545942298
 50
279.6770700453445215
 51
294.6670058520729185
  0
ARC
  5
8327
  8
0
 10
3148.4568843557572109
 20
196.836828489726912
 30
0.0
 40
0.2555393087328117
 50
279.4111505780761036
 51
294.9329250707567098
  0
ARC
  5
8328
  8
0
 10
3148.5074168710748381
 20
196.6428124034842995
 30
0.0
 40
0.029212274203574
 50
293.5594097471943087
 51
344.5833550738784083
  0
ARC
  5
8329
  8
0
 10
3148.507416870239922
 20
196.6297142484345954
 30
0.0
 40
0.0292122752001714
 50
15.4166458589565991
 51
66.4405893199731423
  0
ARC
  5
832A
  8
0
 10
3148.5525303143099336
 20
196.6270462781990034
 30
0.0
 40
0.0414843253925538
 50
14.5667811666572007
 51
67.2904538836322388
  0
ARC
  5
832B
  8
0
 10
3148.5525340500689708
 20
196.6454771352971989
 30
0.0
 40
0.0414798951048681
 50
292.7065133587939272
 51
345.4362513871489
  0
ARC
  5
832C
  8
0
 10
3148.4397442421518463
 20
196.4943928439145964
 30
0.0
 40
0.1806945607561547
 50
65.33299452584275
 51
80.322929809019044
  0
ARC
  5
832D
  8
0
 10
3148.5051313655089871
 20
196.631363450759892
 30
0.0
 40
0.025289445819424
 50
13.9962810010895407
 51
61.1672449008162999
  0
ARC
  5
832E
  8
0
 10
3148.428786998805208
 20
196.4634869248540099
 30
0.0
 40
0.2109681920367975
 50
70.8318869496267212
 51
79.5190137647966395
  0
ARC
  5
832F
  8
0
 10
3148.4682131630879667
 20
196.5758117516251104
 30
0.0
 40
0.0919262139983735
 50
57.7050400642645585
 51
71.0559566759650352
  0
ARC
  5
8330
  8
0
 10
3148.5099544809017971
 20
196.638458666435298
 30
0.0
 40
0.0200085779960585
 50
305.9778852268190121
 51
350.1817139308287778
  0
ARC
  5
8331
  8
0
 10
3148.4311608025468558
 20
196.7997438356921975
 30
0.0
 40
0.2013966091191757
 50
280.2980035850895888
 51
289.7892751382091774
  0
ARC
  5
8332
  8
0
 10
3148.4746294326641873
 20
196.6830083177399047
 30
0.0
 40
0.0768505677867186
 50
288.7608357813340945
 51
307.7785765439323882
  0
ARC
  5
8333
  8
0
 10
3148.3983974260117975
 20
196.4529627989813036
 30
0.0
 40
0.2045916964667858
 50
81.447897516235372
 51
90.1440129143977629
  0
ARC
  5
8334
  8
0
 10
3148.3987263622630053
 20
196.2846548586929032
 30
0.0
 40
0.3923655426140313
 50
80.9646474788189892
 51
90.1231262845624599
  0
ARC
  5
8335
  8
0
 10
3148.454957246988215
 20
196.6341773306623111
 30
0.0
 40
0.0121252634014218
 50
15.8055410356765105
 51
56.2493695859741365
  0
ARC
  5
8336
  8
0
 10
3148.4366853181609258
 20
196.6090890656184911
 30
0.0
 40
0.0431549678708495
 50
54.584337970232049
 51
70.2516699898381205
  0
ARC
  5
8337
  8
0
 10
3148.4169798975522099
 20
196.5569414069034906
 30
0.0
 40
0.0988981959014035
 50
69.7150022536219325
 51
79.1235999697494208
  0
ARC
  5
8338
  8
0
 10
3148.4499745884268123
 20
196.6343182680514019
 30
0.0
 40
0.0111893689074553
 50
16.4130132838934983
 51
57.847360927734087
  0
ARC
  5
8339
  8
0
 10
3148.4218607927891753
 20
196.5880808176322887
 30
0.0
 40
0.0653019963267919
 50
58.5531686470878086
 51
80.4605713665496012
  0
ARC
  5
833A
  8
0
 10
3148.4124957460530823
 20
196.6261947296841015
 30
0.0
 40
0.0169296045419631
 50
41.804848075738569
 51
81.8808202220236439
  0
ARC
  5
833B
  8
0
 10
3148.3979742771239216
 20
196.5607590598432921
 30
0.0
 40
0.08402064304748
 50
83.1004056859326283
 51
90.062117723070358
  0
ARC
  5
833C
  8
0
 10
3148.3983331575409466
 20
196.468309658951199
 30
0.0
 40
0.1874198251884151
 50
81.553044320076296
 51
90.1375603034501722
  0
ARC
  5
833D
  8
0
 10
3148.397979128220868
 20
196.7117058844461042
 30
0.0
 40
0.0839587988533877
 50
269.9345259976025204
 51
276.9013666095102053
  0
ARC
  5
833E
  8
0
 10
3148.398326763373916
 20
196.8042747633753891
 30
0.0
 40
0.187477907478823
 50
269.8644364632003203
 51
278.4462951882483139
  0
ARC
  5
833F
  8
0
 10
3148.4124957460858241
 20
196.6463319228959961
 30
0.0
 40
0.0169296044757108
 50
278.1191796962563103
 51
318.1951520061389829
  0
ARC
  5
8340
  8
0
 10
3148.4452941229051248
 20
196.641421725465193
 30
0.0
 40
0.0166801648333341
 50
288.0144152431715838
 51
337.5305630116066027
  0
ARC
  5
8341
  8
0
 10
3148.4174974502138866
 20
196.7003952162978919
 30
0.0
 40
0.0817707934508104
 50
280.7024912490045949
 51
293.7669969637793201
  0
ARC
  5
8342
  8
0
 10
3148.4548148666931411
 20
196.6383313128484076
 30
0.0
 40
0.0122574837444117
 50
299.9139229033617084
 51
344.4567322779329857
  0
ARC
  5
8343
  8
0
 10
3148.4232740441848364
 20
196.6915056648934126
 30
0.0
 40
0.0740816190891414
 50
279.6098445199339153
 51
300.5487942877422824
  0
LINE
  5
8344
  8
0
 10
3148.4017760223159712
 20
196.7159414920002973
 30
0.0
 11
3148.4017760222718607
 21
196.69829811707109
 31
0.0
  0
LINE
  5
8345
  8
0
 10
3148.4017760222718607
 20
196.6964728519710945
 30
0.0
 11
3148.4017760222718607
 21
196.6788270246711079
 31
0.0
  0
LINE
  5
8346
  8
0
 10
3148.456944884871973
 20
196.713829364471195
 30
0.0
 11
3148.4421609276528216
 21
196.6967795127490035
 31
0.0
  0
LINE
  5
8347
  8
0
 10
3148.4421609276528216
 20
196.6967795127490035
 30
0.0
 11
3148.4421609276719209
 21
196.7147592012711073
 31
0.0
  0
LINE
  5
8348
  8
0
 10
3148.4918505245718734
 20
196.6890146062710869
 30
0.0
 11
3148.4632989761721547
 21
196.6737328715711044
 31
0.0
  0
LINE
  5
8349
  8
0
 10
3148.4632989761721547
 20
196.6737328715711044
 30
0.0
 11
3148.4632989761721547
 21
196.6929495808471131
 31
0.0
  0
LINE
  5
834A
  8
0
 10
3148.4603449602718683
 20
196.6721517843710956
 30
0.0
 11
3148.4288219955719796
 21
196.6552796490711046
 31
0.0
  0
LINE
  5
834B
  8
0
 10
3148.4288219955719796
 20
196.6552796490711046
 30
0.0
 11
3148.4288219955719796
 21
196.6758644845710933
 31
0.0
  0
LINE
  5
834C
  8
0
 10
3148.425863952671989
 20
196.6536964065711004
 30
0.0
 11
3148.4080676609719376
 21
196.6441712415710867
 31
0.0
  0
LINE
  5
834D
  8
0
 10
3148.4080676609719376
 20
196.6441712415710867
 30
0.0
 11
3148.4080676609719376
 21
196.6554666856712004
 31
0.0
  0
LINE
  5
834E
  8
0
 10
3148.4607079885718122
 20
196.6374799286710982
 30
0.0
 11
3148.4251154050721198
 21
196.6374799286710982
 31
0.0
  0
LINE
  5
834F
  8
0
 10
3148.4251154050721198
 20
196.6374799286710982
 30
0.0
 11
3148.4251154050721198
 21
196.6484293497053102
 31
0.0
  0
LINE
  5
8350
  8
0
 10
3148.4326830502718622
 20
196.6524798041710937
 30
0.0
 11
3148.4148867587068708
 21
196.6429546392432997
 31
0.0
  0
LINE
  5
8351
  8
0
 10
3148.5296700037720257
 20
196.6374799286710982
 30
0.0
 11
3148.4666240742722039
 21
196.6374799286830068
 31
0.0
  0
LINE
  5
8352
  8
0
 10
3148.4666240742722039
 20
196.6374799286830068
 30
0.0
 11
3148.4666240742722039
 21
196.6706461648037987
 31
0.0
  0
LINE
  5
8353
  8
0
 10
3148.4671640579731502
 20
196.6709351819710889
 30
0.0
 11
3148.4356410931718528
 21
196.6540630467711139
 31
0.0
  0
LINE
  5
8354
  8
0
 10
3148.4607079885718122
 20
196.6350467239711008
 30
0.0
 11
3148.4251154050721198
 21
196.6350467239711008
 31
0.0
  0
LINE
  5
8355
  8
0
 10
3148.4326830502718622
 20
196.6350467239711008
 30
0.0
 11
3148.4326830502718622
 21
196.6200468484711052
 31
0.0
  0
LINE
  5
8356
  8
0
 10
3148.4326830502718622
 20
196.6200468484711052
 30
0.0
 11
3148.4148867587068708
 21
196.629572013399013
 31
0.0
  0
LINE
  5
8357
  8
0
 10
3148.4080676609719376
 20
196.6283554110711123
 30
0.0
 11
3148.425863952671989
 21
196.6188302460710986
 31
0.0
  0
LINE
  5
8358
  8
0
 10
3148.4288219955719796
 20
196.6172470035710944
 30
0.0
 11
3148.4603449602718683
 21
196.6003748682711034
 31
0.0
  0
LINE
  5
8359
  8
0
 10
3148.4356410931718528
 20
196.6184636058711135
 30
0.0
 11
3148.4671640579731502
 21
196.6015914706711101
 31
0.0
  0
LINE
  5
835A
  8
0
 10
3148.4671640579731502
 20
196.6015914706711101
 30
0.0
 11
3148.4671640579731502
 21
196.6350467239711008
 31
0.0
  0
LINE
  5
835B
  8
0
 10
3148.4666240742722039
 20
196.6350467239711008
 30
0.0
 11
3148.5296700037720257
 21
196.6350467239711008
 31
0.0
  0
LINE
  5
835C
  8
0
 10
3148.4701180739061783
 20
196.6000103834533945
 30
0.0
 11
3148.498669622271791
 21
196.5847286487710903
 31
0.0
  0
LINE
  5
835D
  8
0
 10
3148.498669622271791
 20
196.5847286487710903
 30
0.0
 11
3148.498669622271791
 21
196.6073171705982077
 31
0.0
  0
LINE
  5
835E
  8
0
 10
3148.5151560018721284
 20
196.6139278686711975
 30
0.0
 11
3148.5646087343720865
 21
196.6051049549710967
 31
0.0
  0
LINE
  5
835F
  8
0
 10
3148.5685457422719082
 20
196.6072121720710868
 30
0.0
 11
3148.5190930097719502
 21
196.6160350856712
 31
0.0
  0
LINE
  5
8360
  8
0
 10
3148.5685457422719082
 20
196.6072121720710868
 30
0.0
 11
3148.5685457422719082
 21
196.6350467239711008
 31
0.0
  0
LINE
  5
8361
  8
0
 10
3148.5355780355721436
 20
196.6350467239711008
 30
0.0
 11
3148.5926811323729453
 21
196.6350467239711008
 31
0.0
  0
LINE
  5
8362
  8
0
 10
3148.5926811323729453
 20
196.6374799286710982
 30
0.0
 11
3148.5355780355721436
 21
196.6374799296532956
 31
0.0
  0
LINE
  5
8363
  8
0
 10
3148.5355780355721436
 20
196.6374799296532956
 30
0.0
 11
3148.5355780355721436
 21
196.6594326776564969
 31
0.0
  0
LINE
  5
8364
  8
0
 10
3148.5685457422719082
 20
196.6653144806710998
 30
0.0
 11
3148.5190930097719502
 21
196.6564915669711979
 31
0.0
  0
LINE
  5
8365
  8
0
 10
3148.5646087343720865
 20
196.6674216976711023
 30
0.0
 11
3148.5151560018721284
 21
196.6585987840711027
 31
0.0
  0
LINE
  5
8366
  8
0
 10
3148.5151560018721284
 20
196.6585987840711027
 30
0.0
 11
3148.5151560018721284
 21
196.684504821971899
 31
0.0
  0
LINE
  5
8367
  8
0
 10
3148.498669622271791
 20
196.6877980039710963
 30
0.0
 11
3148.4701180739061783
 21
196.6725162691888897
 31
0.0
  0
LINE
  5
8368
  8
0
 10
3148.5016229631719398
 20
196.6893787298710947
 30
0.0
 11
3148.5301705434721953
 21
196.7046583407710898
 31
0.0
  0
LINE
  5
8369
  8
0
 10
3148.5233514458718673
 20
196.7058749430711089
 30
0.0
 11
3148.4948038654720222
 21
196.6905953321711138
 31
0.0
  0
LINE
  5
836A
  8
0
 10
3148.4948038654720222
 20
196.6905953321711138
 30
0.0
 11
3148.4948038654720222
 21
196.7101058191854008
 31
0.0
  0
LINE
  5
836B
  8
0
 10
3148.4721563151720147
 20
196.7125698450711013
 30
0.0
 11
3148.457372358072007
 21
196.6955199932710912
 31
0.0
  0
LINE
  5
836C
  8
0
 10
3148.5745306857729702
 20
196.6943051265710949
 30
0.0
 11
3148.5341401637720082
 21
196.6818237688711974
 31
0.0
  0
LINE
  5
836D
  8
0
 10
3148.5341401637720082
 20
196.6818237688711974
 30
0.0
 11
3148.5341401637720082
 21
196.7039195408391947
 31
0.0
  0
LINE
  5
836E
  8
0
 10
3148.6191699304717986
 20
196.6771560176711091
 30
0.0
 11
3148.5697240708718709
 21
196.6683343302711933
 31
0.0
  0
LINE
  5
836F
  8
0
 10
3148.5697240708718709
 20
196.6683343302711933
 30
0.0
 11
3148.5697240708718709
 21
196.6859376588147938
 31
0.0
  0
LINE
  5
8370
  8
0
 10
3148.5856662256719574
 20
196.6908640555710974
 30
0.0
 11
3148.5452757036750882
 21
196.6783826978719105
 31
0.0
  0
LINE
  5
8371
  8
0
 10
3148.6231069383720751
 20
196.6750488006711066
 30
0.0
 11
3148.5736610787957943
 21
196.6662271131754096
 31
0.0
  0
LINE
  5
8372
  8
0
 10
3148.644772096071847
 20
196.6592286352710914
 30
0.0
 11
3148.5895976168731067
 21
196.6546601412711084
 31
0.0
  0
LINE
  5
8373
  8
0
 10
3148.5895976168731067
 20
196.6546601412711084
 30
0.0
 11
3148.5895976168731067
 21
196.6690703675710949
 31
0.0
  0
LINE
  5
8374
  8
0
 10
3148.6556829749720237
 20
196.6374799286710982
 30
0.0
 11
3148.5985878141718786
 21
196.6374799286735993
 31
0.0
  0
LINE
  5
8375
  8
0
 10
3148.5985878141718786
 20
196.6374799286735993
 30
0.0
 11
3148.5985878141718786
 21
196.650366459571103
 31
0.0
  0
LINE
  5
8376
  8
0
 10
3148.5936735074001263
 20
196.6499595507733886
 30
0.0
 11
3148.6488479865720365
 21
196.6545280447710979
 31
0.0
  0
LINE
  5
8377
  8
0
 10
3148.6556829749720237
 20
196.6350467239711008
 30
0.0
 11
3148.5985878141718786
 21
196.6350467239711008
 31
0.0
  0
LINE
  5
8378
  8
0
 10
3148.5936735074001263
 20
196.6225671018688956
 30
0.0
 11
3148.6488479865720365
 21
196.6179986078711863
 31
0.0
  0
LINE
  5
8379
  8
0
 10
3148.6488479865720365
 20
196.6179986078711863
 30
0.0
 11
3148.6488479865720365
 21
196.6350467239711008
 31
0.0
  0
LINE
  5
837A
  8
0
 10
3148.5736610787957943
 20
196.6062995394667894
 30
0.0
 11
3148.6231069383720751
 21
196.5974778519710924
 31
0.0
  0
LINE
  5
837B
  8
0
 10
3148.6231069383720751
 20
196.5974778519710924
 30
0.0
 11
3148.6231069383720751
 21
196.6150919109711026
 31
0.0
  0
LINE
  5
837C
  8
0
 10
3148.5895976168731067
 20
196.6178665113710906
 30
0.0
 11
3148.644772096071847
 21
196.6132980173711076
 31
0.0
  0
LINE
  5
837D
  8
0
 10
3148.6191699304717986
 20
196.5953706349710899
 30
0.0
 11
3148.5697240708718709
 21
196.604192322471107
 31
0.0
  0
LINE
  5
837E
  8
0
 10
3148.5452757036719049
 20
196.5941439548711003
 30
0.0
 11
3148.5856662256719574
 21
196.5816625970711016
 31
0.0
  0
LINE
  5
837F
  8
0
 10
3148.5856662256719574
 20
196.5816625970711016
 30
0.0
 11
3148.5856662256719574
 21
196.6013480659711092
 31
0.0
  0
LINE
  5
8380
  8
0
 10
3148.5745306857729702
 20
196.5782215260711041
 30
0.0
 11
3148.5341401637720082
 21
196.5907028837710868
 31
0.0
  0
LINE
  5
8381
  8
0
 10
3148.5016229631719398
 20
196.5831479227711043
 30
0.0
 11
3148.5301705434721953
 21
196.5678683118711092
 31
0.0
  0
LINE
  5
8382
  8
0
 10
3148.5301705434721953
 20
196.5678683118711092
 30
0.0
 11
3148.5301705434721953
 21
196.5896076881986119
 31
0.0
  0
LINE
  5
8383
  8
0
 10
3148.4948038654720222
 20
196.5819313204711136
 30
0.0
 11
3148.5233514458718673
 21
196.5666517095710901
 31
0.0
  0
LINE
  5
8384
  8
0
 10
3148.4721563151720147
 20
196.5786200907257069
 30
0.0
 11
3148.4721563151720147
 21
196.5599568076711137
 31
0.0
  0
LINE
  5
8385
  8
0
 10
3148.4721563151720147
 20
196.5599568076711137
 30
0.0
 11
3148.457372358072007
 21
196.5770066593711078
 31
0.0
  0
LINE
  5
8386
  8
0
 10
3148.4421609276719209
 20
196.5757471398711971
 30
0.0
 11
3148.4569448848269531
 21
196.5586972882229873
 31
0.0
  0
LINE
  5
8387
  8
0
 10
3148.4017760222718607
 20
196.5936996279710911
 30
0.0
 11
3148.4018893342699812
 21
196.5760545182623105
 31
0.0
  0
LINE
  5
8388
  8
0
 10
3148.4017760222718607
 20
196.574228535571109
 30
0.0
 11
3148.4018512760881094
 21
196.5565854781428925
 31
0.0
  0
LINE
  5
8389
  8
0
 10
3148.4918505245718734
 20
196.5835120463711121
 30
0.0
 11
3148.4632989761721547
 21
196.5987937811711106
 31
0.0
  0
ARC
  5
838A
  8
0
 10
3148.7808567971760567
 20
196.7366869589733938
 30
0.0
 40
0.0500672452224775
 50
318.7002857265476905
 51
358.6274954593811231
  0
ARC
  5
838B
  8
0
 10
3148.6663625504420452
 20
196.8539609353437072
 30
0.0
 40
0.2138514973282619
 50
288.4485117501776017
 51
315.3390958775020749
  0
ARC
  5
838C
  8
0
 10
3148.7526512502481637
 20
196.7226805655016051
 30
0.0
 40
0.07929946344561
 50
9.2941903573349496
 51
64.0696706626543744
  0
LINE
  5
838D
  8
0
 10
3148.8310595652610573
 20
196.7731923370724019
 30
0.0
 11
3148.830909678072203
 21
196.7354877266710957
 31
0.0
  0
ARC
  5
838E
  8
0
 10
3148.7991801171770021
 20
196.6939671065134974
 30
0.0
 40
0.0848786842328108
 50
28.2675252699423716
 51
44.7277404292281702
  0
ARC
  5
838F
  8
0
 10
3148.8317111827200279
 20
196.7104862758027934
 30
0.0
 40
0.0484113717057447
 50
335.2666409839570747
 51
29.2820513083835614
  0
ARC
  5
8390
  8
0
 10
3148.4847090724529153
 20
197.4446651803837938
 30
0.0
 40
0.8771171315098479
 50
277.3468769782379013
 51
287.8643913030995236
  0
ARC
  5
8391
  8
0
 10
3148.6546421827570157
 20
196.9284612936831138
 30
0.0
 40
0.333689519590313
 50
287.282912768692313
 51
304.2341012278056951
  0
ARC
  5
8392
  8
0
 10
3148.7857101348199649
 20
196.7362851171492935
 30
0.0
 40
0.1010733321740671
 50
304.0944947579596942
 51
332.8932996209263138
  0
ARC
  5
8393
  8
0
 10
3148.5413838122708512
 20
197.1657533996126119
 30
0.0
 40
0.5495302810955093
 50
285.5598314862980942
 51
290.5225960196628989
  0
ARC
  5
8394
  8
0
 10
3148.6196487637989776
 20
197.0569191507613027
 30
0.0
 40
0.4216325701835349
 50
285.7414519141037204
 51
298.660107956723607
  0
ARC
  5
8395
  8
0
 10
3148.7600884592388866
 20
196.8092300017322884
 30
0.0
 40
0.1370054682185473
 50
296.8037196266038222
 51
326.4611710141563208
  0
LINE
  5
8396
  8
0
 10
3149.6904295301210368
 20
198.2134587403309069
 30
0.0
 11
3149.0293482900478921
 21
197.9986547874397047
 31
0.0
  0
LINE
  5
8397
  8
0
 10
3149.1967480335961227
 20
196.6938666934568971
 30
0.0
 11
3149.0315944255730756
 21
196.9221664383101995
 31
0.0
  0
LINE
  5
8398
  8
0
 10
3148.3978831854228702
 20
199.1526537201272902
 30
0.0
 11
3148.3978831854228702
 21
196.8838582532740986
 31
0.0
  0
ENDSEC
  0
EOF
