  0
SECTION
  2
HEADER
  9
$ACADVER
  1
AC1009
  9
$INSBASE
 10
3155.9053130112260988
 20
195.1060431534106954
 30
0.0
  9
$EXTMIN
 10
3147.3173130112249964
 20
193.7786246750742976
 30
0.0
  9
$EXTMAX
 10
3155.9234920713229258
 20
196.3975581510360939
 30
0.0
  9
$LIMMIN
 10
0.0
 20
0.0
  9
$LIMMAX
 10
11.6929133858000007
 20
8.2677165353999982
  9
$ORTHOMODE
 70
     0
  9
$REGENMODE
 70
     1
  9
$FILLMODE
 70
     1
  9
$QTEXTMODE
 70
     0
  9
$MIRRTEXT
 70
     0
  9
$DRAGMODE
 70
     2
  9
$LTSCALE
 40
0.6431102362
  9
$OSMODE
 70
  4095
  9
$ATTMODE
 70
     1
  9
$TEXTSIZE
 40
0.2
  9
$TRACEWID
 40
0.05
  9
$TEXTSTYLE
  7
STANDARD
  9
$CLAYER
  8
0
  9
$CELTYPE
  6
BYLAYER
  9
$CECOLOR
 62
   256
  9
$DIMSCALE
 40
1.0
  9
$DIMASZ
 40
0.1875
  9
$DIMEXO
 40
0.0625
  9
$DIMDLI
 40
0.4443307087
  9
$DIMRND
 40
0.0
  9
$DIMDLE
 40
0.0
  9
$DIMEXE
 40
0.125
  9
$DIMTP
 40
0.01
  9
$DIMTM
 40
0.01
  9
$DIMTXT
 40
2.0
  9
$DIMCEN
 40
0.1052362205
  9
$DIMTSZ
 40
0.0
  9
$DIMTOL
 70
     1
  9
$DIMLIM
 70
     0
  9
$DIMTIH
 70
     1
  9
$DIMTOH
 70
     1
  9
$DIMSE1
 70
     0
  9
$DIMSE2
 70
     0
  9
$DIMTAD
 70
     0
  9
$DIMZIN
 70
     0
  9
$DIMBLK
  1

  9
$DIMASO
 70
     1
  9
$DIMSHO
 70
     1
  9
$DIMPOST
  1
\X
  9
$DIMAPOST
  1

  9
$DIMALT
 70
     1
  9
$DIMALTD
 70
     2
  9
$DIMALTF
 40
25.3999999999999986
  9
$DIMLFAC
 40
1.0
  9
$DIMTOFL
 70
     0
  9
$DIMTVP
 40
0.0
  9
$DIMTIX
 70
     0
  9
$DIMSOXD
 70
     0
  9
$DIMSAH
 70
     0
  9
$DIMBLK1
  1

  9
$DIMBLK2
  1

  9
$DIMSTYLE
  2
STANDARD
  9
$DIMCLRD
 70
     0
  9
$DIMCLRE
 70
     0
  9
$DIMCLRT
 70
     0
  9
$DIMTFAC
 40
1.0
  9
$DIMGAP
 40
0.09
  9
$LUNITS
 70
     2
  9
$LUPREC
 70
     4
  9
$SKETCHINC
 40
0.1
  9
$FILLETRAD
 40
0.0
  9
$AUNITS
 70
     0
  9
$AUPREC
 70
     0
  9
$MENU
  1
.
  9
$ELEVATION
 40
0.0
  9
$PELEVATION
 40
0.0
  9
$THICKNESS
 40
0.0
  9
$LIMCHECK
 70
     0
  9
$BLIPMODE
 70
     0
  9
$CHAMFERA
 40
0.0
  9
$CHAMFERB
 40
0.0
  9
$SKPOLY
 70
     0
  9
$TDCREATE
 40
2458060.468368056230247
  9
$TDUPDATE
 40
2459457.5354050928726792
  9
$TDINDWG
 40
0.3885024306
  9
$TDUSRTIMER
 40
0.3885024306
  9
$USRTIMER
 70
     1
  9
$ANGBASE
 50
0.0
  9
$ANGDIR
 70
     0
  9
$PDMODE
 70
     0
  9
$PDSIZE
 40
0.3125
  9
$PLINEWID
 40
0.0
  9
$COORDS
 70
     1
  9
$SPLFRAME
 70
     0
  9
$SPLINETYPE
 70
     6
  9
$SPLINESEGS
 70
     8
  9
$ATTDIA
 70
     1
  9
$ATTREQ
 70
     1
  9
$HANDLING
 70
     1
  9
$HANDSEED
  5
8226
  9
$SURFTAB1
 70
     6
  9
$SURFTAB2
 70
     6
  9
$SURFTYPE
 70
     6
  9
$SURFU
 70
     6
  9
$SURFV
 70
     6
  9
$UCSNAME
  2

  9
$UCSORG
 10
0.0
 20
0.0
 30
0.0
  9
$UCSXDIR
 10
1.0
 20
0.0
 30
0.0
  9
$UCSYDIR
 10
0.0
 20
1.0
 30
0.0
  9
$PUCSNAME
  2

  9
$PUCSORG
 10
0.0
 20
0.0
 30
0.0
  9
$PUCSXDIR
 10
1.0
 20
0.0
 30
0.0
  9
$PUCSYDIR
 10
0.0
 20
1.0
 30
0.0
  9
$USERI1
 70
     0
  9
$USERI2
 70
     0
  9
$USERI3
 70
     0
  9
$USERI4
 70
     0
  9
$USERI5
 70
     0
  9
$USERR1
 40
0.0
  9
$USERR2
 40
0.0
  9
$USERR3
 40
0.0
  9
$USERR4
 40
0.0
  9
$USERR5
 40
0.0
  9
$WORLDVIEW
 70
     1
  9
$SHADEDGE
 70
     3
  9
$SHADEDIF
 70
    70
  9
$TILEMODE
 70
     1
  9
$MAXACTVP
 70
    64
  9
$PLIMCHECK
 70
     0
  9
$PEXTMIN
 10
1.0000000000000000E+20
 20
1.0000000000000000E+20
 30
1.0000000000000000E+20
  9
$PEXTMAX
 10
-1.0000000000000000E+20
 20
-1.0000000000000000E+20
 30
-1.0000000000000000E+20
  9
$PLIMMIN
 10
0.0
 20
0.0
  9
$PLIMMAX
 10
12.0
 20
9.0
  9
$UNITMODE
 70
     0
  9
$VISRETAIN
 70
     1
  9
$PLINEGEN
 70
     0
  9
$PSLTSCALE
 70
     1
  0
ENDSEC
  0
SECTION
  2
TABLES
  0
TABLE
  2
VPORT
 70
     1
  0
VPORT
  2
*ACTIVE
 70
     0
 10
0.0
 20
0.0
 11
1.0
 21
1.0
 12
78.0684932344398419
 22
-5.1100588268027582
 13
0.0
 23
0.0
 14
1.0
 24
1.0
 15
0.0
 25
0.0
 16
0.0
 26
0.0
 36
95.5902297660485658
 17
3089.811279296875
 27
197.161570589386713
 37
0.0
 40
30.3466816957329506
 41
2.000833333333333
 42
50.0
 43
0.0
 44
0.0
 50
0.0
 51
0.0
 71
     0
 72
   100
 73
     1
 74
     1
 75
     0
 76
     0
 77
     0
 78
     0
  0
ENDTAB
  0
TABLE
  2
LTYPE
 70
     2
  0
LTYPE
  2
CONTINUOUS
 70
     0
  3
Solid line
 72
    65
 73
     0
 40
0.0
  0
LTYPE
  2
PHANTOM2
 70
     0
  3
___ _ _ ___ _ _ ___ _ _ ___ _ _
 72
    65
 73
     6
 40
1.25
 49
0.625
 49
-0.125
 49
0.125
 49
-0.125
 49
0.125
 49
-0.125
  0
ENDTAB
  0
TABLE
  2
LAYER
 70
     2
  0
LAYER
  2
0
 70
     0
 62
   255
  6
CONTINUOUS
  0
LAYER
  2
DEFPOINTS
 70
     0
 62
     7
  6
CONTINUOUS
  0
ENDTAB
  0
TABLE
  2
STYLE
 70
     1
  0
STYLE
  2
STANDARD
 70
     0
 40
0.0
 41
0.8
 50
0.0
 71
     0
 42
0.2
  3
txt
  4

  0
ENDTAB
  0
TABLE
  2
VIEW
 70
     0
  0
ENDTAB
  0
TABLE
  2
UCS
 70
     0
  0
ENDTAB
  0
TABLE
  2
APPID
 70
     9
  0
APPID
  2
ACAD
 70
     0
  0
APPID
  2
ACAD_MLEADERVER
 70
     0
  0
APPID
  2
ACAD_EXEMPT_FROM_CAD_STANDARDS
 70
     0
  0
APPID
  2
ACAD_NAV_VCDISPLAY
 70
     0
  0
APPID
  2
ACAECLAYERSTANDARD
 70
     0
  0
APPID
  2
ACCMTRANSPARENCY
 70
     0
  0
APPID
  2
ACAD_DSTYLE_DIMJAG
 70
     0
  0
APPID
  2
ACAD_DSTYLE_DIMTALN
 70
     0
  0
APPID
  2
ACDBATTR
 70
     0
  0
ENDTAB
  0
TABLE
  2
DIMSTYLE
 70
     1
  0
DIMSTYLE
  2
STANDARD
 70
     0
  3

  4

  5

  6

  7

 40
1.0
 41
0.1875
 42
0.0625
 43
0.38
 44
0.125
 45
0.0
 46
0.0
 47
0.01
 48
0.01
140
0.15625
141
0.09
142
0.0
143
25.3999999999999986
144
1.0
145
0.0
146
1.0
147
0.09
 71
     1
 72
     0
 73
     1
 74
     1
 75
     0
 76
     0
 77
     0
 78
     4
170
     0
171
     2
172
     0
173
     0
174
     0
175
     0
176
     0
177
     0
178
     0
  0
ENDTAB
  0
ENDSEC
  0
SECTION
  2
BLOCKS
  0
BLOCK
  8
0
  2
$MODEL_SPACE
 70
     0
 10
0.0
 20
0.0
 30
0.0
  3
$MODEL_SPACE
  1

  0
ENDBLK
  5
21
  8
0
  0
BLOCK
 67
     1
  8
0
  2
$PAPER_SPACE
 70
     0
 10
0.0
 20
0.0
 30
0.0
  3
$PAPER_SPACE
  1

  0
ENDBLK
  5
1D
 67
     1
  8
0
  0
ENDSEC
  0
SECTION
  2
ENTITIES
  0
ATTDEF
  5
3930
  8
DEFPOINTS
 10
3155.912825404654086
 20
195.1149158097288989
 30
0.0
 40
0.001
  1
K-EX27024T
  3

  2
MODELNUMBER
 70
     0
1001
ACDBATTR
1070
     0
1070
     1
  0
ATTDEF
  5
3931
  8
DEFPOINTS
 10
3155.912825404654086
 20
195.1132491430622906
 30
0.0
 40
0.001
  1
OCCASION
  3

  2
TRADENAME
 70
     0
1001
ACDBATTR
1070
     0
1070
     1
  0
ATTDEF
  5
3932
  8
DEFPOINTS
 10
3155.912825404654086
 20
195.111582476395597
 30
0.0
 40
0.001
  1
BATH SPOUT
  3

  2
PRODUCT
 70
     0
1001
ACDBATTR
1070
     0
1070
     1
  0
ARC
  5
812E
  8
0
 10
3155.8814176931200564
 20
196.2995798174059132
 30
0.0
 40
0.0238967886519984
 50
0.6356374475688044
 51
65.3794926739927007
  0
ARC
  5
812F
  8
0
 10
3155.7171307132639413
 20
196.3724839863421039
 30
0.0
 40
0.0250771511243512
 50
90.8842580834212868
 51
142.9135592861464943
  0
LINE
  5
8130
  8
0
 10
3155.7167437075631824
 20
196.3975581510360939
 30
0.0
 11
3155.8913732434248232
 21
196.3213040786361034
 31
0.0
  0
ARC
  5
8131
  8
0
 10
3154.2333157463208408
 20
197.4360258577540037
 30
0.0
 40
1.8005345541741571
 50
314.0312269075732843
 51
324.3887536750239065
  0
ARC
  5
8132
  8
0
 10
3154.4828081469390781
 20
197.144703693598899
 30
0.0
 40
1.4178638003137971
 50
280.64220098227878
 51
314.9650703535054959
  0
ARC
  5
8133
  8
0
 10
3154.4058600301759725
 20
197.5274280398184885
 30
0.0
 40
1.808222308424305
 50
277.3627530964993753
 51
280.7988850112159867
  0
ARC
  5
8134
  8
0
 10
3154.3285548621788621
 20
197.9427807861331132
 30
0.0
 40
2.230180249799282
 50
274.3326752184627253
 51
277.9649617963046921
  0
LINE
  5
8135
  8
0
 10
3153.9256943688019419
 20
195.7023796895360874
 30
0.0
 11
3149.0003130112258987
 21
195.7023796895360874
 31
0.0
  0
ARC
  5
8136
  8
0
 10
3153.5537408420927932
 20
218.3529549071018891
 30
0.0
 40
22.6536290053633209
 50
270.9407907632627825
 51
272.3864893534018847
  0
LINE
  5
8137
  8
0
 10
3155.9053130112260988
 20
196.2998449221360886
 30
0.0
 11
3155.9053130112260988
 21
193.9046260998360935
 31
0.0
  0
LINE
  5
8138
  8
0
 10
3155.6971260013010578
 20
196.3876059904347926
 30
0.0
 11
3155.6972255705259158
 21
193.8233757307488929
 31
0.0
  0
ARC
  5
8139
  8
0
 10
3155.88071917604384
 20
193.9099060504669012
 30
0.0
 40
0.0251795788870114
 50
293.9009023214766216
 51
347.6173747057608239
  0
ARC
  5
813A
  8
0
 10
3155.7156529320691334
 20
193.8381418147774014
 30
0.0
 40
0.023613658992069
 50
218.7056498241138058
 51
293.0068191312691965
  0
LINE
  5
813B
  8
0
 10
3155.7248821106259129
 20
193.8164064253361119
 30
0.0
 11
3155.8909208331260743
 21
193.8868856815361141
 31
0.0
  0
ARC
  5
813C
  8
0
 10
3154.4604681540490674
 20
192.8310174150981027
 30
0.0
 40
1.5856682925032981
 50
38.7431113491144217
 51
50.1447627562250631
  0
ARC
  5
813D
  8
0
 10
3154.503551367475211
 20
192.8899336365749093
 30
0.0
 40
1.5128376762937239
 50
49.9674050587194571
 51
81.2996016189100743
  0
ARC
  5
813E
  8
0
 10
3154.291779484216022
 20
191.6575386645903905
 30
0.0
 40
2.7631805258999709
 50
80.8244756888178557
 51
86.1735469196561894
  0
ARC
  5
813F
  8
0
 10
3154.3064262004218108
 20
193.493449745453205
 30
0.0
 40
0.9366210950836094
 50
79.5580212208245428
 51
95.0358551493750525
  0
LINE
  5
8140
  8
0
 10
3153.3553130111258724
 20
194.4308740946360956
 30
0.0
 11
3149.0003130112258987
 21
194.4308732599361065
 31
0.0
  0
ARC
  5
8141
  8
0
 10
3153.819075905263162
 20
177.0407336452198876
 30
0.0
 40
17.390441528276849
 50
88.6650944168910371
 51
90.0965185267887136
  0
ARC
  5
8142
  8
0
 10
3153.9589923013318185
 20
-413.0063026668998987
 30
0.0
 40
607.4374767337877756
 50
90.0159606848211951
 51
90.0569413026427839
  0
ARC
  5
8143
  8
0
 10
3149.0003130112258987
 20
194.0515222417359951
 30
0.0
 40
1.6508574478000011
 50
90.0
 51
161.999999999996902
  0
ARC
  5
8144
  8
0
 10
3149.0003141320948998
 20
194.0515214273708864
 30
0.0
 40
1.202125058465727
 50
90.0000534229422158
 51
161.9999795904033135
  0
ARC
  5
8145
  8
0
 10
3149.0003054217349927
 20
194.0515457375205983
 30
0.0
 40
0.3793275224914103
 50
89.9988536402772468
 51
162.0030210017268928
  0
ARC
  5
8146
  8
0
 10
3148.5016877127341104
 20
193.8337000266980112
 30
0.0
 40
0.0275590549275256
 50
296.9999999160198172
 51
342.0000001303270096
  0
ARC
  5
8147
  8
0
 10
3148.4476801502669332
 20
193.8061995102181925
 30
0.0
 40
0.0275748356924417
 50
270.0114281785674279
 51
296.9961191830865914
  0
LINE
  5
8148
  8
0
 10
3148.4601971995371059
 20
193.7816293038420952
 30
0.0
 11
3148.5141992618177937
 21
193.8091447289386906
 31
0.0
  0
ARC
  5
8149
  8
0
 10
3147.3469283547451596
 20
194.2101618853897094
 30
0.0
 40
0.0296180909304175
 50
180.7804126077714955
 51
207.1345827764922092
  0
ARC
  5
814A
  8
0
 10
3147.3741610697970827
 20
194.1549131464975062
 30
0.0
 40
0.0274675247908614
 50
208.2461207453328029
 51
251.5742639929823952
  0
LINE
  5
814B
  8
0
 10
3147.3499643014260982
 20
194.1419138650360878
 30
0.0
 11
3147.320570099521774
 21
194.1966536030417103
 31
0.0
  0
LINE
  5
814C
  8
0
 10
3147.3654792658721817
 20
194.1288537681714956
 30
0.0
 11
3148.4476856503260933
 21
193.7786246750742976
 31
0.0
  0
LINE
  5
814D
  8
0
 10
3148.6395287534510317
 20
194.1687481532131017
 30
0.0
 11
3148.527897931428015
 21
193.8251838104677915
 31
0.0
  0
LINE
  5
814E
  8
0
 10
3147.3173130112249964
 20
194.2097584766733007
 30
0.0
 11
3147.4302542779191754
 21
194.5616652480806863
 31
0.0
  0
ARC
  5
814F
  8
0
 10
3147.8196330271248371
 20
194.0477786218361018
 30
0.0
 40
0.1968503936999992
 50
180.7474565082995923
 51
203.8598285101006127
  0
ARC
  5
8150
  8
0
 10
3148.0762005559258796
 20
193.9644147783361063
 30
0.0
 40
0.1968503937000035
 50
300.1401714899005242
 51
323.2525434916939844
  0
LINE
  5
8151
  8
0
 10
3148.1750425230379733
 20
193.7941786392900099
 30
0.0
 11
3147.6396059040362161
 21
193.9681525428669886
 31
0.0
  0
LINE
  5
8152
  8
0
 10
3147.8570253941279589
 20
194.4229989069343105
 30
0.0
 11
3147.7453945722440949
 21
194.0794345642626126
 31
0.0
  0
ARC
  5
8153
  8
0
 10
3147.7753332871798193
 20
194.0660673734182922
 30
0.0
 40
0.032787321376771
 50
155.9399488508313993
 51
191.2598196516144071
  0
LINE
  5
8154
  8
0
 10
3147.743177061724964
 20
194.0596653731359993
 30
0.0
 11
3147.7431031547262137
 21
194.0146272762360979
 31
0.0
  0
ARC
  5
8155
  8
0
 10
3147.7576871357828168
 20
194.0168374963949134
 30
0.0
 40
0.0147505110639848
 50
188.6176685101584951
 51
246.0358822408036019
  0
LINE
  5
8156
  8
0
 10
3149.0003130112258987
 20
195.2536464858361001
 30
0.0
 11
3153.8972448720792272
 21
195.2532239813255899
 31
0.0
  0
ARC
  5
8157
  8
0
 10
3153.9743649425258809
 20
221.0802791111927093
 30
0.0
 40
25.8271702705978683
 50
269.8289142375064102
 51
271.2514895985416956
  0
ARC
  5
8158
  8
0
 10
3154.4744782346920147
 20
199.6069904837802937
 30
0.0
 40
4.3481914739064003
 50
270.8430208752885164
 51
279.058036394009207
  0
ARC
  5
8159
  8
0
 10
3154.7816731800789967
 20
197.7208755574260124
 30
0.0
 40
2.4372428536225739
 50
278.9070219552369849
 51
292.0629319876551904
  0
ARC
  5
815A
  8
0
 10
3155.7166762275751353
 20
195.4017803057516005
 30
0.0
 40
0.0634048885108793
 50
81.9498218465110568
 51
107.925049813212695
  0
ARC
  5
815B
  8
0
 10
3155.8890248169759616
 20
195.4252371355613889
 30
0.0
 40
0.0164932881539207
 50
9.0450599645678231
 51
83.4003024720946655
  0
LINE
  5
815C
  8
0
 10
3155.7255554695248065
 20
195.4645603898360946
 30
0.0
 11
3155.8909204220258289
 21
195.4416211288360898
 31
0.0
  0
ENDSEC
  0
EOF
