  0
SECTION
  2
HEADER
  9
$ACADVER
  1
AC1009
  9
$INSBASE
 10
2671.0507441218960594
 20
191.2268167337253999
 30
0.0
  9
$EXTMIN
 10
2661.8207817213760791
 20
181.4187894866354043
 30
-0.0000000349181948
  9
$EXTMAX
 10
2673.8563552800801517
 20
193.9517578197084049
 30
0.0000000814935746
  9
$LIMMIN
 10
0.0
 20
0.0
  9
$LIMMAX
 10
11.6929133858000007
 20
8.2677165353999982
  9
$ORTHOMODE
 70
     1
  9
$REGENMODE
 70
     1
  9
$FILLMODE
 70
     1
  9
$QTEXTMODE
 70
     0
  9
$MIRRTEXT
 70
     0
  9
$DRAGMODE
 70
     2
  9
$LTSCALE
 40
0.6431102362
  9
$OSMODE
 70
  2039
  9
$ATTMODE
 70
     1
  9
$TEXTSIZE
 40
0.2
  9
$TRACEWID
 40
0.05
  9
$TEXTSTYLE
  7
STANDARD
  9
$CLAYER
  8
0
  9
$CELTYPE
  6
BYLAYER
  9
$CECOLOR
 62
   256
  9
$DIMSCALE
 40
1.0
  9
$DIMASZ
 40
0.1875
  9
$DIMEXO
 40
0.0625
  9
$DIMDLI
 40
0.4443307087
  9
$DIMRND
 40
0.0
  9
$DIMDLE
 40
0.0
  9
$DIMEXE
 40
0.125
  9
$DIMTP
 40
0.01
  9
$DIMTM
 40
0.01
  9
$DIMTXT
 40
2.0
  9
$DIMCEN
 40
0.1052362205
  9
$DIMTSZ
 40
0.0
  9
$DIMTOL
 70
     1
  9
$DIMLIM
 70
     0
  9
$DIMTIH
 70
     1
  9
$DIMTOH
 70
     1
  9
$DIMSE1
 70
     0
  9
$DIMSE2
 70
     0
  9
$DIMTAD
 70
     0
  9
$DIMZIN
 70
     0
  9
$DIMBLK
  1

  9
$DIMASO
 70
     1
  9
$DIMSHO
 70
     1
  9
$DIMPOST
  1
\X
  9
$DIMAPOST
  1

  9
$DIMALT
 70
     1
  9
$DIMALTD
 70
     2
  9
$DIMALTF
 40
25.3999999999999986
  9
$DIMLFAC
 40
1.0
  9
$DIMTOFL
 70
     0
  9
$DIMTVP
 40
0.0
  9
$DIMTIX
 70
     0
  9
$DIMSOXD
 70
     0
  9
$DIMSAH
 70
     0
  9
$DIMBLK1
  1

  9
$DIMBLK2
  1

  9
$DIMSTYLE
  2
STANDARD
  9
$DIMCLRD
 70
     0
  9
$DIMCLRE
 70
     0
  9
$DIMCLRT
 70
     0
  9
$DIMTFAC
 40
1.0
  9
$DIMGAP
 40
0.09
  9
$LUNITS
 70
     2
  9
$LUPREC
 70
     4
  9
$SKETCHINC
 40
0.1
  9
$FILLETRAD
 40
0.0
  9
$AUNITS
 70
     0
  9
$AUPREC
 70
     0
  9
$MENU
  1
.
  9
$ELEVATION
 40
0.0
  9
$PELEVATION
 40
0.0
  9
$THICKNESS
 40
0.0
  9
$LIMCHECK
 70
     0
  9
$BLIPMODE
 70
     0
  9
$CHAMFERA
 40
0.0
  9
$CHAMFERB
 40
0.0
  9
$SKPOLY
 70
     0
  9
$TDCREATE
 40
2458060.468368056230247
  9
$TDUPDATE
 40
2459340.8881018520332873
  9
$TDINDWG
 40
0.6785024306
  9
$TDUSRTIMER
 40
0.6785024306
  9
$USRTIMER
 70
     1
  9
$ANGBASE
 50
0.0
  9
$ANGDIR
 70
     0
  9
$PDMODE
 70
     0
  9
$PDSIZE
 40
0.3125
  9
$PLINEWID
 40
0.0
  9
$COORDS
 70
     1
  9
$SPLFRAME
 70
     0
  9
$SPLINETYPE
 70
     6
  9
$SPLINESEGS
 70
     8
  9
$ATTDIA
 70
     1
  9
$ATTREQ
 70
     1
  9
$HANDLING
 70
     1
  9
$HANDSEED
  5
39A89
  9
$SURFTAB1
 70
     6
  9
$SURFTAB2
 70
     6
  9
$SURFTYPE
 70
     6
  9
$SURFU
 70
     6
  9
$SURFV
 70
     6
  9
$UCSNAME
  2

  9
$UCSORG
 10
0.0
 20
0.0
 30
0.0
  9
$UCSXDIR
 10
1.0
 20
0.0
 30
0.0
  9
$UCSYDIR
 10
0.0
 20
1.0
 30
0.0
  9
$PUCSNAME
  2

  9
$PUCSORG
 10
0.0
 20
0.0
 30
0.0
  9
$PUCSXDIR
 10
1.0
 20
0.0
 30
0.0
  9
$PUCSYDIR
 10
0.0
 20
1.0
 30
0.0
  9
$USERI1
 70
     0
  9
$USERI2
 70
     0
  9
$USERI3
 70
     0
  9
$USERI4
 70
     0
  9
$USERI5
 70
     0
  9
$USERR1
 40
0.0
  9
$USERR2
 40
0.0
  9
$USERR3
 40
0.0
  9
$USERR4
 40
0.0
  9
$USERR5
 40
0.0
  9
$WORLDVIEW
 70
     1
  9
$SHADEDGE
 70
     3
  9
$SHADEDIF
 70
    70
  9
$TILEMODE
 70
     1
  9
$MAXACTVP
 70
    64
  9
$PLIMCHECK
 70
     0
  9
$PEXTMIN
 10
1.0000000000000000E+20
 20
1.0000000000000000E+20
 30
1.0000000000000000E+20
  9
$PEXTMAX
 10
-1.0000000000000000E+20
 20
-1.0000000000000000E+20
 30
-1.0000000000000000E+20
  9
$PLIMMIN
 10
0.0
 20
0.0
  9
$PLIMMAX
 10
12.0
 20
9.0
  9
$UNITMODE
 70
     0
  9
$VISRETAIN
 70
     1
  9
$PLINEGEN
 70
     0
  9
$PSLTSCALE
 70
     1
  0
ENDSEC
  0
SECTION
  2
TABLES
  0
TABLE
  2
VPORT
 70
     1
  0
VPORT
  2
*ACTIVE
 70
     0
 10
0.0
 20
0.0
 11
1.0
 21
1.0
 12
-635.854546733647112
 22
-7.5762379227158467
 13
0.0
 23
0.0
 14
1.0
 24
1.0
 15
0.0
 25
0.0
 16
0.0
 26
0.0
 36
96.5995694866707311
 17
3303.693115234375
 27
195.2615115758877096
 37
0.0
 40
12.6372648795340492
 41
2.6486111111111108
 42
50.0
 43
0.0
 44
0.0
 50
0.0
 51
0.0
 71
     0
 72
   100
 73
     1
 74
     1
 75
     0
 76
     0
 77
     0
 78
     1
  0
ENDTAB
  0
TABLE
  2
LTYPE
 70
     2
  0
LTYPE
  2
CONTINUOUS
 70
     0
  3
Solid line
 72
    65
 73
     0
 40
0.0
  0
LTYPE
  2
PHANTOM2
 70
     0
  3
___ _ _ ___ _ _ ___ _ _ ___ _ _
 72
    65
 73
     6
 40
1.25
 49
0.625
 49
-0.125
 49
0.125
 49
-0.125
 49
0.125
 49
-0.125
  0
ENDTAB
  0
TABLE
  2
LAYER
 70
     2
  0
LAYER
  2
0
 70
     0
 62
   255
  6
CONTINUOUS
  0
LAYER
  2
DEFPOINTS
 70
     0
 62
     7
  6
CONTINUOUS
  0
ENDTAB
  0
TABLE
  2
STYLE
 70
     1
  0
STYLE
  2
STANDARD
 70
     0
 40
0.0
 41
0.8
 50
0.0
 71
     0
 42
0.2
  3
txt
  4

  0
ENDTAB
  0
TABLE
  2
VIEW
 70
     0
  0
ENDTAB
  0
TABLE
  2
UCS
 70
     0
  0
ENDTAB
  0
TABLE
  2
APPID
 70
     9
  0
APPID
  2
ACAD
 70
     0
  0
APPID
  2
ACAD_MLEADERVER
 70
     0
  0
APPID
  2
ACAD_EXEMPT_FROM_CAD_STANDARDS
 70
     0
  0
APPID
  2
ACAD_NAV_VCDISPLAY
 70
     0
  0
APPID
  2
ACAECLAYERSTANDARD
 70
     0
  0
APPID
  2
ACCMTRANSPARENCY
 70
     0
  0
APPID
  2
ACAD_DSTYLE_DIMJAG
 70
     0
  0
APPID
  2
ACAD_DSTYLE_DIMTALN
 70
     0
  0
APPID
  2
ACDBATTR
 70
     0
  0
ENDTAB
  0
TABLE
  2
DIMSTYLE
 70
     1
  0
DIMSTYLE
  2
STANDARD
 70
     0
  3

  4

  5

  6

  7

 40
1.0
 41
0.1875
 42
0.0625
 43
0.38
 44
0.125
 45
0.0
 46
0.0
 47
0.01
 48
0.01
140
0.15625
141
0.09
142
0.0
143
25.3999999999999986
144
1.0
145
0.0
146
1.0
147
0.09
 71
     1
 72
     0
 73
     1
 74
     1
 75
     0
 76
     0
 77
     0
 78
     4
170
     0
171
     2
172
     0
173
     0
174
     0
175
     0
176
     0
177
     0
178
     0
  0
ENDTAB
  0
ENDSEC
  0
SECTION
  2
BLOCKS
  0
BLOCK
  8
0
  2
$MODEL_SPACE
 70
     0
 10
0.0
 20
0.0
 30
0.0
  3
$MODEL_SPACE
  1

  0
ENDBLK
  5
21
  8
0
  0
BLOCK
 67
     1
  8
0
  2
$PAPER_SPACE
 70
     0
 10
0.0
 20
0.0
 30
0.0
  3
$PAPER_SPACE
  1

  0
ENDBLK
  5
1D
 67
     1
  8
0
  0
BLOCK
  8
0
  2
_FILLED
 70
     0
 10
0.0
 20
0.0
 30
0.0
  3
_FILLED
  1

  0
SOLID
  5
2ABDA
  8
0
  6
BYBLOCK
 62
     0
 10
0.0
 20
0.0
 30
0.0
 11
-1.0
 21
0.1666666667
 31
0.0
 12
-1.0
 22
-0.1666666667
 32
0.0
 13
-1.0
 23
-0.1666666667
 33
0.0
  0
ENDBLK
  5
2ABDB
  8
0
  6
BYBLOCK
 62
     0
  0
ENDSEC
  0
SECTION
  2
ENTITIES
  0
ATTDEF
  5
3926B
  8
DEFPOINTS
 10
2671.0510923201131845
 20
191.231113405594499
 30
0.0
 40
0.001
  1
K-EX27025T-4E2
  3

  2
MODELNUMBER
 70
     0
1001
ACDBATTR
1070
     0
1070
     1
  0
ATTDEF
  5
3926C
  8
DEFPOINTS
 10
2671.0510923201131845
 20
191.2294467389278054
 30
0.0
 40
0.001
  1

  3

  2
TRADENAME
 70
     0
1001
ACDBATTR
1070
     0
1070
     1
  0
ATTDEF
  5
3926D
  8
DEFPOINTS
 10
2671.0510923201131845
 20
191.2277800722611971
 30
0.0
 40
0.001
  1
BATH FILLER
  3

  2
PRODUCT
 70
     0
1001
ACDBATTR
1070
     0
1070
     1
  0
LINE
  5
396BF
  8
0
 10
2664.6709836062600516
 20
191.9832032596536067
 30
0.0
 11
2665.6392628493049415
 21
191.9832032454609987
 31
0.0
  0
ARC
  5
396C0
  8
0
 10
2665.6392418242407985
 20
191.9733607481988997
 30
0.0
 40
0.0098425197184332
 50
359.9968496461005998
 51
89.8776077277537269
  0
LINE
  5
396C1
  8
0
 10
2665.649084343944196
 20
191.9733602070174072
 30
0.0
 11
2665.649054503530806
 21
191.4306498357935027
 31
0.0
  0
LINE
  5
396C2
  8
0
 10
2665.6904202140440248
 20
191.9832032679173892
 30
0.0
 11
2666.3636512731441144
 21
191.9832032679173039
 31
0.0
  0
ARC
  5
396C3
  8
0
 10
2666.3636512731441144
 20
191.9733607449520036
 30
0.0
 40
0.0098425229653571
 50
359.9526194810028983
 51
90.0000000000260485
  0
LINE
  5
396C4
  8
0
 10
2666.3734937927438295
 20
191.9733526057173094
 30
0.0
 11
2666.3734937927929423
 21
191.1881288164520925
 31
0.0
  0
LINE
  5
396C5
  8
0
 10
2665.680603769127174
 20
191.4237846935158132
 30
0.0
 11
2665.6806174832709075
 21
191.9733607477209034
 31
0.0
  0
ARC
  5
396C6
  8
0
 10
2665.6904603308357764
 20
191.9733605021019969
 30
0.0
 40
0.0098428475682368
 50
90.2335227910251803
 51
179.998570238650899
  0
LINE
  5
396C7
  8
0
 10
2665.649084343944196
 20
191.9044631105174119
 30
0.0
 11
2665.6806157639957746
 21
191.9044631105174119
 31
0.0
  0
ARC
  5
396C8
  8
0
 10
2671.7663570576592065
 20
191.4153980277347955
 30
0.0
 40
1.875793876008921
 50
214.9520701947245129
 51
219.7826003759834066
  0
ARC
  5
396C9
  8
0
 10
2671.7486391544930484
 20
191.4030138939560004
 30
0.0
 40
1.8541769645264381
 50
176.1671456207209019
 51
214.9520701947245129
  0
ARC
  5
396CA
  8
0
 10
2669.9896518466889574
 20
191.5208588238108121
 30
0.0
 40
0.0912465131169482
 50
147.8329321300248012
 51
176.1671456207193103
  0
ARC
  5
396CB
  8
0
 10
2671.4843716251461956
 20
190.5791626403025134
 30
0.0
 40
1.857875740133939
 50
104.2093702768867018
 51
147.7906334683578962
  0
ARC
  5
396CC
  8
0
 10
2671.0509205287521581
 20
192.3017905907740897
 30
0.0
 40
0.0815970006892456
 50
90.1835372421733865
 51
106.0751908114751956
  0
ARC
  5
396CD
  8
0
 10
2670.3881498841269604
 20
190.2642508690038881
 30
0.0
 40
0.0801274705925691
 50
217.8165638458102933
 51
250.1835136150091898
  0
ARC
  5
396CE
  8
0
 10
2671.0506591471439606
 20
191.9139923941175141
 30
0.0
 40
1.8578757404000961
 50
248.2093703930551101
 51
256.7111931889569973
  0
ARC
  5
396CF
  8
0
 10
2671.0507267992879861
 20
192.1228104383343975
 30
0.0
 40
0.0891220048596365
 50
90.0434929930358265
 51
102.6831708740003961
  0
ARC
  5
396D0
  8
0
 10
2671.4843719870877976
 20
190.5791631782958007
 30
0.0
 40
1.6924067466323509
 50
105.5329130058671012
 51
146.467138495013586
  0
ARC
  5
396D1
  8
0
 10
2670.1500159537340551
 20
191.4687524579578053
 30
0.0
 40
0.0888159814828503
 50
149.3168806268820106
 51
174.6821876251738956
  0
ARC
  5
396D2
  8
0
 10
2671.752421841449177
 20
191.4041334218998998
 30
0.0
 40
1.692408268679813
 50
177.5329138180831876
 51
218.467137692049107
  0
ARC
  5
396D3
  8
0
 10
2670.4940322890352036
 20
190.4099847508726953
 30
0.0
 40
0.0888173561574696
 50
221.3178638849707909
 51
246.6821352316806895
  0
ARC
  5
396D4
  8
0
 10
2671.0506598192309866
 20
191.9139998998869885
 30
0.0
 40
1.692414475169818
 50
249.5329509585550056
 51
269.9999772215858798
  0
ARC
  5
396D5
  8
0
 10
2670.2902668347492181
 20
191.9983226168534998
 30
0.0
 40
0.0118110237103012
 50
126.0000005125639007
 51
204.6411864928824116
  0
LINE
  5
396D6
  8
0
 10
2670.2833244891121467
 20
192.0078779356940117
 30
0.0
 11
2670.4967266082680908
 21
192.1629236537440022
 31
0.0
  0
ARC
  5
396D7
  8
0
 10
2670.50366895342313
 20
192.1533683355667108
 30
0.0
 40
0.0118110228906074
 50
47.3587985728924323
 51
126.0000005125629059
  0
LINE
  5
396D8
  8
0
 10
2671.0703444787291119
 20
192.400526102617107
 30
0.0
 11
2671.0309741077439867
 21
192.4005261026173912
 31
0.0
  0
ARC
  5
396D9
  8
0
 10
2671.0309741077430772
 20
192.2504768900197121
 30
0.0
 40
0.1500492125976294
 50
89.9999999995831246
 51
139.2790641290035865
  0
ARC
  5
396DA
  8
0
 10
2671.0506591474440938
 20
192.1315684750688035
 30
0.0
 40
0.3149606339486013
 50
90.0000000545854277
 51
106.956665750578793
  0
ARC
  5
396DB
  8
0
 10
2671.5522675407619317
 20
190.4860582790938963
 30
0.0
 40
2.0352265388201221
 50
106.9535958426188955
 51
133.4525880571046059
  0
ARC
  5
396DC
  8
0
 10
2671.0506591469998057
 20
192.4958130685371884
 30
0.0
 40
0.1449291319801134
 50
89.9999999430174853
 51
104.0183080178911013
  0
ARC
  5
396DD
  8
0
 10
2671.5526459748948582
 20
190.4851910572072029
 30
0.0
 40
2.2172687874962622
 50
104.0183080178911013
 51
138.1845545980804957
  0
LINE
  5
396DE
  8
0
 10
2670.2009710626439301
 20
191.9635182286172892
 30
0.0
 11
2666.4148323754438934
 21
191.9635182286172892
 31
0.0
  0
ARC
  5
396DF
  8
0
 10
2666.4148323754438934
 20
191.9536757089173875
 30
0.0
 40
0.0098425197000012
 50
90.0
 51
180.0
  0
LINE
  5
396E0
  8
0
 10
2666.4049898557441338
 20
191.9536757089173875
 30
0.0
 11
2666.4049898557441338
 21
191.1719350083656082
 31
0.0
  0
LINE
  5
396E1
  8
0
 10
2666.9427342495041557
 20
190.3887150790174019
 30
0.0
 11
2670.1338923586440615
 21
190.3887150790174019
 31
0.0
  0
ARC
  5
396E2
  8
0
 10
2670.1335780565927962
 20
190.2687465468634969
 30
0.0
 40
0.1199689432041081
 50
40.2909476812795972
 51
89.850013969107664
  0
ARC
  5
396E3
  8
0
 10
2670.2006622680351029
 20
192.0844355754645107
 30
0.0
 40
0.1209177411411356
 50
270.1463196952660724
 51
305.5512578737582885
  0
ARC
  5
396E4
  8
0
 10
2668.6085993179949583
 20
191.9650927341214981
 30
0.0
 40
0.2002665001870832
 50
141.6177677858553068
 51
180.4504670003082083
  0
ARC
  5
396E5
  8
0
 10
2672.7745073672440412
 20
188.7988849095173975
 30
0.0
 40
5.4327857637999761
 50
109.2781155653322998
 51
142.7218844462464062
  0
ARC
  5
396E6
  8
0
 10
2671.0505740031821915
 20
193.7393840417308013
 30
0.0
 40
0.2001885064932283
 50
89.9756310195275546
 51
110.382232225706403
  0
ARC
  5
396E7
  8
0
 10
2671.0512100582768653
 20
193.5341395467046084
 30
0.0
 40
0.2082874637143759
 50
90.1515449803028162
 51
108.6335771652776003
  0
ARC
  5
396E8
  8
0
 10
2672.7745073527707973
 20
188.7988849440154979
 30
0.0
 40
5.2473169564832487
 50
109.9437712360108037
 51
142.0562289486057068
  0
ARC
  5
396E9
  8
0
 10
2668.8034063303261973
 20
191.9012121464378993
 30
0.0
 40
0.2081199596953771
 50
143.3664230193411981
 51
162.5798831146277905
  0
ARC
  5
396EA
  8
0
 10
2666.0059331919101169
 20
191.176385289005907
 30
0.0
 40
0.3460051822168734
 50
3.788833510220305
 51
7.7385316344043664
  0
ARC
  5
396EB
  8
0
 10
2666.3101383728039764
 20
191.2177543371799118
 30
0.0
 40
0.0389999996932472
 50
7.694049842231526
 51
55.3422130331521629
  0
ARC
  5
396EC
  8
0
 10
2665.9111919546430727
 20
190.6406992368181932
 30
0.0
 40
0.7405346270757112
 50
55.3420097067766505
 51
80.3846784376409431
  0
ARC
  5
396ED
  8
0
 10
2666.0270023766270242
 20
191.3309986520673931
 30
0.0
 40
0.0406042744428248
 50
78.8055886842938094
 51
101.1944113157062048
  0
ARC
  5
396EE
  8
0
 10
2666.1430003454320286
 20
190.6404789815088918
 30
0.0
 40
0.7407831293138158
 50
99.6267780618197207
 51
105.2705123451919036
  0
LINE
  5
396EF
  8
0
 10
2666.0270023766270242
 20
191.3716029265102065
 30
0.0
 11
2666.0270023766270242
 21
191.3304569268528041
 31
0.0
  0
LINE
  5
396F0
  8
0
 10
2666.3114228320928305
 20
191.2183586838146141
 30
0.0
 11
2666.3433848887780186
 21
191.2381423030334133
 31
0.0
  0
LINE
  5
396F1
  8
0
 10
2666.3734937927479223
 20
191.9044631105174119
 30
0.0
 11
2666.4049898557441338
 21
191.9044631105174119
 31
0.0
  0
ARC
  5
396F2
  8
0
 10
2670.2129447896768397
 20
190.1510361710319899
 30
0.0
 40
0.1277366313352527
 50
1.1145594103426171
 51
33.7337463124887407
  0
LINE
  5
396F3
  8
0
 10
2670.3406572534440784
 20
190.1535208407034077
 30
0.0
 11
2670.3406572534440784
 21
181.932240573609505
 31
0.0
  0
ARC
  5
396F4
  8
0
 10
2670.3825800153649652
 20
181.9295264838964954
 30
0.0
 40
0.0420105254680013
 50
176.2958267498397902
 51
212.9942779692792953
  0
ARC
  5
396F5
  8
0
 10
2671.3764289615810412
 20
182.6675125404574942
 30
0.0
 40
1.2798152243896279
 50
216.4777179413578097
 51
254.6330001525871012
  0
ARC
  5
396F6
  8
0
 10
2671.0511101979159321
 20
181.4797640430030015
 30
0.0
 40
0.0483329131112524
 50
253.3689079233164136
 51
269.4652985088014248
  0
ARC
  5
396F7
  8
0
 10
2670.5996754719549244
 20
190.0310665816701032
 30
0.0
 40
0.0785326235450087
 50
0.1332120030490237
 51
72.2566794578580556
  0
LINE
  5
396F8
  8
0
 10
2670.6782078832438856
 20
190.0312491689174124
 30
0.0
 11
2670.6782088647460114
 21
186.5900978812553888
 31
0.0
  0
ARC
  5
396F9
  8
0
 10
2670.707239607504107
 20
186.5902104905470935
 30
0.0
 40
0.0290309611606387
 50
180.2222473203952973
 51
226.285350475549393
  0
LINE
  5
396FA
  8
0
 10
2670.6871772613440044
 20
186.5692271883173134
 30
0.0
 11
2670.7428410859438372
 21
186.5178289990174108
 31
0.0
  0
ARC
  5
396FB
  8
0
 10
2670.761516672981088
 20
186.5389872688475066
 30
0.0
 40
0.028221730046174
 50
228.6032515554987867
 51
269.4906834374194204
  0
LINE
  5
396FC
  8
0
 10
2670.761265806243955
 20
186.5107666538173987
 30
0.0
 11
2671.3364528852439435
 21
186.5107666538173987
 31
0.0
  0
ARC
  5
396FD
  8
0
 10
2670.3349612366291694
 20
191.4153980277347955
 30
0.0
 40
1.875793876008921
 50
320.2173996240165934
 51
325.0479298052754871
  0
ARC
  5
396FE
  8
0
 10
2670.3526791397948728
 20
191.4030138939560004
 30
0.0
 40
1.8541769645264381
 50
325.0479298052754871
 51
3.8328543792774239
  0
ARC
  5
396FF
  8
0
 10
2672.1116664475989637
 20
191.5208588238108121
 30
0.0
 40
0.0912465131169482
 50
3.8328543792806742
 51
32.1670678699751633
  0
ARC
  5
39700
  8
0
 10
2670.6169466691421803
 20
190.5791626403025134
 30
0.0
 40
1.857875740133939
 50
32.209366531642047
 51
75.7906297231132413
  0
ARC
  5
39701
  8
0
 10
2671.0503977655362178
 20
192.3017905907740897
 30
0.0
 40
0.0815970006892456
 50
73.9248091885247334
 51
89.8164627578266135
  0
ARC
  5
39702
  8
0
 10
2671.7131684101609608
 20
190.2642508690038881
 30
0.0
 40
0.0801274705925691
 50
289.8164863849906965
 51
322.1834361541884277
  0
ARC
  5
39703
  8
0
 10
2671.0506591471439606
 20
191.9139923941175141
 30
0.0
 40
1.8578757404000961
 50
283.2888068110177073
 51
291.7906296069448899
  0
ARC
  5
39704
  8
0
 10
2671.0505914949990256
 20
192.1228104383343975
 30
0.0
 40
0.0891220048596365
 50
77.3168291259995328
 51
89.9565070069641877
  0
ARC
  5
39705
  8
0
 10
2670.6169463072001236
 20
190.5791631782958007
 30
0.0
 40
1.6924067466323509
 50
33.5328615049864212
 51
74.4670869941328988
  0
ARC
  5
39706
  8
0
 10
2671.9513023405538661
 20
191.4687524579578053
 30
0.0
 40
0.0888159814828503
 50
5.3178123748260848
 51
30.6831193731179717
  0
ARC
  5
39707
  8
0
 10
2670.3488964528401084
 20
191.4041334218998998
 30
0.0
 40
1.692408268679813
 50
321.5328623079507793
 51
2.4670861819167791
  0
ARC
  5
39708
  8
0
 10
2671.6072860052531723
 20
190.4099847508726953
 30
0.0
 40
0.0888173561574696
 50
293.3178647683193958
 51
318.6821361150292091
  0
ARC
  5
39709
  8
0
 10
2671.0506584750560251
 20
191.9139998998869885
 30
0.0
 40
1.692414475169818
 50
270.0000227784141202
 51
290.4670490414450228
  0
ARC
  5
3970A
  8
0
 10
2671.8110514595391578
 20
191.9983226168534998
 30
0.0
 40
0.0118110237103012
 50
335.3588135071175884
 51
53.999999487436142
  0
LINE
  5
3970B
  8
0
 10
2671.8179938051757745
 20
192.0078779356940117
 30
0.0
 11
2671.6045916860198304
 21
192.1629236537440022
 31
0.0
  0
ARC
  5
3970C
  8
0
 10
2671.5976493408647912
 20
192.1533683355667108
 30
0.0
 40
0.0118110228906074
 50
53.999999487437087
 51
132.6412014271076032
  0
ARC
  5
3970D
  8
0
 10
2671.070344186544844
 20
192.2504768900197121
 30
0.0
 40
0.1500492125976294
 50
40.7209358709963922
 51
90.0000000004168754
  0
ARC
  5
3970E
  8
0
 10
2671.0506591468438273
 20
192.1315684750688035
 30
0.0
 40
0.3149606339486013
 50
73.0433342494211217
 51
89.9999999454145581
  0
ARC
  5
3970F
  8
0
 10
2670.5490507535259894
 20
190.4860582790938963
 30
0.0
 40
2.0352265388201221
 50
46.5474119428954083
 51
73.0464041573810761
  0
ARC
  5
39710
  8
0
 10
2671.0506591472881155
 20
192.4958130685371884
 30
0.0
 40
0.1449291319801134
 50
75.9816919821088561
 51
90.0000000569825147
  0
ARC
  5
39711
  8
0
 10
2670.5486723219692067
 20
190.4851910634073988
 30
0.0
 40
2.2172687808567271
 50
32.0183079888227624
 51
75.9816920078888103
  0
ARC
  5
39712
  8
0
 10
2673.4927189762929629
 20
191.9650927341214981
 30
0.0
 40
0.2002665001870832
 50
359.5512628686041126
 51
38.3822322141446719
  0
ARC
  5
39713
  8
0
 10
2669.3268109270438799
 20
188.7988849095173975
 30
0.0
 40
5.4327857637999761
 50
37.2781155537535724
 51
70.721884434667686
  0
ARC
  5
39714
  8
0
 10
2671.0507442911061844
 20
193.7393840417308013
 30
0.0
 40
0.2001885064932283
 50
69.6177677742935401
 51
90.0243689804724312
  0
ARC
  5
39715
  8
0
 10
2671.0501082360110559
 20
193.5341395467046084
 30
0.0
 40
0.2082874637143759
 50
71.366422834722357
 51
89.8484550196971696
  0
ARC
  5
39716
  8
0
 10
2669.3268109415171239
 20
188.7988849440154979
 30
0.0
 40
5.2473169564832487
 50
37.943771051394279
 51
70.0562287639891537
  0
ARC
  5
39717
  8
0
 10
2673.2979119639621786
 20
191.9012121464378993
 30
0.0
 40
0.2081199596953771
 50
17.4201168853721313
 51
36.6335769806587592
  0
LINE
  5
39718
  8
0
 10
2671.7606610408438428
 20
190.1535208407034077
 30
0.0
 11
2671.7606610408438428
 21
181.932240573609505
 31
0.0
  0
ARC
  5
39719
  8
0
 10
2671.7187382789220464
 20
181.9295264838964954
 30
0.0
 40
0.0420105254680013
 50
327.0057220307206762
 51
3.7041732501618139
  0
ARC
  5
3971A
  8
0
 10
2670.7248893327068799
 20
182.6675125404574942
 30
0.0
 40
1.2798152243896279
 50
285.3669998474128988
 51
323.522282058642304
  0
ARC
  5
3971B
  8
0
 10
2671.0502080963719891
 20
181.4797640430030015
 30
0.0
 40
0.0483329131112524
 50
270.5347014911985752
 51
286.6310920766835011
  0
LINE
  5
3971C
  8
0
 10
2671.4231104110440356
 20
190.0312491689174124
 30
0.0
 11
2671.4231094295419098
 21
186.5900978812553888
 31
0.0
  0
ARC
  5
3971D
  8
0
 10
2671.3940786867838142
 20
186.5902104905470935
 30
0.0
 40
0.0290309611606387
 50
313.7146495244494986
 51
359.7777526796047027
  0
LINE
  5
3971E
  8
0
 10
2671.4141410329439168
 20
186.5692271883173134
 30
0.0
 11
2671.3584772083440839
 21
186.5178289990174108
 31
0.0
  0
ARC
  5
3971F
  8
0
 10
2671.3398016213068331
 20
186.5389872688475066
 30
0.0
 40
0.028221730046174
 50
270.5093165625806932
 51
311.3967484445012133
  0
LINE
  5
39720
  8
0
 10
2671.3400524880439662
 20
186.5107666538173987
 30
0.0
 11
2670.7648654090439777
 21
186.5107666538173987
 31
0.0
  0
ARC
  5
39721
  8
0
 10
2671.8883735046110814
 20
190.1510361710319899
 30
0.0
 40
0.1277366313352527
 50
146.2662536875112096
 51
178.8854405896574065
  0
ARC
  5
39722
  8
0
 10
2671.5016428223320872
 20
190.0310665816701032
 30
0.0
 40
0.0785326235450087
 50
107.7433205421419018
 51
179.8667879969509045
  0
ARC
  5
39723
  8
0
 10
2668.2616034334851065
 20
192.0777453420423058
 30
0.0
 40
5.432576785110137
 50
325.2777909500661053
 51
358.795263030056617
  0
ARC
  5
39724
  8
0
 10
2672.552963550415825
 20
189.1038138137620024
 30
0.0
 40
0.2114619245878787
 50
286.7241531362795968
 51
325.2758477516323978
  0
ARC
  5
39725
  8
0
 10
2671.0468371238112013
 20
194.1192098696648998
 30
0.0
 40
5.4481225383356868
 50
277.5286538273959991
 51
286.7153973240471032
  0
ARC
  5
39726
  8
0
 10
2673.2983739947972026
 20
191.9023104327777105
 30
0.0
 40
0.2073523144784048
 50
359.3220195988008072
 51
17.1687765495699196
  0
ARC
  5
39727
  8
0
 10
2668.2614141444410052
 20
192.077839056624498
 30
0.0
 40
5.2473169786932168
 50
325.9437713898760194
 51
358.0562288752370819
  0
ARC
  5
39728
  8
0
 10
2672.4406036666400723
 20
189.258463944291293
 30
0.0
 40
0.2060896177385304
 50
287.3220144892384837
 51
324.6779806663229238
  0
ARC
  5
39729
  8
0
 10
2671.0506592534002266
 20
194.1043435852859034
 30
0.0
 40
5.2473163722166909
 50
277.7764073048635964
 51
286.0562294845067868
  0
ARC
  5
3972A
  8
0
 10
2670.5530459197148048
 20
190.4886345236533884
 30
0.0
 40
2.030608951862817
 50
34.9477404641521119
 51
46.579252160357477
  0
ARC
  5
3972B
  8
0
 10
2671.9591877531620412
 20
191.4713154923703087
 30
0.0
 40
0.3151216327468895
 50
1.0522595657327041
 51
34.9477404641521119
  0
ARC
  5
3972C
  8
0
 10
2670.2393515514468163
 20
191.4397264712879974
 30
0.0
 40
2.0352479150252289
 50
322.9477404335676738
 51
1.0522595657327041
  0
ARC
  5
3972D
  8
0
 10
2671.6121105326710676
 20
190.4033139403410928
 30
0.0
 40
0.3151844990904073
 50
298.1195509907843189
 51
322.9477404335664232
  0
ARC
  5
3972E
  8
0
 10
2672.3057650199029922
 20
191.5839252726783002
 30
0.0
 40
0.1449291340435277
 50
3.9816921197093622
 51
32.0183078734746971
  0
ARC
  5
3972F
  8
0
 10
2670.2384274131918573
 20
191.4400267420620025
 30
0.0
 40
2.2172687701154268
 50
320.0183078777193941
 51
3.9816921197109871
  0
ARC
  5
39730
  8
0
 10
2671.8263572359210229
 20
190.1084598285457048
 30
0.0
 40
0.1449291340801212
 50
291.9816921338450015
 51
320.0183078777193941
  0
ARC
  5
39731
  8
0
 10
2671.0506591596290491
 20
192.0301476069822115
 30
0.0
 40
2.2172687354377891
 50
288.6759051100215174
 51
291.9816921338450015
  0
ARC
  5
39732
  8
0
 10
2671.8727879659159044
 20
191.4471764379129013
 30
0.0
 40
2.2294465690156029
 50
208.3439965354658057
 51
219.9590547300171011
  0
ARC
  5
39733
  8
0
 10
2670.2748223313751623
 20
190.1082688874818984
 30
0.0
 40
0.144700158111749
 50
219.9590547300171011
 51
248.0409453301078884
  0
ARC
  5
39734
  8
0
 10
2671.0614123837440275
 20
192.0591603922264881
 30
0.0
 40
2.2481976203806902
 50
248.0409453301078884
 51
251.3012438977621912
  0
ARC
  5
39735
  8
0
 10
2671.0687489110910064
 20
194.1835188656662012
 30
0.0
 40
5.5138199475903846
 50
253.3348088678397971
 51
262.4120165822831723
  0
ARC
  5
39736
  8
0
 10
2669.541607858595853
 20
189.0945275226056879
 30
0.0
 40
0.2006626997584497
 50
213.6421371391317052
 51
254.3578626416473014
  0
ARC
  5
39737
  8
0
 10
2673.8399064311138318
 20
192.0778404174864136
 30
0.0
 40
5.432788396068525
 50
198.1142695920237031
 51
214.7218824313488881
  0
ARC
  5
39738
  8
0
 10
2671.0570133726128006
 20
194.1303415651281057
 30
0.0
 40
5.2740577922290326
 50
253.9555476513532142
 51
262.1935924995609071
  0
ARC
  5
39739
  8
0
 10
2669.6600112275377796
 20
189.2574958048296878
 30
0.0
 40
0.2049563198505408
 50
215.2148862675319094
 51
252.7851212403012937
  0
ARC
  5
3973A
  8
0
 10
2673.8471774485951755
 20
192.0814524080082037
 30
0.0
 40
5.2553664416348829
 50
198.7897850423086936
 51
214.0444598564743899
  0
LINE
  5
3973B
  8
0
 10
2673.4964865588799512
 20
191.9635182286172892
 30
0.0
 11
2673.6821124804168903
 21
192.0301832226155057
 31
0.0
  0
LINE
  5
3973C
  8
0
 10
2672.6772577524361623
 20
188.9327375240702906
 30
0.0
 11
2672.5617400975488636
 21
189.091733936055391
 31
0.0
  0
LINE
  5
3973D
  8
0
 10
2669.4236612826830424
 20
188.9321879885895896
 30
0.0
 11
2669.5395409362290593
 21
189.0916826510731141
 31
0.0
  0
LINE
  5
3973E
  8
0
 10
2671.0507442911061844
 20
193.9395725482239925
 30
0.0
 11
2671.0506591471439606
 21
193.7424262818499869
 31
0.0
  0
LINE
  5
3973F
  8
0
 10
2671.0506591471421416
 20
192.3833871728174074
 30
0.0
 11
2671.0506591471439606
 21
192.211932417516806
 31
0.0
  0
LINE
  5
39740
  8
0
 10
2672.0357711353299237
 20
191.4961987924276912
 30
0.0
 11
2672.1984469882240774
 21
191.5490557017377
 31
0.0
  0
LINE
  5
39741
  8
0
 10
2671.6594915379041595
 20
190.3381300007482935
 30
0.0
 11
2671.7821442497011049
 21
190.2219727087691865
 31
0.0
  0
LINE
  5
39742
  8
0
 10
2670.4418267563842164
 20
190.3381300007482935
 30
0.0
 11
2670.3410518278537893
 21
190.1994266093560952
 31
0.0
  0
LINE
  5
39743
  8
0
 10
2670.0615822421441408
 20
191.4769839354173087
 30
0.0
 11
2669.9028712366689433
 21
191.5490554881604908
 31
0.0
  0
LINE
  5
39744
  8
0
 10
2670.6782088650079459
 20
186.5891819882174048
 30
0.0
 11
2671.4231094292799753
 21
186.5891819882174048
 31
0.0
  0
ARC
  5
39745
  8
0
 10
2671.0506591471439606
 20
191.9139923941174004
 30
0.0
 40
1.8578757404000681
 50
256.5587915024916015
 51
283.288806811042889
  0
LINE
  5
39746
  8
0
 10
2671.0506591471439606
 20
186.5107666538173987
 30
0.0
 11
2671.0506591471439606
 21
181.4314332345778951
 31
0.0
  0
LINE
  5
39747
  8
0
 10
2671.0506591471439606
 20
186.5891819882174048
 30
0.0
 11
2671.0506591471439606
 21
190.0561166537173108
 31
0.0
  0
ARC
  5
39748
  8
0
 10
2664.5392209070228091
 20
186.0852818441136947
 30
0.0
 40
5.4597264353197072
 50
79.5652411689069368
 51
82.7097116197202951
  0
ARC
  5
39749
  8
0
 10
2664.7418951828171885
 20
187.1858064899452074
 30
0.0
 40
4.340694997802772
 50
75.4168591334825038
 51
79.5652411689069368
  0
ARC
  5
3974A
  8
0
 10
2664.9937359759651372
 20
188.1538057730892035
 30
0.0
 40
3.340471824075907
 50
71.5859009632177248
 51
75.4168591334825038
  0
ARC
  5
3974B
  8
0
 10
2665.2884793716129934
 20
189.0391096958724972
 30
0.0
 40
2.4073926714988452
 50
61.4286331163862229
 51
71.5859009632172132
  0
ARC
  5
3974C
  8
0
 10
2665.9062710156881622
 20
190.1735682988662006
 30
0.0
 40
1.115625340515809
 50
41.4155227291466517
 51
61.4286331163862229
  0
ARC
  5
3974D
  8
0
 10
2666.1713605757981895
 20
190.4074038542356107
 30
0.0
 40
0.7621404867604435
 50
10.3876052136230506
 51
41.4155227291466517
  0
ARC
  5
3974E
  8
0
 10
2665.1187851967988536
 20
190.214455486194197
 30
0.0
 40
1.8322544999409891
 50
0.4477902161328535
 51
10.3876052136230506
  0
ARC
  5
3974F
  8
0
 10
2704.5247489347689225
 20
190.4302455625577011
 30
0.0
 40
37.5743053333186268
 50
180.3072168217381943
 51
181.0992888856312959
  0
ARC
  5
39750
  8
0
 10
2666.5929276613610455
 20
189.7390230604931105
 30
0.0
 40
0.365634981218809
 50
314.4555321518961932
 51
355.3499637197315906
  0
ARC
  5
39751
  8
0
 10
2665.9434685505011657
 20
190.4771412572333134
 30
0.0
 40
1.3484081442958851
 50
288.2784741294997275
 51
312.1873861090077753
  0
ARC
  5
39752
  8
0
 10
2664.6716024842871775
 20
194.2545967833335112
 30
0.0
 40
5.3342180286902163
 50
272.5141055114066262
 51
288.5249521453503121
  0
ARC
  5
39753
  8
0
 10
2664.0325023490090643
 20
208.8101657310766939
 30
0.0
 40
19.9038108979304589
 50
271.0496522985852721
 51
272.5141055114066262
  0
ARC
  5
39754
  8
0
 10
2664.3869760564189164
 20
196.7408300371355949
 30
0.0
 40
7.8311418223570284
 50
263.3975866333768749
 51
270.074199273130489
  0
ARC
  5
39755
  8
0
 10
2664.1367596255940953
 20
194.2191767683715113
 30
0.0
 40
5.2976043330885281
 50
250.8293096991627067
 51
262.9500383848941283
  0
ARC
  5
39756
  8
0
 10
2662.8104269068071517
 20
190.4404620309053939
 30
0.0
 40
1.2929492814394461
 50
229.6119195427801003
 51
251.3572144761504887
  0
ARC
  5
39757
  8
0
 10
2662.2418061571638646
 20
189.7720532308563008
 30
0.0
 40
0.415395932116629
 50
198.144729377768698
 51
229.6119195427801003
  0
ARC
  5
39758
  8
0
 10
2662.2148652462838072
 20
189.7237351789289903
 30
0.0
 40
0.3766217083946548
 50
182.1838798715330938
 51
192.4264641700110019
  0
LINE
  5
39759
  8
0
 10
2661.8385170868059504
 20
189.7093833814174104
 30
0.0
 11
2661.8484211728791706
 21
190.3678937543187999
 31
0.0
  0
ARC
  5
3975A
  8
0
 10
2662.7608282523688104
 20
190.3371626216485879
 30
0.0
 40
0.91292446632714
 50
141.1233043570238124
 51
178.0709281311650898
  0
ARC
  5
3975B
  8
0
 10
2663.0626589905350556
 20
189.9625286668236868
 30
0.0
 40
1.386808493961732
 50
109.7711133458502957
 51
136.8967239919194867
  0
ARC
  5
3975C
  8
0
 10
2663.885499014988909
 20
187.9256336003701051
 30
0.0
 40
3.5829844346121749
 50
99.9981307966721857
 51
111.1357208811675008
  0
ARC
  5
3975D
  8
0
 10
2664.2368539934927867
 20
186.2025034592084864
 30
0.0
 40
5.3411525108851858
 50
97.2132460143558319
 51
100.500772933023697
  0
ARC
  5
3975E
  8
0
 10
2663.515221317922169
 20
191.5739205766961959
 30
0.0
 40
0.0915584502552466
 50
330.7379016692530058
 51
357.3520204933998912
  0
ARC
  5
3975F
  8
0
 10
2663.5348133707047964
 20
191.5629430648490086
 30
0.0
 40
0.0691006164631457
 50
297.0192055774602977
 51
330.7379016692530058
  0
ARC
  5
39760
  8
0
 10
2663.6621343877459367
 20
191.5705898967983956
 30
0.0
 40
0.0554633248053368
 50
181.0439785557680921
 51
205.6860954365411089
  0
ARC
  5
39761
  8
0
 10
2663.7084116541582262
 20
191.5928478108901061
 30
0.0
 40
0.106815054340836
 50
205.6860954365411089
 51
226.8489270662273043
  0
ARC
  5
39762
  8
0
 10
2663.8383533046858247
 20
191.7314586225020889
 30
0.0
 40
0.2968092375091755
 50
226.8489270662273043
 51
246.2316434908065048
  0
ARC
  5
39763
  8
0
 10
2664.1355756376729005
 20
192.4063611214972127
 30
0.0
 40
1.0342605907354661
 50
246.2316434908065048
 51
255.1200192973464027
  0
ARC
  5
39764
  8
0
 10
2664.228101542494187
 20
192.7545886399657888
 30
0.0
 40
1.3945708010844351
 50
255.1200192973464027
 51
262.6602244159495854
  0
ARC
  5
39765
  8
0
 10
2664.4402381573040657
 20
194.4015017683177007
 30
0.0
 40
3.055090236586933
 50
262.6602244159495854
 51
267.2548175717626009
  0
ARC
  5
39766
  8
0
 10
2664.3800854085898209
 20
193.1469909853989009
 30
0.0
 40
1.79913814449204
 50
267.2548175717626009
 51
270.5424179808808276
  0
ARC
  5
39767
  8
0
 10
2664.3667219157250656
 20
194.5585387095933072
 30
0.0
 40
3.210749125116652
 50
270.5424179808808276
 51
275.3907526542026858
  0
ARC
  5
39768
  8
0
 10
2664.5175568337949699
 20
192.9601184661721902
 30
0.0
 40
1.6052278866748839
 50
275.3907526542026858
 51
287.0832171130847996
  0
ARC
  5
39769
  8
0
 10
2664.8210914405722178
 20
191.9724344827041875
 30
0.0
 40
0.5719549756247169
 50
287.0832171130847996
 51
302.7348696428318817
  0
ARC
  5
3976A
  8
0
 10
2665.0442583569179078
 20
191.6252811958428879
 30
0.0
 40
0.1592578989086657
 50
302.7348696428318817
 51
327.0415489890639833
  0
ARC
  5
3976B
  8
0
 10
2665.1273459054709747
 20
191.5714091331495865
 30
0.0
 40
0.0602339630978468
 50
327.0415489890652907
 51
358.1841198118917191
  0
LINE
  5
3976C
  8
0
 10
2665.1875496200441376
 20
191.569500452417401
 30
0.0
 11
2665.185307439243843
 21
191.6920456217173125
 31
0.0
  0
ARC
  5
3976D
  8
0
 10
2665.0929844102579409
 20
191.689878420529908
 30
0.0
 40
0.0923484620452006
 50
1.34472062637273
 51
27.578587614671779
  0
ARC
  5
3976E
  8
0
 10
2665.0438696538890326
 20
191.6642252133852082
 30
0.0
 40
0.1477591679606261
 50
27.578587614671779
 51
47.4158055817401021
  0
ARC
  5
3976F
  8
0
 10
2664.9415215829390036
 20
191.5528608799720871
 30
0.0
 40
0.2990110849191916
 50
47.4158055817401021
 51
58.2009347306694735
  0
ARC
  5
39770
  8
0
 10
2664.872763085034876
 20
191.4419607357613984
 30
0.0
 40
0.4294969961125736
 50
58.2009347306694735
 51
61.316696083530509
  0
ARC
  5
39771
  8
0
 10
2665.275380608064097
 20
191.5737613053954931
 30
0.0
 40
0.0880432361466369
 50
183.513919823540391
 51
214.4421231763865023
  0
ARC
  5
39772
  8
0
 10
2665.2620368962247994
 20
191.564610258491399
 30
0.0
 40
0.0718631154704718
 50
214.4421231763851949
 51
240.6202952272269044
  0
ARC
  5
39773
  8
0
 10
2665.232007594865081
 20
191.5136466356223082
 30
0.0
 40
0.0127750152554868
 50
245.8510313517346901
 51
270.1497252926669717
  0
ARC
  5
39774
  8
0
 10
2664.3984470937048172
 20
190.9115583042824085
 30
0.0
 40
0.8099676543117126
 50
86.9263279330737788
 51
90.094048394411999
  0
ARC
  5
39775
  8
0
 10
2664.4058670117337897
 20
191.0056235672929006
 30
0.0
 40
0.7156437658099281
 50
79.9132041704760496
 51
87.1157120104527252
  0
ARC
  5
39776
  8
0
 10
2664.4709732700662244
 20
191.3418209252733106
 30
0.0
 40
0.3732765982438451
 50
67.1547847431407092
 51
80.71422383829983
  0
ARC
  5
39777
  8
0
 10
2664.5651793687047757
 20
191.565434239676506
 30
0.0
 40
0.1306293163731253
 50
40.8076472809890802
 51
67.1547847431407092
  0
LINE
  5
39778
  8
0
 10
2664.4049940035702093
 20
191.7214994990627872
 30
0.0
 11
2664.4068532437440808
 21
191.9813871062173121
 31
0.0
  0
ARC
  5
39779
  8
0
 10
2664.4268001695731982
 20
191.9812444055851017
 30
0.0
 40
0.0199474362640403
 50
143.1661199005384901
 51
179.5901120528480988
  0
ARC
  5
3977A
  8
0
 10
2664.4253180783061907
 20
191.9820377916817051
 30
0.0
 40
0.0182873290240065
 50
89.4204288780483552
 51
142.3718531931627069
  0
ARC
  5
3977B
  8
0
 10
2664.4000487713801704
 20
189.8973175345433049
 30
0.0
 40
2.1031606912286551
 50
84.2471346194522965
 51
89.306539496273615
  0
ARC
  5
3977C
  8
0
 10
2664.4902255681267889
 20
190.630776913252987
 30
0.0
 40
1.3644524509076701
 50
72.5910339586861113
 51
84.9275119450677352
  0
ARC
  5
3977D
  8
0
 10
2664.7499181670041253
 20
191.4590027905464069
 30
0.0
 40
0.4964672265346375
 50
53.8162007398535565
 51
72.5910339586861113
  0
ARC
  5
3977E
  8
0
 10
2664.9442449952648531
 20
191.7369777254293979
 30
0.0
 40
0.1575474256740353
 50
31.2684418830169406
 51
51.1736671158969401
  0
ARC
  5
3977F
  8
0
 10
2664.9992162068037942
 20
191.7709937200451122
 30
0.0
 40
0.0929067007251719
 50
1.168133202518743
 51
30.9340167488634101
  0
LINE
  5
39780
  8
0
 10
2665.0921035993437727
 20
191.7728877493173059
 30
0.0
 11
2665.0927601138350838
 21
191.7013534670473973
 31
0.0
  0
LINE
  5
39781
  8
0
 10
2665.0927601138350838
 20
191.7013534670473973
 30
0.0
 11
2665.0932563290439248
 21
191.6472760106173894
 31
0.0
  0
ARC
  5
39782
  8
0
 10
2664.41203357848417
 20
191.8222326324126072
 30
0.0
 40
0.0069694024425839
 50
204.5444948074595004
 51
246.8168760825373056
  0
ARC
  5
39783
  8
0
 10
2664.420144265513045
 20
191.8411716873239072
 30
0.0
 40
0.027572097533491
 50
246.8168760825373056
 51
259.6078698013374719
  0
ARC
  5
39784
  8
0
 10
2664.4241026451659309
 20
191.8627558988553972
 30
0.0
 40
0.0495162757344164
 50
259.6078698013374719
 51
268.8147512758537232
  0
ARC
  5
39785
  8
0
 10
2664.4055949877979401
 20
190.9682099955111028
 30
0.0
 40
0.8452210636961059
 50
85.7130569385583669
 51
88.8147512758537658
  0
ARC
  5
39786
  8
0
 10
2664.4114686943198649
 20
191.0465666119729917
 30
0.0
 40
0.7666446055700148
 50
78.348870930912085
 51
85.7130569385583669
  0
ARC
  5
39787
  8
0
 10
2664.4887296449751375
 20
191.4212547906871862
 30
0.0
 40
0.3840737157150298
 50
64.4686697761783307
 51
78.348870930912085
  0
ARC
  5
39788
  8
0
 10
2664.6150844153589787
 20
191.6857907129827936
 30
0.0
 40
0.0909103104548535
 50
36.4375916965378082
 51
64.4686697761783307
  0
ARC
  5
39789
  8
0
 10
2664.6662370751309936
 20
191.7235555350362972
 30
0.0
 40
0.0273274795460743
 50
8.342918025806739
 51
36.437591696531257
  0
ARC
  5
3978A
  8
0
 10
2664.6713731845361508
 20
191.7243087419334984
 30
0.0
 40
0.022136435291267
 50
325.6033200101811076
 51
8.3429180258099613
  0
ARC
  5
3978B
  8
0
 10
2664.6371829438749046
 20
191.7542188475588887
 30
0.0
 40
0.0674588926286593
 50
302.0315708044175835
 51
321.0413585286627267
  0
ARC
  5
3978C
  8
0
 10
2664.6839632169680954
 20
191.6807673882379106
 30
0.0
 40
0.019634148252867
 50
124.0764622237270061
 51
179.8745385065705875
  0
LINE
  5
3978D
  8
0
 10
2664.6643291157861313
 20
191.6808103814148865
 30
0.0
 11
2664.6640537219718681
 21
191.6508033240230873
 31
0.0
  0
LINE
  5
3978E
  8
0
 10
2664.6640537219718681
 20
191.6508033240230873
 30
0.0
 11
2664.6635087837439642
 21
191.5914265630173077
 31
0.0
  0
ARC
  5
3978F
  8
0
 10
2664.6549834883048788
 20
191.5743045706429939
 30
0.0
 40
0.0172953812052577
 50
89.0230901391292377
 51
113.7973168369684061
  0
ARC
  5
39790
  8
0
 10
2664.636353325609889
 20
190.4819751250533102
 30
0.0
 40
1.1097836880827909
 50
88.5978813310040749
 51
89.0228929508125617
  0
ARC
  5
39791
  8
0
 10
2664.7065502284958711
 20
193.3499088172397933
 30
0.0
 40
1.7590089617880531
 50
268.5978813310040891
 51
269.401518030158627
  0
ARC
  5
39792
  8
0
 10
2664.4391039918277784
 20
169.3168833823010004
 30
0.0
 40
22.2755049772095397
 50
88.6401433861360175
 51
89.3593356468047517
  0
ARC
  5
39793
  8
0
 10
2664.9676208325417974
 20
191.5666443773733931
 30
0.0
 40
0.0194707316625731
 50
16.3246793470380283
 51
89.6474377438402286
  0
ARC
  5
39794
  8
0
 10
2665.0238285897821697
 20
191.6792623098712056
 30
0.0
 40
0.0824767050056292
 50
18.1097326883493785
 51
33.5760809816944317
  0
ARC
  5
39795
  8
0
 10
2665.0382995779691555
 20
191.6839948787909123
 30
0.0
 40
0.067251505246778
 50
347.4346385617715782
 51
18.1097326883509311
  0
ARC
  5
39796
  8
0
 10
2665.0362528531668431
 20
191.688476468924506
 30
0.0
 40
0.0703340175648802
 50
324.1416889235188137
 51
344.2323320919641105
  0
ARC
  5
39797
  8
0
 10
2664.919444501333146
 20
191.7883307884189037
 30
0.0
 40
0.2238459331609392
 50
294.803266513793119
 51
320.9393824536932129
  0
ARC
  5
39798
  8
0
 10
2664.8267800478438403
 20
191.9381330987121999
 30
0.0
 40
0.399269765835017
 50
293.5497845549907083
 51
297.8575397413529799
  0
ARC
  5
39799
  8
0
 10
2664.552028442691153
 20
192.6317152276544959
 30
0.0
 40
1.1451399307574961
 50
275.1793710084867257
 51
292.2863591322795855
  0
ARC
  5
3979A
  8
0
 10
2664.3966155307689405
 20
193.935694896484307
 30
0.0
 40
2.458104582830027
 50
270.0135734691403968
 51
276.0432996747433094
  0
ARC
  5
3979B
  8
0
 10
2664.6823969131410195
 20
191.6826408015423908
 30
0.0
 40
0.0172401328203411
 50
91.8790040586870589
 51
120.0840620555471929
  0
ARC
  5
3979C
  8
0
 10
-1679.0976310401260889
 20
-263882.8203818221809343
 30
0.0
 40
264110.2433968234108761
 50
89.0575552398621113
 51
89.057622874433946
  0
ARC
  5
3979D
  8
0
 10
2664.9071290800047791
 20
191.8560209429620045
 30
0.0
 40
0.1829757407151418
 50
298.1868060947999766
 51
326.0477263887381127
  0
ARC
  5
3979E
  8
0
 10
2665.0011523548910191
 20
191.790404068966609
 30
0.0
 40
0.0683628687702982
 50
327.6547660366431955
 51
22.2739958367244206
  0
ARC
  5
3979F
  8
0
 10
2664.9531502704030572
 20
191.7660633729807955
 30
0.0
 40
0.1220859378579574
 50
24.3064789928086995
 51
51.4817861047631808
  0
ARC
  5
397A0
  8
0
 10
2664.5229398723040504
 20
191.1694614259671994
 30
0.0
 40
0.8575048519718306
 50
53.8170695605207712
 51
60.3075029501724913
  0
ARC
  5
397A1
  8
0
 10
2664.989812833814085
 20
191.6714817261614883
 30
0.0
 40
0.0235615959496669
 50
3.6645742262057048
 51
80.8557177309660062
  0
LINE
  5
397A2
  8
0
 10
2665.0133262540189207
 20
191.6729876723601933
 30
0.0
 11
2665.0133487288439937
 21
191.5851338449174079
 31
0.0
  0
ARC
  5
397A3
  8
0
 10
2664.8834024955967834
 20
191.8944246294846891
 30
0.0
 40
0.2567382109918539
 50
300.4014373508568951
 51
315.1411341061808002
  0
ARC
  5
397A4
  8
0
 10
2664.9963005548988804
 20
191.78208139800401
 30
0.0
 40
0.0974680836804505
 50
315.141134106181994
 51
341.2941122857441769
  0
ARC
  5
397A5
  8
0
 10
2665.022933615744023
 20
191.7730635537849935
 30
0.0
 40
0.0693497365679654
 50
341.2941122857457117
 51
356.3480050098448828
  0
ARC
  5
397A6
  8
0
 10
2665.0008560173400838
 20
191.613006009711512
 30
0.0
 40
0.1074948613879154
 50
24.0268927377987502
 51
30.9309103134049792
  0
ARC
  5
397A7
  8
0
 10
2665.0960391429530318
 20
191.6933576109414901
 30
0.0
 40
0.0895147999349426
 50
326.9811078289753254
 51
356.473115524497473
  0
ARC
  5
397A8
  8
0
 10
2664.9858098615450217
 20
191.7773921637742944
 30
0.0
 40
0.2279699781392007
 50
297.5458307738098256
 51
324.3672292903473817
  0
ARC
  5
397A9
  8
0
 10
2664.5972137451071831
 20
192.5924261770412897
 30
0.0
 40
1.1307856017201521
 50
275.9930900012074062
 51
295.9052655108473004
  0
ARC
  5
397AA
  8
0
 10
2664.4018280385880644
 20
193.8321636596054987
 30
0.0
 40
2.385029817737998
 50
270.5069930421394133
 51
277.5518681876206983
  0
ARC
  5
397AB
  8
0
 10
2664.3935268693880971
 20
193.8337939295936962
 30
0.0
 40
2.3867478621055138
 50
270.0881250818899275
 51
270.7059155074903174
  0
ARC
  5
397AC
  8
0
 10
2664.3959325603282196
 20
192.4013445237156077
 30
0.0
 40
0.8513628134046616
 50
270.0851533044918256
 51
273.3376782873255024
  0
ARC
  5
397AD
  8
0
 10
2664.4027492857990183
 20
192.4475254849612043
 30
0.0
 40
0.8971188027562474
 50
272.7313290768091747
 51
277.51389778292031
  0
ARC
  5
397AE
  8
0
 10
2664.4363048094110127
 20
192.2033487306896973
 30
0.0
 40
0.6506521822349929
 50
277.3961447014435748
 51
283.908269057307507
  0
ARC
  5
397AF
  8
0
 10
2664.492139054522795
 20
191.9738725982284109
 30
0.0
 40
0.4144842183602039
 50
284.0411761997661984
 51
289.0930230529122014
  0
ARC
  5
397B0
  8
0
 10
2664.53583642327294
 20
191.8468405226522009
 30
0.0
 40
0.2801469227555777
 50
289.1459998843475887
 51
293.6026307057350095
  0
LINE
  5
397B2
  8
0
 10
2663.6068460999281342
 20
191.569500452417401
 30
0.0
 11
2663.6090882807270646
 21
191.6920456217173125
 31
0.0
  0
ARC
  5
397B3
  8
0
 10
2663.7014113097129666
 20
191.689878420529908
 30
0.0
 40
0.0923484620452006
 50
152.4214123853282103
 51
178.6552793736273088
  0
ARC
  5
397B4
  8
0
 10
2663.7505260660818749
 20
191.6642252133852082
 30
0.0
 40
0.1477591679606261
 50
132.5841944182598979
 51
152.4214123853282103
  0
ARC
  5
397B5
  8
0
 10
2663.852874137031904
 20
191.5528608799720871
 30
0.0
 40
0.2990110849191916
 50
121.799065269330498
 51
132.5841944182598979
  0
ARC
  5
397B6
  8
0
 10
2663.9216326349360315
 20
191.4419607357613984
 30
0.0
 40
0.4294969961125736
 50
118.6833039164694981
 51
121.799065269330498
  0
ARC
  5
397B7
  8
0
 10
2664.3959486262660903
 20
190.9115583042824085
 30
0.0
 40
0.8099676543117126
 50
89.9059516055879868
 51
93.073672066926207
  0
ARC
  5
397B8
  8
0
 10
2664.3885287082371178
 20
191.0056235672929006
 30
0.0
 40
0.7156437658099281
 50
92.8842879895472606
 51
100.086795829523993
  0
ARC
  5
397B9
  8
0
 10
2664.3234224499060474
 20
191.3418209252733106
 30
0.0
 40
0.3732765982438451
 50
99.2857761617001557
 51
112.845215256859305
  0
ARC
  5
397BA
  8
0
 10
2664.2292163512661318
 20
191.565434239676506
 30
0.0
 40
0.1306293163731253
 50
112.845215256859305
 51
139.1923527190108985
  0
LINE
  5
397BB
  8
0
 10
2664.389401716401153
 20
191.7214994990627872
 30
0.0
 11
2664.3875424762268267
 21
191.9813871062173121
 31
0.0
  0
ARC
  5
397BC
  8
0
 10
2664.3675955503981641
 20
191.9812444055851017
 30
0.0
 40
0.0199474362640403
 50
0.4098879471518728
 51
36.8338800994615312
  0
ARC
  5
397BD
  8
0
 10
2664.3690776416651715
 20
191.9820377916817051
 30
0.0
 40
0.0182873290240065
 50
37.6281468068372291
 51
90.5795711219516448
  0
ARC
  5
397BE
  8
0
 10
2664.3943469485911919
 20
189.8973175345433049
 30
0.0
 40
2.1031606912286551
 50
90.693460503726385
 51
95.7528653805477035
  0
ARC
  5
397BF
  8
0
 10
2664.3041701518441187
 20
190.630776913252987
 30
0.0
 40
1.3644524509076701
 50
95.0724880549322791
 51
107.4089660413138034
  0
ARC
  5
397C0
  8
0
 10
2664.0444775529667822
 20
191.4590027905464069
 30
0.0
 40
0.4964672265346375
 50
107.4089660413138034
 51
126.1837992601464009
  0
ARC
  5
397C1
  8
0
 10
2663.8501507247060545
 20
191.7369777254293979
 30
0.0
 40
0.1575474256740353
 50
128.8263328841030955
 51
148.7315581169829954
  0
ARC
  5
397C2
  8
0
 10
2663.7951795131662038
 20
191.7709937200451122
 30
0.0
 40
0.0929067007251719
 50
149.0659832511366005
 51
178.8318667974812115
  0
LINE
  5
397C3
  8
0
 10
2663.7022921206271349
 20
191.7728877493173059
 30
0.0
 11
2663.7016356061358238
 21
191.7013534670473973
 31
0.0
  0
LINE
  5
397C4
  8
0
 10
2663.7016356061358238
 20
191.7013534670473973
 30
0.0
 11
2663.7011393909269827
 21
191.6472760106173894
 31
0.0
  0
ARC
  5
397C5
  8
0
 10
2664.3823621414871923
 20
191.8222326324126072
 30
0.0
 40
0.0069694024425839
 50
293.1831239174626944
 51
335.4555051925403859
  0
ARC
  5
397C6
  8
0
 10
2664.3742514544592268
 20
191.8411716873239072
 30
0.0
 40
0.027572097533491
 50
280.3921301986625281
 51
293.1831239174626944
  0
ARC
  5
397C7
  8
0
 10
2664.3702930748058861
 20
191.8627558988553972
 30
0.0
 40
0.0495162757344164
 50
271.1852487241462768
 51
280.3921301986625281
  0
ARC
  5
397C8
  8
0
 10
2664.3888007321729674
 20
190.9682099955111028
 30
0.0
 40
0.8452210636961059
 50
91.1852487241462342
 51
94.2869430614416331
  0
ARC
  5
397C9
  8
0
 10
2664.3829270256519521
 20
191.0465666119729917
 30
0.0
 40
0.7666446055700148
 50
94.2869430614416331
 51
101.6511290690879008
  0
ARC
  5
397CA
  8
0
 10
2664.3056660749971343
 20
191.4212547906871862
 30
0.0
 40
0.3840737157150298
 50
101.6511290690879008
 51
115.5313302238215982
  0
ARC
  5
397CB
  8
0
 10
2664.1793113046119288
 20
191.6857907129827936
 30
0.0
 40
0.0909103104548535
 50
115.5313302238215982
 51
143.562408303462206
  0
ARC
  5
397CC
  8
0
 10
2664.1281586448408234
 20
191.7235555350362972
 30
0.0
 40
0.0273274795460743
 50
143.5624083034687999
 51
171.6570819741932041
  0
ARC
  5
397CD
  8
0
 10
2664.1230225354352115
 20
191.7243087419334984
 30
0.0
 40
0.022136435291267
 50
171.6570819741899925
 51
214.3966799898190061
  0
ARC
  5
397CE
  8
0
 10
2664.1572127760960029
 20
191.7542188475588887
 30
0.0
 40
0.0674588926286593
 50
218.9586414713373017
 51
237.9684291955823028
  0
ARC
  5
397CF
  8
0
 10
2664.1104325030028122
 20
191.6807673882379106
 30
0.0
 40
0.019634148252867
 50
0.1254614934293784
 51
55.9235377762730295
  0
LINE
  5
397D0
  8
0
 10
2664.1300666041847762
 20
191.6808103814148865
 30
0.0
 11
2664.1303419979990394
 21
191.6508033240230873
 31
0.0
  0
LINE
  5
397D1
  8
0
 10
2664.1303419979990394
 20
191.6508033240230873
 30
0.0
 11
2664.1308869362269434
 21
191.5914265630173077
 31
0.0
  0
ARC
  5
397D2
  8
0
 10
2664.1394122316660287
 20
191.5743045706429939
 30
0.0
 40
0.0172953812052577
 50
66.2026831630315797
 51
90.9769098608707623
  0
ARC
  5
397D3
  8
0
 10
2664.158042394361928
 20
190.4819751250533102
 30
0.0
 40
1.1097836880827909
 50
90.9771070491874383
 51
91.4021186689959535
  0
ARC
  5
397D4
  8
0
 10
2664.0878454914750364
 20
193.3499088172397933
 30
0.0
 40
1.7590089617880531
 50
270.598481969841373
 51
271.4021186689959109
  0
ARC
  5
397D5
  8
0
 10
2664.3552917281431291
 20
169.3168833823010004
 30
0.0
 40
22.2755049772095397
 50
90.6406643531952625
 51
91.3598566138639683
  0
ARC
  5
397D6
  8
0
 10
2663.8267748874300196
 20
191.5666443773733931
 30
0.0
 40
0.0194707316625731
 50
90.3525622561597572
 51
163.6753206529618865
  0
ARC
  5
397D7
  8
0
 10
2663.7705671301891925
 20
191.6792623098712056
 30
0.0
 40
0.0824767050056292
 50
146.423919018305611
 51
161.8902673116506037
  0
ARC
  5
397D8
  8
0
 10
2663.7560961420022068
 20
191.6839948787909123
 30
0.0
 40
0.067251505246778
 50
161.8902673116490973
 51
192.5653614382283934
  0
ARC
  5
397D9
  8
0
 10
2663.7581428668049739
 20
191.688476468924506
 30
0.0
 40
0.0703340175648802
 50
195.7676679080358895
 51
215.8583110764811863
  0
ARC
  5
397DA
  8
0
 10
2663.874951218636852
 20
191.7883307884189037
 30
0.0
 40
0.2238459331609392
 50
219.0606175463067871
 51
245.1967334862067958
  0
ARC
  5
397DB
  8
0
 10
2663.9676156721279767
 20
191.9381330987121999
 30
0.0
 40
0.399269765835017
 50
242.1424602586469916
 51
246.4502154450092917
  0
ARC
  5
397DC
  8
0
 10
2664.2423672772802092
 20
192.6317152276544959
 30
0.0
 40
1.1451399307574961
 50
247.713640867720386
 51
264.8206289915132743
  0
ARC
  5
397DD
  8
0
 10
2664.397780189201967
 20
193.935694896484307
 30
0.0
 40
2.458104582830027
 50
263.9567003252566906
 51
269.9864265308596032
  0
ARC
  5
397DE
  8
0
 10
2664.1119988068307975
 20
191.6826408015423908
 30
0.0
 40
0.0172401328203411
 50
59.9159379444527787
 51
88.1209959413129553
  0
ARC
  5
397DF
  8
0
 10
7007.8920267600979059
 20
-263882.8203818221809343
 30
0.0
 40
264110.2433968234108761
 50
90.9423771255660682
 51
90.9424447601378887
  0
ARC
  5
397E0
  8
0
 10
2663.8872666399661284
 20
191.8560209429620045
 30
0.0
 40
0.1829757407151418
 50
213.9522736112618873
 51
241.8131939051999098
  0
ARC
  5
397E1
  8
0
 10
2663.7932433650798885
 20
191.790404068966609
 30
0.0
 40
0.0683628687702982
 50
157.7260041632756042
 51
212.3452339633568045
  0
ARC
  5
397E2
  8
0
 10
2663.8412454495678503
 20
191.7660633729807955
 30
0.0
 40
0.1220859378579574
 50
128.518213895236812
 51
155.6935210071912934
  0
ARC
  5
397E3
  8
0
 10
2664.2714558476668572
 20
191.1694614259671994
 30
0.0
 40
0.8575048519718306
 50
119.6924970498274945
 51
126.1829304394791933
  0
ARC
  5
397E4
  8
0
 10
2663.8045828861581867
 20
191.6714817261614883
 30
0.0
 40
0.0235615959496669
 50
99.1442822690339796
 51
176.3354257737942987
  0
LINE
  5
397E5
  8
0
 10
2663.7810694659519868
 20
191.6729876723601933
 30
0.0
 11
2663.7810469911269138
 21
191.5851338449174079
 31
0.0
  0
ARC
  5
397E6
  8
0
 10
2663.9109932243741241
 20
191.8944246294846891
 30
0.0
 40
0.2567382109918539
 50
224.8588658938191998
 51
239.5985626491431049
  0
ARC
  5
397E7
  8
0
 10
2663.7980951650720272
 20
191.78208139800401
 30
0.0
 40
0.0974680836804505
 50
198.705887714254203
 51
224.858865893818006
  0
ARC
  5
397E8
  8
0
 10
2663.7714621042259751
 20
191.7730635537849935
 30
0.0
 40
0.0693497365679654
 50
183.6519949901534972
 51
198.705887714254203
  0
ARC
  5
397E9
  8
0
 10
2663.7935397026308237
 20
191.613006009711512
 30
0.0
 40
0.1074948613879154
 50
149.0690896865949924
 51
155.9731072622012107
  0
ARC
  5
397EA
  8
0
 10
2663.6958880088318438
 20
191.6921724392720989
 30
0.0
 40
0.0867998207479644
 50
180.0837111548634084
 51
213.2508523839869952
  0
ARC
  5
397EB
  8
0
 10
2663.8085858584258858
 20
191.7773921637742944
 30
0.0
 40
0.2279699781392007
 50
215.6327707096525899
 51
242.4541692261902028
  0
ARC
  5
397EC
  8
0
 10
2664.1971819748650887
 20
192.5924261770412897
 30
0.0
 40
1.1307856017201521
 50
244.0947344891526996
 51
264.0069099987925938
  0
ARC
  5
397ED
  8
0
 10
2664.3925676813828431
 20
193.8321636596054987
 30
0.0
 40
2.385029817737998
 50
262.448131812379188
 51
269.4930069578605867
  0
ARC
  5
397EE
  8
0
 10
2664.4008688505841747
 20
193.8337939295936962
 30
0.0
 40
2.3867478621055138
 50
269.2940844925096258
 51
269.9118749181100725
  0
ARC
  5
397EF
  8
0
 10
2664.3984631596431427
 20
192.4013445237156077
 30
0.0
 40
0.8513628134046616
 50
266.6623217126743839
 51
269.9148466955081744
  0
ARC
  5
397F0
  8
0
 10
2664.3916464341718893
 20
192.4475254849612043
 30
0.0
 40
0.8971188027562474
 50
262.48610221707969
 51
267.2686709231907116
  0
ARC
  5
397F1
  8
0
 10
2664.3580909105608043
 20
192.2033487306896973
 30
0.0
 40
0.6506521822349929
 50
256.0917309426923794
 51
262.6038552985564252
  0
ARC
  5
397F2
  8
0
 10
2664.302256665449022
 20
191.9738725982284109
 30
0.0
 40
0.4144842183602039
 50
250.9069769470877134
 51
255.9588238002338016
  0
ARC
  5
397F3
  8
0
 10
2664.2585592966979675
 20
191.8468405226522009
 30
0.0
 40
0.2801469227555777
 50
246.3973692942649905
 51
250.8540001156522976
  0
LINE
  5
397F4
  8
0
 10
2664.387446572322915
 20
191.9832032680174052
 30
0.0
 11
2664.4069491476479925
 21
191.9832032680174052
 31
0.0
  0
ARC
  5
397F5
  8
0
 10
2664.1071910950440724
 20
191.9635182286172892
 30
0.0
 40
0.0196850394000661
 50
90.0000000000781455
 51
127.5122614873497042
  0
LINE
  5
397F6
  8
0
 10
2664.1071910950440724
 20
191.9832032680174052
 30
0.0
 11
2664.1234121762900031
 21
191.9832032680174052
 31
0.0
  0
ENDSEC
  0
EOF
