  0
SECTION
  2
HEADER
  9
$ACADVER
  1
AC1009
  9
$INSBASE
 10
2691.9713307297120082
 20
135.0063833235934965
 30
0.0
  9
$EXTMIN
 10
2682.1019508140739163
 20
134.998147207634787
 30
-0.0000000349181948
  9
$EXTMAX
 10
2694.848798765554875
 20
174.4107505791781136
 30
0.0000000814935746
  9
$LIMMIN
 10
0.0
 20
0.0
  9
$LIMMAX
 10
11.6929133858000007
 20
8.2677165353999982
  9
$ORTHOMODE
 70
     1
  9
$REGENMODE
 70
     1
  9
$FILLMODE
 70
     1
  9
$QTEXTMODE
 70
     0
  9
$MIRRTEXT
 70
     0
  9
$DRAGMODE
 70
     2
  9
$LTSCALE
 40
0.6431102362
  9
$OSMODE
 70
  2039
  9
$ATTMODE
 70
     1
  9
$TEXTSIZE
 40
0.2
  9
$TRACEWID
 40
0.05
  9
$TEXTSTYLE
  7
STANDARD
  9
$CLAYER
  8
0
  9
$CELTYPE
  6
BYLAYER
  9
$CECOLOR
 62
   256
  9
$DIMSCALE
 40
1.0
  9
$DIMASZ
 40
0.1875
  9
$DIMEXO
 40
0.0625
  9
$DIMDLI
 40
0.4443307087
  9
$DIMRND
 40
0.0
  9
$DIMDLE
 40
0.0
  9
$DIMEXE
 40
0.125
  9
$DIMTP
 40
0.01
  9
$DIMTM
 40
0.01
  9
$DIMTXT
 40
2.0
  9
$DIMCEN
 40
0.1052362205
  9
$DIMTSZ
 40
0.0
  9
$DIMTOL
 70
     1
  9
$DIMLIM
 70
     0
  9
$DIMTIH
 70
     1
  9
$DIMTOH
 70
     1
  9
$DIMSE1
 70
     0
  9
$DIMSE2
 70
     0
  9
$DIMTAD
 70
     0
  9
$DIMZIN
 70
     0
  9
$DIMBLK
  1

  9
$DIMASO
 70
     1
  9
$DIMSHO
 70
     1
  9
$DIMPOST
  1
\X
  9
$DIMAPOST
  1

  9
$DIMALT
 70
     1
  9
$DIMALTD
 70
     2
  9
$DIMALTF
 40
25.3999999999999986
  9
$DIMLFAC
 40
1.0
  9
$DIMTOFL
 70
     0
  9
$DIMTVP
 40
0.0
  9
$DIMTIX
 70
     0
  9
$DIMSOXD
 70
     0
  9
$DIMSAH
 70
     0
  9
$DIMBLK1
  1

  9
$DIMBLK2
  1

  9
$DIMSTYLE
  2
STANDARD
  9
$DIMCLRD
 70
     0
  9
$DIMCLRE
 70
     0
  9
$DIMCLRT
 70
     0
  9
$DIMTFAC
 40
1.0
  9
$DIMGAP
 40
0.09
  9
$LUNITS
 70
     2
  9
$LUPREC
 70
     4
  9
$SKETCHINC
 40
0.1
  9
$FILLETRAD
 40
0.0
  9
$AUNITS
 70
     0
  9
$AUPREC
 70
     0
  9
$MENU
  1
.
  9
$ELEVATION
 40
0.0
  9
$PELEVATION
 40
0.0
  9
$THICKNESS
 40
0.0
  9
$LIMCHECK
 70
     0
  9
$BLIPMODE
 70
     0
  9
$CHAMFERA
 40
0.0
  9
$CHAMFERB
 40
0.0
  9
$SKPOLY
 70
     0
  9
$TDCREATE
 40
2458060.468368056230247
  9
$TDUPDATE
 40
2459340.8879513889551163
  9
$TDINDWG
 40
0.6777153935
  9
$TDUSRTIMER
 40
0.6777153935
  9
$USRTIMER
 70
     1
  9
$ANGBASE
 50
0.0
  9
$ANGDIR
 70
     0
  9
$PDMODE
 70
     0
  9
$PDSIZE
 40
0.3125
  9
$PLINEWID
 40
0.0
  9
$COORDS
 70
     1
  9
$SPLFRAME
 70
     0
  9
$SPLINETYPE
 70
     6
  9
$SPLINESEGS
 70
     8
  9
$ATTDIA
 70
     1
  9
$ATTREQ
 70
     1
  9
$HANDLING
 70
     1
  9
$HANDSEED
  5
39B2F
  9
$SURFTAB1
 70
     6
  9
$SURFTAB2
 70
     6
  9
$SURFTYPE
 70
     6
  9
$SURFU
 70
     6
  9
$SURFV
 70
     6
  9
$UCSNAME
  2

  9
$UCSORG
 10
0.0
 20
0.0
 30
0.0
  9
$UCSXDIR
 10
1.0
 20
0.0
 30
0.0
  9
$UCSYDIR
 10
0.0
 20
1.0
 30
0.0
  9
$PUCSNAME
  2

  9
$PUCSORG
 10
0.0
 20
0.0
 30
0.0
  9
$PUCSXDIR
 10
1.0
 20
0.0
 30
0.0
  9
$PUCSYDIR
 10
0.0
 20
1.0
 30
0.0
  9
$USERI1
 70
     0
  9
$USERI2
 70
     0
  9
$USERI3
 70
     0
  9
$USERI4
 70
     0
  9
$USERI5
 70
     0
  9
$USERR1
 40
0.0
  9
$USERR2
 40
0.0
  9
$USERR3
 40
0.0
  9
$USERR4
 40
0.0
  9
$USERR5
 40
0.0
  9
$WORLDVIEW
 70
     1
  9
$SHADEDGE
 70
     3
  9
$SHADEDIF
 70
    70
  9
$TILEMODE
 70
     1
  9
$MAXACTVP
 70
    64
  9
$PLIMCHECK
 70
     0
  9
$PEXTMIN
 10
1.0000000000000000E+20
 20
1.0000000000000000E+20
 30
1.0000000000000000E+20
  9
$PEXTMAX
 10
-1.0000000000000000E+20
 20
-1.0000000000000000E+20
 30
-1.0000000000000000E+20
  9
$PLIMMIN
 10
0.0
 20
0.0
  9
$PLIMMAX
 10
12.0
 20
9.0
  9
$UNITMODE
 70
     0
  9
$VISRETAIN
 70
     1
  9
$PLINEGEN
 70
     0
  9
$PSLTSCALE
 70
     1
  0
ENDSEC
  0
SECTION
  2
TABLES
  0
TABLE
  2
VPORT
 70
     1
  0
VPORT
  2
*ACTIVE
 70
     0
 10
0.0
 20
0.0
 11
1.0
 21
1.0
 12
-615.2177404445601496
 22
-40.5570626824812379
 13
0.0
 23
0.0
 14
1.0
 24
1.0
 15
0.0
 25
0.0
 16
0.0
 26
0.0
 36
96.5995694866707311
 17
3303.693115234375
 27
195.2615115758877096
 37
0.0
 40
39.7405862012648825
 41
2.6486111111111108
 42
50.0
 43
0.0
 44
0.0
 50
0.0
 51
0.0
 71
     0
 72
   100
 73
     1
 74
     1
 75
     0
 76
     0
 77
     0
 78
     1
  0
ENDTAB
  0
TABLE
  2
LTYPE
 70
     2
  0
LTYPE
  2
CONTINUOUS
 70
     0
  3
Solid line
 72
    65
 73
     0
 40
0.0
  0
LTYPE
  2
PHANTOM2
 70
     0
  3
___ _ _ ___ _ _ ___ _ _ ___ _ _
 72
    65
 73
     6
 40
1.25
 49
0.625
 49
-0.125
 49
0.125
 49
-0.125
 49
0.125
 49
-0.125
  0
ENDTAB
  0
TABLE
  2
LAYER
 70
     2
  0
LAYER
  2
0
 70
     0
 62
   255
  6
CONTINUOUS
  0
LAYER
  2
DEFPOINTS
 70
     0
 62
     7
  6
CONTINUOUS
  0
ENDTAB
  0
TABLE
  2
STYLE
 70
     1
  0
STYLE
  2
STANDARD
 70
     0
 40
0.0
 41
0.8
 50
0.0
 71
     0
 42
0.2
  3
txt
  4

  0
ENDTAB
  0
TABLE
  2
VIEW
 70
     0
  0
ENDTAB
  0
TABLE
  2
UCS
 70
     0
  0
ENDTAB
  0
TABLE
  2
APPID
 70
     9
  0
APPID
  2
ACAD
 70
     0
  0
APPID
  2
ACAD_MLEADERVER
 70
     0
  0
APPID
  2
ACAD_EXEMPT_FROM_CAD_STANDARDS
 70
     0
  0
APPID
  2
ACAD_NAV_VCDISPLAY
 70
     0
  0
APPID
  2
ACAECLAYERSTANDARD
 70
     0
  0
APPID
  2
ACCMTRANSPARENCY
 70
     0
  0
APPID
  2
ACAD_DSTYLE_DIMJAG
 70
     0
  0
APPID
  2
ACAD_DSTYLE_DIMTALN
 70
     0
  0
APPID
  2
ACDBATTR
 70
     0
  0
ENDTAB
  0
TABLE
  2
DIMSTYLE
 70
     1
  0
DIMSTYLE
  2
STANDARD
 70
     0
  3

  4

  5

  6

  7

 40
1.0
 41
0.1875
 42
0.0625
 43
0.38
 44
0.125
 45
0.0
 46
0.0
 47
0.01
 48
0.01
140
0.15625
141
0.09
142
0.0
143
25.3999999999999986
144
1.0
145
0.0
146
1.0
147
0.09
 71
     1
 72
     0
 73
     1
 74
     1
 75
     0
 76
     0
 77
     0
 78
     4
170
     0
171
     2
172
     0
173
     0
174
     0
175
     0
176
     0
177
     0
178
     0
  0
ENDTAB
  0
ENDSEC
  0
SECTION
  2
BLOCKS
  0
BLOCK
  8
0
  2
$MODEL_SPACE
 70
     0
 10
0.0
 20
0.0
 30
0.0
  3
$MODEL_SPACE
  1

  0
ENDBLK
  5
21
  8
0
  0
BLOCK
 67
     1
  8
0
  2
$PAPER_SPACE
 70
     0
 10
0.0
 20
0.0
 30
0.0
  3
$PAPER_SPACE
  1

  0
ENDBLK
  5
1D
 67
     1
  8
0
  0
BLOCK
  8
0
  2
_FILLED
 70
     0
 10
0.0
 20
0.0
 30
0.0
  3
_FILLED
  1

  0
SOLID
  5
2ABDA
  8
0
  6
BYBLOCK
 62
     0
 10
0.0
 20
0.0
 30
0.0
 11
-1.0
 21
0.1666666667
 31
0.0
 12
-1.0
 22
-0.1666666667
 32
0.0
 13
-1.0
 23
-0.1666666667
 33
0.0
  0
ENDBLK
  5
2ABDB
  8
0
  6
BYBLOCK
 62
     0
  0
ENDSEC
  0
SECTION
  2
ENTITIES
  0
ATTDEF
  5
37C1E
  8
DEFPOINTS
 10
2691.9717398084108027
 20
135.0108924378864117
 30
0.0
 40
0.001
  1
K-EX27025T-4E2
  3

  2
MODELNUMBER
 70
     0
1001
ACDBATTR
1070
     0
1070
     1
  0
ATTDEF
  5
37C1F
  8
DEFPOINTS
 10
2691.9717398084108027
 20
135.0092257712198034
 30
0.0
 40
0.001
  1

  3

  2
TRADENAME
 70
     0
1001
ACDBATTR
1070
     0
1070
     1
  0
ATTDEF
  5
37C20
  8
DEFPOINTS
 10
2691.9717398084108027
 20
135.0075591045531098
 30
0.0
 40
0.001
  1
BATH FILLER
  3

  2
PRODUCT
 70
     0
1001
ACDBATTR
1070
     0
1070
     1
  0
LINE
  5
39774
  8
0
 10
2694.6840867653099849
 20
135.0063833235934965
 30
0.0
 11
2689.4160726685108784
 21
135.0063833235934965
 31
0.0
  0
LINE
  5
39775
  8
0
 10
2689.4160731914098506
 20
135.0063833235934965
 30
0.0
 11
2689.4160726685108784
 21
135.186774703093505
 31
0.0
  0
ARC
  5
39776
  8
0
 10
2689.4554691350649591
 20
135.1867637728369971
 30
0.0
 40
0.039396468071058
 50
135.0158961814885004
 51
179.984103712635914
  0
ARC
  5
39777
  8
0
 10
2681.5858375433917899
 20
143.2303174511446002
 30
0.0
 40
11.2135992679334606
 50
314.3715588064665098
 51
315.6284411768107248
  0
ARC
  5
39778
  8
0
 10
2689.6293802891100313
 20
135.3607122448935911
 30
0.0
 40
0.0393700786999389
 50
89.9999999999739515
 51
134.9999998449100929
  0
LINE
  5
39779
  8
0
 10
2689.6293802891100313
 20
135.4000823235934945
 30
0.0
 11
2694.4599394783099342
 21
135.4000823235934945
 31
0.0
  0
ARC
  5
3977A
  8
0
 10
2694.4604656484229963
 20
135.3620382847728081
 30
0.0
 40
0.0380476772586561
 50
45.9059844851942316
 51
90.7923818200891333
  0
ARC
  5
3977B
  8
0
 10
2755.8617845571561702
 20
200.2963151939327986
 30
0.0
 40
89.3296354257878846
 50
226.6021476921922044
 51
226.7656623227487103
  0
ARC
  5
3977C
  8
0
 10
2694.640236922557051
 20
135.1846529928992879
 30
0.0
 40
0.0438791549870223
 50
2.1022729299185481
 51
42.8117413805830935
  0
LINE
  5
3977D
  8
0
 10
2694.6840865442100039
 20
135.1862626273934893
 30
0.0
 11
2694.6840865442100039
 21
135.0063833235934965
 31
0.0
  0
ARC
  5
3977E
  8
0
 10
2690.3602023755352093
 20
135.5970692386511018
 30
0.0
 40
0.1971907762344983
 50
272.6055476388485204
 51
359.9603323320836807
  0
LINE
  5
3977F
  8
0
 10
2690.5573931045100835
 20
135.5969327172934982
 30
0.0
 11
2690.5573931045100835
 21
136.5418163944935088
 31
0.0
  0
ARC
  5
39780
  8
0
 10
2690.5967631850139696
 20
136.5418163944935088
 30
0.0
 40
0.0393700805037707
 50
89.9826561701825511
 51
180.0
  0
LINE
  5
39781
  8
0
 10
2690.5967751026128099
 20
136.5811864731934975
 30
0.0
 11
2693.3458863568098423
 21
136.5811864731934975
 31
0.0
  0
ARC
  5
39782
  8
0
 10
2693.3458863567179833
 20
136.5418163943006107
 30
0.0
 40
0.0393700788928602
 50
0.0000002806720935
 51
89.9999998648521711
  0
LINE
  5
39783
  8
0
 10
2693.3852564356097901
 20
136.5418163944935088
 30
0.0
 11
2693.3852564402391181
 21
135.5969327172934982
 31
0.0
  0
ARC
  5
39784
  8
0
 10
2693.5822634212390767
 20
135.5969327182586142
 30
0.0
 40
0.1970069809995536
 50
180.0000002806737029
 51
269.5730419510288129
  0
LINE
  5
39785
  8
0
 10
2690.9937169454478862
 20
171.0792311188934889
 30
0.0
 11
2692.9300213044521115
 21
171.0792311188934889
 31
0.0
  0
LINE
  5
39786
  8
0
 10
2690.8006304832301794
 20
170.8859234983935096
 30
0.0
 11
2693.1278876223482257
 21
170.8859234983935096
 31
0.0
  0
LINE
  5
39787
  8
0
 10
2691.8539150748379143
 20
169.8292311188934889
 30
0.0
 11
2690.892558937888225
 21
169.8292311188934889
 31
0.0
  0
LINE
  5
39788
  8
0
 10
2690.9422281253141591
 20
169.7308059220935093
 30
0.0
 11
2692.9827520522489976
 21
169.7308059220935093
 31
0.0
  0
LINE
  5
39789
  8
0
 10
2690.8203136913439266
 20
161.3055959220934881
 30
0.0
 11
2693.1081932262100054
 21
161.3055959220934881
 31
0.0
  0
LINE
  5
3978A
  8
0
 10
2690.8203159283111745
 20
161.3449660007935051
 30
0.0
 11
2693.1081932262100054
 21
161.3449660007935051
 31
0.0
  0
ARC
  5
3978B
  8
0
 10
2692.9290303900538674
 20
171.0396765360522977
 30
0.0
 40
0.0395669930002484
 50
57.8460236231202103
 51
88.5649364504991468
  0
ARC
  5
3978C
  8
0
 10
2692.9293050342380411
 20
171.040113441525591
 30
0.0
 40
0.0390509350384577
 50
45.9733320727090415
 51
57.8460236231184766
  0
ARC
  5
3978D
  8
0
 10
2586.1628684253169013
 20
60.5831636434161993
 30
0.0
 40
153.6613466634539975
 50
45.8905559323977812
 51
45.9733320727090415
  0
ARC
  5
3978E
  8
0
 10
2693.0886224019118345
 20
170.8855961835556911
 30
0.0
 40
0.0392665846602314
 50
0.4776064974498002
 51
45.8905559323977812
  0
LINE
  5
3978F
  8
0
 10
2693.1278876223482257
 20
170.8859234983935096
 30
0.0
 11
2693.1279014079109402
 21
170.6918497225935027
 31
0.0
  0
ARC
  5
39790
  8
0
 10
2693.1438569619808732
 20
170.6640419298572908
 30
0.0
 40
0.0320601472634838
 50
119.8463398686329953
 51
129.9889088248079929
  0
ARC
  5
39791
  8
0
 10
2693.151488085497931
 20
170.6595941630664015
 30
0.0
 40
0.0404824011666458
 50
134.2223463031070878
 51
155.7894560666316863
  0
ARC
  5
39792
  8
0
 10
2693.418066851137155
 20
170.565867784035305
 30
0.0
 40
0.3229315727584115
 50
160.022893544996009
 51
199.9776968099164094
  0
ARC
  5
39793
  8
0
 10
2693.1422339436148832
 20
170.4655943947093988
 30
0.0
 40
0.0294378837645342
 50
199.9776968099210137
 51
240.86468515106111
  0
LINE
  5
39794
  8
0
 10
2693.1279014079109402
 20
170.4398812186935004
 30
0.0
 11
2693.1279014080100751
 21
170.242616945703503
 31
0.0
  0
ARC
  5
39795
  8
0
 10
2693.1082339370600494
 20
170.242599376187087
 30
0.0
 40
0.0196674786984061
 50
269.9457844503693877
 51
0.0511839222435343
  0
LINE
  5
39796
  8
0
 10
2693.1082339370600494
 20
170.2229318974887065
 30
0.0
 11
2692.7911093643888307
 21
170.2229319062934962
 31
0.0
  0
ARC
  5
39797
  8
0
 10
2692.791109361117833
 20
170.1051209093851924
 30
0.0
 40
0.1178109969083039
 50
89.9999984092056451
 51
113.3467737748621005
  0
LINE
  5
39798
  8
0
 10
2692.7444214344000102
 20
170.2132859152382878
 30
0.0
 11
2692.0034959200352205
 21
169.8678717174703081
 31
0.0
  0
ARC
  5
39799
  8
0
 10
2691.829492616879179
 20
170.2326124077873999
 30
0.0
 40
0.4041199335376686
 50
273.4647064311109261
 51
295.503956519847975
  0
ARC
  5
3979A
  8
0
 10
2690.8936526293109637
 20
169.8491341403515946
 30
0.0
 40
0.0199330485398241
 50
215.2661705646447956
 51
266.8547015256644954
  0
LINE
  5
3979B
  8
0
 10
2690.877377721044013
 20
169.8376252835450089
 30
0.0
 11
2690.8077508872029284
 21
169.9370627076033031
 31
0.0
  0
ARC
  5
3979C
  8
0
 10
2690.8400009677097842
 20
169.9596444570935034
 30
0.0
 40
0.0393700786999882
 50
179.9999999999901945
 51
215.0000001072858993
  0
LINE
  5
3979D
  8
0
 10
2690.8006308890107903
 20
169.9596444570935034
 30
0.0
 11
2690.8006308890107903
 21
170.174964591893513
 31
0.0
  0
ARC
  5
3979E
  8
0
 10
2690.7226303216079941
 20
170.174964591893513
 30
0.0
 40
0.0780005674026114
 50
359.9999999999902229
 51
90.0004701873574504
  0
LINE
  5
3979F
  8
0
 10
2690.7226296815101705
 20
170.2529651592934954
 30
0.0
 11
2687.3336962234238854
 21
170.2529373486289899
 31
0.0
  0
ARC
  5
397A0
  8
0
 10
2687.3336959978200866
 20
170.2804289986079027
 30
0.0
 40
0.0274916499797604
 50
224.8600133904922131
 51
270.0004701873575073
  0
LINE
  5
397A1
  8
0
 10
2687.3142090285659833
 20
170.2610370196491942
 30
0.0
 11
2687.2633529011000064
 21
170.3118931471036888
 31
0.0
  0
ARC
  5
397A2
  8
0
 10
2687.2847029773411123
 20
170.3321521958565086
 30
0.0
 40
0.0294322070507095
 50
181.5024474577489002
 51
223.4979989331972945
  0
LINE
  5
397A3
  8
0
 10
2687.2552808889108746
 20
170.3313804936935014
 30
0.0
 11
2687.2552808904160884
 21
170.5050550123075936
 31
0.0
  0
ARC
  5
397A4
  8
0
 10
2687.2835113565902248
 20
170.5050550120629111
 30
0.0
 40
0.0282304661737527
 50
135.985930843091495
 51
179.9999995034060021
  0
LINE
  5
397A5
  8
0
 10
2687.2632088747268426
 20
170.5246705276213106
 30
0.0
 11
2687.3141951117099779
 21
170.5763751414934859
 31
0.0
  0
ARC
  5
397A6
  8
0
 10
2687.333921595171887
 20
170.556750903091114
 30
0.0
 40
0.0278252562010734
 50
90.2289239913814782
 51
135.1488714040218895
  0
LINE
  5
397A7
  8
0
 10
2687.3338104202862269
 20
170.584575937193506
 30
0.0
 11
2690.7226309691309325
 21
170.5845759509730897
 31
0.0
  0
ARC
  5
397A8
  8
0
 10
2690.7226308223780507
 20
170.662575987344411
 30
0.0
 40
0.0780000501511135
 50
269.999873324175212
 51
0.0000998677950678
  0
LINE
  5
397A9
  8
0
 10
2690.8006308725289273
 20
170.6625761233001981
 30
0.0
 11
2690.8006304832301794
 21
170.885923498393197
 31
0.0
  0
ARC
  5
397AA
  8
0
 10
2690.8399994166720717
 20
170.885923567014089
 30
0.0
 40
0.0393689334418988
 50
134.9984745068069003
 51
180.0000998677950008
  0
LINE
  5
397AB
  8
0
 10
2690.8121621180612237
 20
170.9137623479934973
 30
0.0
 11
2690.9661037583500729
 21
171.0676957911450984
 31
0.0
  0
ARC
  5
397AC
  8
0
 10
2690.9939552927239674
 20
171.0398427736440112
 30
0.0
 40
0.0393890663880175
 50
90.3467047475110689
 51
134.9984745068069003
  0
ARC
  5
397AD
  8
0
 10
2692.9300792477888535
 20
170.5658652700118978
 30
0.0
 40
0.2149610899207869
 50
329.1195463949628106
 51
30.8810439599225184
  0
ARC
  5
397AE
  8
0
 10
2691.8437632108098114
 20
169.7308059220933956
 30
0.0
 40
1.0217495679007009
 50
0.0000000000081422
 51
28.1778247467853014
  0
LINE
  5
397AF
  8
0
 10
2693.013133642910816
 20
169.7161690376935042
 30
0.0
 11
2693.1191961518097742
 21
169.5846122768448083
 31
0.0
  0
ARC
  5
397B0
  8
0
 10
2693.0885560674009866
 20
169.5599294673403108
 30
0.0
 40
0.0393453409896694
 50
359.9910419465325049
 51
38.8539632337627907
  0
LINE
  5
397B1
  8
0
 10
2693.1279014079109402
 20
169.5599233157934975
 30
0.0
 11
2693.1279014080100751
 21
166.3646510401941043
 31
0.0
  0
ARC
  5
397B2
  8
0
 10
2693.1082163686110107
 20
166.3646510401935075
 30
0.0
 40
0.0196850394000023
 50
270.0
 51
0.0000000017831462
  0
LINE
  5
397B3
  8
0
 10
2693.1082163686110107
 20
166.3449660007935051
 30
0.0
 11
2690.8203159283111745
 21
166.3449660007935051
 31
0.0
  0
ARC
  5
397B4
  8
0
 10
2690.8203159283111745
 20
166.3646510401935075
 30
0.0
 40
0.0196850393999988
 50
179.9999999999951115
 51
270.0
  0
LINE
  5
397B5
  8
0
 10
2690.8006308889098364
 20
166.3646510401935075
 30
0.0
 11
2690.8006308889098364
 21
167.1423935475505118
 31
0.0
  0
ARC
  5
397B6
  8
0
 10
2690.6825995407471055
 20
167.1423935475505118
 30
0.0
 40
0.1180313481634059
 50
359.9999999999935199
 51
89.9846780012039176
  0
LINE
  5
397B7
  8
0
 10
2690.6826311046111186
 20
167.2604248914934999
 30
0.0
 11
2684.080730888909784
 21
167.2604248914934999
 31
0.0
  0
ARC
  5
397B8
  8
0
 10
2684.08073088889887
 20
166.8321158430264006
 30
0.0
 40
0.4283090484671633
 50
89.999999998462755
 51
160.0000000109957057
  0
LINE
  5
397B9
  8
0
 10
2683.6782520366100471
 20
166.9786061650935096
 30
0.0
 11
2683.5177688867088364
 21
166.5376823342737964
 31
0.0
  0
ARC
  5
397BA
  8
0
 10
2683.4807731144360332
 20
166.5511476941669002
 30
0.0
 40
0.0393700785258878
 50
294.999999555294778
 51
340.0000000109956773
  0
LINE
  5
397BB
  8
0
 10
2683.4974116283110561
 20
166.5154662852935132
 30
0.0
 11
2683.3757289688278433
 21
166.4587247304621087
 31
0.0
  0
ARC
  5
397BC
  8
0
 10
2683.3600542201211283
 20
166.4998612419263964
 30
0.0
 40
0.0448361072371446
 50
251.2270152519230066
 51
268.7373777625678031
  0
ARC
  5
397BD
  8
0
 10
2683.3568907290250536
 20
166.5043422850183958
 30
0.0
 40
0.0493542355079754
 50
272.5264013094206916
 51
292.438682894739884
  0
LINE
  5
397BE
  8
0
 10
2683.3456250950498543
 20
166.4574103660594062
 30
0.0
 11
2682.263399840063812
 21
166.8513080639287978
 31
0.0
  0
ARC
  5
397BF
  8
0
 10
2682.277141461896008
 20
166.8890628674529921
 30
0.0
 40
0.0401778217396026
 50
206.9092661807237903
 51
250.0000038202178132
  0
LINE
  5
397C0
  8
0
 10
2682.24131392001118
 20
166.8708792318934968
 30
0.0
 11
2682.1800554513179122
 21
166.9948326381515074
 31
0.0
  0
ARC
  5
397C1
  8
0
 10
2682.2154200262048107
 20
167.0122564643064038
 30
0.0
 40
0.0394253715286576
 50
159.9993112220757041
 51
206.2578624560858884
  0
LINE
  5
397C2
  8
0
 10
2682.1783724576098393
 20
167.0257411808935046
 30
0.0
 11
2682.3386814312079878
 21
167.4661699920804097
 31
0.0
  0
ARC
  5
397C3
  8
0
 10
2684.0807612222661191
 20
166.8320810856843082
 30
0.0
 40
1.8538907032573331
 50
90.0009374734009526
 51
159.9993112220757041
  0
LINE
  5
397C4
  8
0
 10
2684.080730888909784
 20
168.6859717886935073
 30
0.0
 11
2690.6826272774101199
 21
168.6859717887934949
 31
0.0
  0
ARC
  5
397C5
  8
0
 10
2690.6814872881091105
 20
168.8051154245360124
 30
0.0
 40
0.1191490894365489
 50
270.5482003476656132
 51
359.4500463312140823
  0
LINE
  5
397C6
  8
0
 10
2690.8006308889098364
 20
168.803971789293513
 30
0.0
 11
2690.8006308889098364
 21
169.5602497167934928
 31
0.0
  0
ARC
  5
397C7
  8
0
 10
2690.8400009685278746
 20
169.5602497163494888
 30
0.0
 40
0.039370079617779
 50
142.0000001055466043
 51
179.9999993538204137
  0
LINE
  5
397C8
  8
0
 10
2690.8089769223752228
 20
169.5844883575935
 30
0.0
 11
2690.9114707571520739
 21
169.715674484266998
 31
0.0
  0
ARC
  5
397C9
  8
0
 10
2690.9424966800579568
 20
169.691434376744013
 30
0.0
 40
0.0393724612496961
 50
90.3908105356740492
 51
142.0000001055466043
  0
ARC
  5
397CA
  8
0
 10
2692.0037005675449109
 20
169.7302629581863869
 30
0.0
 40
1.027975031022051
 50
174.4752992495938884
 51
179.9697370648042067
  0
ARC
  5
397CB
  8
0
 10
2692.9824891342841511
 20
169.6945268856796076
 30
0.0
 40
0.0362799890983661
 50
78.6801271995940823
 51
90.4152212285113706
  0
ARC
  5
397CC
  8
0
 10
2692.9814990918721378
 20
169.689581135609501
 30
0.0
 40
0.041323859411303
 50
40.0460558525090491
 51
78.6801271995940823
  0
LINE
  5
397CD
  8
0
 10
2690.8006308889098364
 20
169.5602497167934928
 30
0.0
 11
2693.1279014079109402
 21
169.5602497167934928
 31
0.0
  0
LINE
  5
397CE
  8
0
 10
2690.8203159283111745
 20
166.3055959220934881
 30
0.0
 11
2693.1081932262100054
 21
166.3055959220934881
 31
0.0
  0
ARC
  5
397CF
  8
0
 10
2693.1081932262100054
 20
166.2859108826935142
 30
0.0
 40
0.0196850394000023
 50
0.0000000000048853
 51
90.0
  0
LINE
  5
397D0
  8
0
 10
2693.1278782656099793
 20
166.2859108826935142
 30
0.0
 11
2693.1278782656099793
 21
161.3646510401935075
 31
0.0
  0
LINE
  5
397D1
  8
0
 10
2693.1278782656099793
 20
161.2859108826935142
 30
0.0
 11
2693.1278782656131625
 21
136.5811864731934975
 31
0.0
  0
LINE
  5
397D2
  8
0
 10
2690.8006308889098364
 20
136.5811864731934975
 30
0.0
 11
2690.8006308889098364
 21
161.2859108826935142
 31
0.0
  0
LINE
  5
397D3
  8
0
 10
2690.8006308889098364
 20
161.3646510401935075
 30
0.0
 11
2690.8006308889098364
 21
166.2859108826935142
 31
0.0
  0
ARC
  5
397D4
  8
0
 10
2690.8203159283111745
 20
166.2859108826935142
 30
0.0
 40
0.0196850393999952
 50
90.0
 51
179.9999999999901945
  0
LINE
  5
397D5
  8
0
 10
2690.8400009677097842
 20
166.3449660007935051
 30
0.0
 11
2690.8400009677097842
 21
166.3055959220934881
 31
0.0
  0
ARC
  5
397D6
  8
0
 10
2690.8203159285108086
 20
161.2859108826199019
 30
0.0
 40
0.0196850396007342
 50
89.9934886416775015
 51
179.9999997857520952
  0
LINE
  5
397D7
  8
0
 10
2693.0885313292101273
 20
166.3055959220934881
 30
0.0
 11
2693.0885313292101273
 21
166.3449660007935051
 31
0.0
  0
ARC
  5
397D8
  8
0
 10
2690.8203159283111745
 20
161.3646510401935075
 30
0.0
 40
0.0196850393999988
 50
180.0000000000048885
 51
270.0
  0
LINE
  5
397D9
  8
0
 10
2690.9711179356099819
 20
161.3055959220934881
 30
0.0
 11
2690.9711179356099819
 21
161.3449660007935051
 31
0.0
  0
LINE
  5
397DA
  8
0
 10
2690.8400009677097842
 20
161.3449660007935051
 30
0.0
 11
2690.8400009677097842
 21
161.3055959220934881
 31
0.0
  0
LINE
  5
397DB
  8
0
 10
2693.0885081868100315
 20
161.3055959220934881
 30
0.0
 11
2693.0885081868100315
 21
161.3449660007935051
 31
0.0
  0
ARC
  5
397DC
  8
0
 10
2693.1081932262100054
 20
161.3646510401935075
 30
0.0
 40
0.0196850394000077
 50
270.0000000000521254
 51
359.9999999999789111
  0
ARC
  5
397DD
  8
0
 10
2693.1081932262100054
 20
161.2859108826935142
 30
0.0
 40
0.0196850394000094
 50
0.0000000000309404
 51
90.0
  0
ARC
  5
397DE
  8
0
 10
2692.3830572064921398
 20
136.5664484505720111
 30
0.0
 40
0.0149980901855728
 50
52.8799483925678686
 51
79.3145625457262611
  0
ARC
  5
397DF
  8
0
 10
2692.3757434539761562
 20
136.5567849675171885
 30
0.0
 40
0.0271172436470733
 50
10.7562243174694103
 51
52.8799483925668881
  0
ARC
  5
397E0
  8
0
 10
2692.337015564136891
 20
136.5421728261779037
 30
0.0
 40
0.0682648830987758
 50
359.7008399770360256
 51
16.7494466324143083
  0
LINE
  5
397E1
  8
0
 10
2692.4052795167108343
 20
136.5418163944935088
 30
0.0
 11
2692.4052795167108343
 21
135.5969327172934982
 31
0.0
  0
ARC
  5
397E2
  8
0
 10
2692.6782453074529258
 20
135.584253779520111
 30
0.0
 40
0.2732600929137261
 50
177.3405903360327045
 51
209.7783543512730091
  0
ARC
  5
397E3
  8
0
 10
2692.5406325496619502
 20
135.5055112352877131
 30
0.0
 40
0.1147114903360906
 50
209.778354351271588
 51
237.5457807393983956
  0
ARC
  5
397E4
  8
0
 10
2692.5097893503270825
 20
135.4570116366026014
 30
0.0
 40
0.0572352864095186
 50
237.5457807393983956
 51
264.072914384880221
  0
ARC
  5
397E5
  8
0
 10
2688.9520616079457795
 20
170.1245442499302953
 30
0.0
 40
1.9222830426656501
 50
14.0320192001531794
 51
15.9816581304832095
  0
ARC
  5
397E6
  8
0
 10
2695.7995756618061023
 20
172.0726481088007915
 30
0.0
 40
5.1983262847375951
 50
196.5645548971027949
 51
197.47686824234151
  0
ARC
  5
397E7
  8
0
 10
2690.4911501950168713
 20
170.424880221107486
 30
0.0
 40
0.3606162164089985
 50
357.8634826080448761
 51
13.8955133085069402
  0
ARC
  5
397E8
  8
0
 10
2688.7050601770069989
 20
170.4584021423677029
 30
0.0
 40
2.146969308750978
 50
355.2721152379875207
 51
358.7465290999433023
  0
ARC
  5
397E9
  8
0
 10
2690.6557264657280939
 20
170.2885492515081864
 30
0.0
 40
0.1891313348026399
 50
337.2379104336066007
 51
357.8462048997927809
  0
ARC
  5
397EA
  8
0
 10
2693.1401409208701807
 20
168.5135536823349014
 30
0.0
 40
2.8692070458519661
 50
143.6203919865168928
 51
144.6255043566627023
  0
LINE
  5
397EB
  8
0
 10
2687.333696223311108
 20
170.5845759371929944
 30
0.0
 11
2687.333696223311108
 21
170.2529373486289899
 31
0.0
  0
ARC
  5
397EC
  8
0
 10
2693.3727052450199153
 20
169.291298700071593
 30
0.0
 40
2.6193812127786291
 50
190.8808378255660045
 51
201.4445316282265139
  0
ARC
  5
397ED
  8
0
 10
2689.5505349071768251
 20
167.9346636299692932
 30
0.0
 40
1.440482726845119
 50
9.1414612553812855
 51
16.0801920121849591
  0
ARC
  5
397EE
  8
0
 10
2685.6890634508381481
 20
168.3174344637982074
 30
0.0
 40
5.2859001589466699
 50
348.6270589862285192
 51
358.3313950256144267
  0
ARC
  5
397EF
  8
0
 10
2690.4282886874038923
 20
167.4195488336700066
 30
0.0
 40
0.465849094286834
 50
323.061062057287586
 51
341.9341862735598738
  0
LINE
  5
397F0
  8
0
 10
2690.9726323000418233
 20
168.1604608797935043
 30
0.0
 11
2684.0807308868188557
 21
168.1604608797935043
 31
0.0
  0
ARC
  5
397F1
  8
0
 10
2684.0807308868188557
 20
166.8321158535266022
 30
0.0
 40
1.3283450262668539
 50
89.9999999097711765
 51
160.000000399489096
  0
LINE
  5
397F2
  8
0
 10
2682.8324948646099983
 20
167.286436601093186
 30
0.0
 11
2682.672062057131825
 21
166.8456510756429907
 31
0.0
  0
LINE
  5
397F3
  8
0
 10
2682.672062057131825
 20
166.8456510756429907
 30
0.0
 11
2682.6615046102460838
 21
166.7064098075229879
 31
0.0
  0
ARC
  5
397F4
  8
0
 10
2691.0993918147701152
 20
171.0432578740748113
 30
0.0
 40
0.0360182314515594
 50
92.8639365700550883
 51
137.2658280629559897
  0
LINE
  5
397F5
  8
0
 10
2691.0729360635377816
 20
171.0676997689203063
 30
0.0
 11
2690.9462135322128233
 21
170.9138450380980885
 31
0.0
  0
ARC
  5
397F6
  8
0
 10
2690.976199808662841
 20
170.8850878728378859
 30
0.0
 40
0.0415469773766146
 50
136.1986463105606902
 51
178.8475444147011899
  0
LINE
  5
397F7
  8
0
 10
2690.9346612355161596
 20
170.8859234983935096
 30
0.0
 11
2690.9346587990121407
 21
169.9597173010836002
 31
0.0
  0
ARC
  5
397F8
  8
0
 10
2690.9694558931068968
 20
169.9564930860406093
 30
0.0
 40
0.0349461484687733
 50
174.706225955939999
 51
213.780256687546597
  0
LINE
  5
397F9
  8
0
 10
2690.9404094893097863
 20
169.9370627046934885
 30
0.0
 11
2690.9985804840111996
 21
169.8376252835934963
 31
0.0
  0
ARC
  5
397FA
  8
0
 10
2691.015286952228962
 20
169.8485982150448024
 30
0.0
 40
0.0199877788903836
 50
213.2972040412595902
 51
255.6840392483750861
  0
ARC
  5
397FB
  8
0
 10
2691.0688598270558032
 20
169.6558381904197006
 30
0.0
 40
0.0767879199007859
 50
102.500027304875502
 51
109.7631414581506988
  0
ARC
  5
397FC
  8
0
 10
2691.0639538534937856
 20
169.6856788179871955
 30
0.0
 40
0.047363365451983
 50
116.3987917129713026
 51
140.7052893090393866
  0
LINE
  5
397FD
  8
0
 10
2691.0272994076080977
 20
169.7156744840690124
 30
0.0
 11
2690.9432055215597757
 21
169.584478686684804
 31
0.0
  0
ARC
  5
397FE
  8
0
 10
2690.9904549770008089
 20
169.5541927293533888
 30
0.0
 40
0.056122635816182
 50
147.3409395638603883
 51
173.8043346382177958
  0
LINE
  5
397FF
  8
0
 10
2690.9346601461111277
 20
169.5602497167934928
 30
0.0
 11
2690.9346571370879246
 21
168.3336575384522007
 31
0.0
  0
LINE
  5
39800
  8
0
 10
2690.934658799510089
 20
167.6659208965253924
 30
0.0
 11
2690.934658799510089
 21
166.3646510401970033
 31
0.0
  0
LINE
  5
39801
  8
0
 10
2690.934658799510089
 20
166.2879028801108916
 30
0.0
 11
2690.934658799510089
 21
161.3646510401935075
 31
0.0
  0
ARC
  5
39802
  8
0
 10
2690.9550266886421923
 20
161.3646510401935075
 30
0.0
 40
0.0203678891317445
 50
180.0
 51
255.1218800048710023
  0
ARC
  5
39803
  8
0
 10
2690.9559107361319548
 20
166.2857390235043056
 30
0.0
 40
0.0213618137237419
 50
111.6350441913861005
 51
174.1862212891155934
  0
ARC
  5
39804
  8
0
 10
2690.957905808014857
 20
166.3652262924370007
 30
0.0
 40
0.0232541247859381
 50
181.4175071445361027
 51
240.6049038595974139
  0
ARC
  5
39805
  8
0
 10
2690.9546999127919662
 20
161.2861518685326132
 30
0.0
 40
0.0201148554977937
 50
104.8385238401300938
 51
180.6864479751976944
  0
LINE
  5
39806
  8
0
 10
2690.9345865009099725
 20
161.2859108826935142
 30
0.0
 11
2690.9345865009099725
 21
136.5811864731934975
 31
0.0
  0
LINE
  5
39807
  8
0
 10
2692.3112123287100985
 20
136.5811864731934975
 30
0.0
 11
2692.3112123287100985
 21
161.2859108826935142
 31
0.0
  0
ARC
  5
39808
  8
0
 10
2692.2832436040030188
 20
161.2859108826935142
 30
0.0
 40
0.027968724707371
 50
0.0000000000048853
 51
44.7345563929013181
  0
ARC
  5
39809
  8
0
 10
2692.2760750557590654
 20
161.3646009986649119
 30
0.0
 40
0.0351373085850705
 50
345.0197575603688165
 51
0.0815990032848365
  0
ARC
  5
3980A
  8
0
 10
2692.2896597412118354
 20
161.3609660135022068
 30
0.0
 40
0.021074705838622
 50
319.8637607624161205
 51
345.019757560371886
  0
ARC
  5
3980B
  8
0
 10
2692.2983845629960342
 20
161.3536095948589946
 30
0.0
 40
0.0096624575762778
 50
296.5487472005485756
 51
319.8637607624377779
  0
LINE
  5
3980C
  8
0
 10
2692.3112123287100985
 20
161.3646510401958096
 30
0.0
 11
2692.3112123287100985
 21
166.285910882691212
 31
0.0
  0
ARC
  5
3980D
  8
0
 10
2692.2727294529468054
 20
166.285910882691212
 30
0.0
 40
0.0384828757629308
 50
0.0000000000016284
 51
30.765612382105239
  0
ARC
  5
3980E
  8
0
 10
2692.2480690059837798
 20
166.4004722258177082
 30
0.0
 40
0.0781301080725717
 50
314.7298249641639245
 51
319.2137048003331188
  0
ARC
  5
3980F
  8
0
 10
2692.281651344679176
 20
166.3639474404369878
 30
0.0
 40
0.0294049690762949
 50
330.425670684556394
 51
1.371099703051134
  0
LINE
  5
39810
  8
0
 10
2692.3110478947101001
 20
166.3646510401935075
 30
0.0
 11
2692.3110478947101001
 21
169.5602497167934928
 31
0.0
  0
ARC
  5
39811
  8
0
 10
2692.1672952746648662
 20
169.5569572057221137
 30
0.0
 40
0.143790320950548
 50
1.312073554190434
 51
11.0377461032760902
  0
LINE
  5
39812
  8
0
 10
2692.308425656811778
 20
169.5844866741929877
 30
0.0
 11
2692.2756660951099548
 21
169.7156744886935087
 31
0.0
  0
ARC
  5
39813
  8
0
 10
2692.2421309050819218
 20
169.7016889741389889
 30
0.0
 40
0.0363346059232713
 50
22.6380870987082403
 51
53.2597694523942167
  0
ARC
  5
39814
  8
0
 10
2692.2368682938958955
 20
171.0564891068987095
 30
0.0
 40
0.0245505234958575
 50
47.6790980892396519
 51
67.8705477385245786
  0
ARC
  5
39815
  8
0
 10
2692.2379646855470128
 20
171.0576931428996943
 30
0.0
 40
0.0229220956206834
 50
25.8848602899265785
 51
47.6790980892396519
  0
LINE
  5
39816
  8
0
 10
2692.2585870799111945
 20
171.0677001063934881
 30
0.0
 11
2692.3041583858112062
 21
170.9138493026935066
 31
0.0
  0
ARC
  5
39817
  8
0
 10
2692.2253991752481852
 20
170.8796223393104867
 30
0.0
 40
0.0858748989570301
 50
4.2079184945021533
 51
23.4886707377296489
  0
LINE
  5
39818
  8
0
 10
2692.3110425851818945
 20
170.8859234983935096
 30
0.0
 11
2692.311048202341226
 21
170.0112504010286045
 31
0.0
  0
LINE
  5
39819
  8
0
 10
2690.8006308890107903
 20
169.9596444570935034
 30
0.0
 11
2692.200351650776156
 21
169.9596444570935034
 31
0.0
  0
LINE
  5
3981A
  8
0
 10
2690.8511015792728358
 20
170.4467675806934892
 30
0.0
 11
2687.333696223311108
 21
170.4467675806934892
 31
0.0
  0
ARC
  5
3981B
  8
0
 10
2687.3470528375160029
 20
170.3510831538110892
 30
0.0
 40
0.09661215602016
 50
97.9465841242829214
 51
113.6668683363398031
  0
LINE
  5
3981C
  8
0
 10
2687.3082709576679008
 20
170.4395697318120995
 30
0.0
 11
2687.2634220798768183
 21
170.4167225957814082
 31
0.0
  0
ARC
  5
3981D
  8
0
 10
2687.2800829237171456
 20
170.3968513369349012
 30
0.0
 40
0.0259301280228296
 50
129.9631624418865954
 51
163.0372989952165881
  0
ARC
  5
3981E
  8
0
 10
2692.7435745428788323
 20
135.3643904825310926
 30
0.0
 40
0.0376332452025496
 50
62.6044156876621827
 51
71.5160537507997134
  0
ARC
  5
3981F
  8
0
 10
2692.7468780334520488
 20
135.3751195637433966
 30
0.0
 40
0.0266627830589847
 50
30.2487937283386685
 51
58.2944202178603632
  0
LINE
  5
39820
  8
0
 10
2692.7699105749102273
 20
135.3885510950935043
 30
0.0
 11
2692.826969097303845
 21
135.214613557812612
 31
0.0
  0
ARC
  5
39821
  8
0
 10
2692.3342660921321112
 20
135.1354254800220076
 30
0.0
 40
0.4990260576006245
 50
5.9009317579767648
 51
9.1305920202925925
  0
LINE
  5
39822
  8
0
 10
2692.8306478831859749
 20
135.1867297066945071
 30
0.0
 11
2692.8306478831859749
 21
135.0063833235934965
 31
0.0
  0
ARC
  5
39823
  8
0
 10
2701.7210092242880819
 20
136.6998307566283017
 30
0.0
 40
39.3608988093767991
 50
106.9579664459050008
 51
107.8399982515195035
  0
ARC
  5
39824
  8
0
 10
2690.5807896686960703
 20
173.2316659414501032
 30
0.0
 40
1.1682363985596631
 50
91.41600652961219
 51
106.9290760815596997
  0
ARC
  5
39825
  8
0
 10
2690.5356165164698723
 20
173.8881556966722997
 30
0.0
 40
0.511649737707746
 50
49.8601094484397294
 51
88.1738930055611689
  0
ARC
  5
39826
  8
0
 10
2690.3003007780321241
 20
173.6784243922703865
 30
0.0
 40
0.8248926730672108
 50
29.2082167254453893
 51
46.7546345967193915
  0
ARC
  5
39827
  8
0
 10
2686.7884391013408276
 20
171.9824474360304976
 30
0.0
 40
4.7236093128594918
 50
16.845990195889101
 51
26.3760224665169183
  0
ARC
  5
39828
  8
0
 10
2613.4051999949101628
 20
146.8185960044577882
 30
0.0
 40
82.2984984878893471
 50
17.1448438266095309
 51
18.80792163357156
  0
ARC
  5
39829
  8
0
 10
2689.666025574862033
 20
174.1568471725935012
 30
0.0
 40
0.0118110236000055
 50
107.8372680027229933
 51
197.9999999999998863
  0
LINE
  5
3982A
  8
0
 10
2689.6547926239031767
 20
174.1531973655800982
 30
0.0
 11
2690.7967641288660161
 21
170.6385704646808961
 31
0.0
  0
LINE
  5
3982B
  8
0
 10
2690.7739860296660481
 20
170.7086742455985018
 30
0.0
 11
2690.7633393400619752
 21
170.6968498989934915
 31
0.0
  0
ARC
  5
3982C
  8
0
 10
2690.7691908937799781
 20
170.6915811363103046
 30
0.0
 40
0.0078740422358801
 50
137.9999997319141016
 51
198.1051941481761958
  0
LINE
  5
3982D
  8
0
 10
2690.761706714562024
 20
170.6891341784935037
 30
0.0
 11
2690.7854893160251777
 21
170.6163935491240125
 31
0.0
  0
LINE
  5
3982E
  8
0
 10
2690.6049947553551647
 20
171.2287759084865115
 30
0.0
 11
2690.5943480657620057
 21
171.2169515617935076
 31
0.0
  0
ARC
  5
3982F
  8
0
 10
2690.6001995996689402
 20
171.2116828169928908
 30
0.0
 40
0.0078740155475398
 50
137.9999999728566991
 51
198.000001121167486
  0
LINE
  5
39830
  8
0
 10
2690.5927109659210146
 20
171.2092496122282057
 30
0.0
 11
2690.6251782694721442
 21
171.1093255332465901
 31
0.0
  0
ARC
  5
39831
  8
0
 10
2690.6326911518622182
 20
171.1117666168732967
 30
0.0
 40
0.0078995120790683
 50
198.0000011211689923
 51
257.8931572415118012
  0
LINE
  5
39832
  8
0
 10
2690.6310343450359142
 20
171.1040428041989117
 30
0.0
 11
2690.6465978744618042
 21
171.1007346738934984
 31
0.0
  0
LINE
  5
39833
  8
0
 10
2690.4211058996061183
 20
171.794727612586513
 30
0.0
 11
2690.4104592100120499
 21
171.7829032658935091
 31
0.0
  0
ARC
  5
39834
  8
0
 10
2690.4163107439189844
 20
171.7776345210928923
 30
0.0
 40
0.0078740155475398
 50
137.9999999728566991
 51
198.000001121167486
  0
LINE
  5
39835
  8
0
 10
2690.4088221101710587
 20
171.7752013163282072
 30
0.0
 11
2690.4412894137208241
 21
171.6752772373465916
 31
0.0
  0
ARC
  5
39836
  8
0
 10
2690.4488022961118077
 20
171.6777183209732982
 30
0.0
 40
0.0078995120790683
 50
198.0000011211689923
 51
257.8931572415118012
  0
LINE
  5
39837
  8
0
 10
2690.4471454892859583
 20
171.6699945082989984
 30
0.0
 11
2690.4627090187118483
 21
171.6666863779934999
 31
0.0
  0
LINE
  5
39838
  8
0
 10
2690.237217043804776
 20
172.3606793166364923
 30
0.0
 11
2690.2265703542120718
 21
172.3488549699434884
 31
0.0
  0
ARC
  5
39839
  8
0
 10
2690.2324218881190063
 20
172.3435862251429
 30
0.0
 40
0.0078740155475398
 50
137.9999999728566991
 51
198.000001121167486
  0
LINE
  5
3983A
  8
0
 10
2690.2249332543710807
 20
172.3411530203781865
 30
0.0
 11
2690.2574005579222103
 21
172.2412289413965141
 31
0.0
  0
ARC
  5
3983B
  8
0
 10
2690.2649134403118296
 20
172.2436700250233059
 30
0.0
 40
0.0078995120790683
 50
198.0000011211689923
 51
257.8931572415118012
  0
LINE
  5
3983C
  8
0
 10
2690.2632566334859803
 20
172.2359462123488925
 30
0.0
 11
2690.2788201629109608
 21
172.2326380820435077
 31
0.0
  0
LINE
  5
3983D
  8
0
 10
2690.068225769556193
 20
172.8807809794865022
 30
0.0
 11
2690.0575790799621245
 21
172.8689566327934983
 31
0.0
  0
ARC
  5
3983E
  8
0
 10
2690.063430613869059
 20
172.8636878879929952
 30
0.0
 40
0.0078740155475398
 50
137.9999999728566991
 51
198.000001121167486
  0
LINE
  5
3983F
  8
0
 10
2690.0559419801211334
 20
172.8612546832281964
 30
0.0
 11
2690.0884092836718082
 21
172.7613306042466093
 31
0.0
  0
ARC
  5
39840
  8
0
 10
2690.0959221660618823
 20
172.7637716878732874
 30
0.0
 40
0.0078995120790683
 50
198.0000011211689923
 51
257.8931572415118012
  0
LINE
  5
39841
  8
0
 10
2690.094265359236033
 20
172.7560478751989024
 30
0.0
 11
2690.109828888661923
 21
172.7527397448934892
 31
0.0
  0
LINE
  5
39842
  8
0
 10
2689.9278227447048266
 20
173.3128970575864969
 30
0.0
 11
2689.9171760551121224
 21
173.301072710893493
 31
0.0
  0
ARC
  5
39843
  8
0
 10
2689.9230275890190569
 20
173.2958039660929046
 30
0.0
 40
0.0078740155475398
 50
137.9999999728566991
 51
198.000001121167486
  0
LINE
  5
39844
  8
0
 10
2689.9155389552711313
 20
173.2933707613281911
 30
0.0
 11
2689.9480062588218061
 21
173.1934466823464902
 31
0.0
  0
ARC
  5
39845
  8
0
 10
2689.9555191412118802
 20
173.1958877659733105
 30
0.0
 40
0.0078995120790683
 50
198.0000011211689923
 51
257.8931572415118012
  0
LINE
  5
39846
  8
0
 10
2689.9538623343860309
 20
173.188163953298897
 30
0.0
 11
2689.9694258638110114
 21
173.1848558229935122
 31
0.0
  0
LINE
  5
39847
  8
0
 10
2689.827380604955124
 20
173.6220261775364975
 30
0.0
 11
2689.816733915361965
 21
173.6102018308434936
 31
0.0
  0
ARC
  5
39848
  8
0
 10
2689.8225854492688995
 20
173.6049330860429052
 30
0.0
 40
0.0078740155475398
 50
137.9999999728566991
 51
198.000001121167486
  0
LINE
  5
39849
  8
0
 10
2689.8150968155209739
 20
173.6024998812781917
 30
0.0
 11
2689.8475641190721035
 21
173.5025758022964908
 31
0.0
  0
ARC
  5
3984A
  8
0
 10
2689.8550770014630871
 20
173.5050168859233111
 30
0.0
 40
0.0078995120790683
 50
198.0000011211689923
 51
257.8931572415118012
  0
LINE
  5
3984B
  8
0
 10
2689.8534201946358735
 20
173.4972930732488976
 30
0.0
 11
2689.8689837240622182
 21
173.4939849429435128
 31
0.0
  0
LINE
  5
3984C
  8
0
 10
2689.7750423618549576
 20
173.7831067266365039
 30
0.0
 11
2689.7643956722608891
 21
173.7712823799435
 31
0.0
  0
ARC
  5
3984D
  8
0
 10
2689.7702472061691878
 20
173.7660136351429117
 30
0.0
 40
0.0078740155475398
 50
137.9999999728566991
 51
198.000001121167486
  0
LINE
  5
3984E
  8
0
 10
2689.7627585724208075
 20
173.7635804303781981
 30
0.0
 11
2689.7952258759719371
 21
173.6636563513966109
 31
0.0
  0
ARC
  5
3984F
  8
0
 10
2689.8027387583620111
 20
173.6660974350232891
 30
0.0
 40
0.0078995120790683
 50
198.0000011211689923
 51
257.8931572415118012
  0
LINE
  5
39850
  8
0
 10
2689.8010819515361618
 20
173.6583736223489041
 30
0.0
 11
2689.8166454809611423
 21
173.6550654920434908
 31
0.0
  0
ARC
  5
39851
  8
0
 10
2692.1381469767038652
 20
171.5252828807223011
 30
0.0
 40
0.2201052353631046
 50
199.4424934042309019
 51
211.2924241441743902
  0
ARC
  5
39852
  8
0
 10
2692.0462708403379111
 20
171.4694379519642098
 30
0.0
 40
0.1125883506351272
 50
211.2924241441758113
 51
241.7188583904813015
  0
ARC
  5
39853
  8
0
 10
2692.0556702749618125
 20
171.4793448426935072
 30
0.0
 40
0.1258171710000374
 50
240.0867109805813016
 51
270.0
  0
ARC
  5
39854
  8
0
 10
2692.0556702749618125
 20
171.4793448426935925
 30
0.0
 40
0.1258171710001612
 50
270.0
 51
286.9993500093005991
  0
LINE
  5
39855
  8
0
 10
2692.0924542907659998
 20
171.3590248663811906
 30
0.0
 11
2692.1915768460198706
 21
171.3893296726826918
 31
0.0
  0
ARC
  5
39856
  8
0
 10
2692.1950701057908191
 20
171.3780468538820969
 30
0.0
 40
0.0118112177148176
 50
18.0005657937404813
 51
107.2029839487986038
  0
LINE
  5
39857
  8
0
 10
2692.2063032053210918
 20
171.3816968318068916
 30
0.0
 11
2692.3045835750581318
 21
171.0792311188934889
 31
0.0
  0
LINE
  5
39859
  8
0
 10
2682.1781857445789683
 20
167.0252167186258987
 30
0.0
 11
2683.5177579452870305
 21
166.5376523108785136
 31
0.0
  0
ARC
  5
3985A
  8
0
 10
2682.7269613283710896
 20
166.7500370550542925
 30
0.0
 40
0.1971307198265925
 50
178.7555663624646911
 51
201.8515839705185897
  0
LINE
  5
3985B
  8
0
 10
2682.5439942330508529
 20
166.6766642894689028
 30
0.0
 11
2683.0730330768451495
 21
166.4841098974983993
 31
0.0
  0
ARC
  5
3985C
  8
0
 10
2682.9802556371600986
 20
166.6575932391187962
 30
0.0
 40
0.1967336349846053
 50
298.1374985892015843
 51
321.2780730791204746
  0
LINE
  5
3985D
  8
0
 10
2689.4276038976099699
 20
135.2146135526934927
 30
0.0
 11
2694.6722953863250041
 21
135.2146135526934927
 31
0.0
  0
ENDSEC
  0
EOF
