  0
SECTION
  2
HEADER
  9
$ACADVER
  1
AC1009
  9
$INSBASE
 10
6653.0940505402459166
 20
315.8646330036651761
 30
0.0
  9
$EXTMIN
 10
6647.5761261844099863
 20
291.1033405695242777
 30
0.0
  9
$EXTMAX
 10
6653.1066681761749351
 20
335.3734950570096203
 30
0.0
  9
$LIMMIN
 10
0.0
 20
0.0
  9
$LIMMAX
 10
11.6929133858000007
 20
8.2677165353999982
  9
$ORTHOMODE
 70
     0
  9
$REGENMODE
 70
     1
  9
$FILLMODE
 70
     1
  9
$QTEXTMODE
 70
     0
  9
$MIRRTEXT
 70
     0
  9
$DRAGMODE
 70
     2
  9
$LTSCALE
 40
0.6431102362
  9
$OSMODE
 70
  4095
  9
$ATTMODE
 70
     1
  9
$TEXTSIZE
 40
0.2
  9
$TRACEWID
 40
0.05
  9
$TEXTSTYLE
  7
STANDARD
  9
$CLAYER
  8
0
  9
$CELTYPE
  6
BYLAYER
  9
$CECOLOR
 62
   256
  9
$DIMSCALE
 40
1.0
  9
$DIMASZ
 40
0.1875
  9
$DIMEXO
 40
0.0625
  9
$DIMDLI
 40
0.4443307087
  9
$DIMRND
 40
0.0
  9
$DIMDLE
 40
0.0
  9
$DIMEXE
 40
0.125
  9
$DIMTP
 40
0.01
  9
$DIMTM
 40
0.01
  9
$DIMTXT
 40
2.0
  9
$DIMCEN
 40
0.1052362205
  9
$DIMTSZ
 40
0.0
  9
$DIMTOL
 70
     1
  9
$DIMLIM
 70
     0
  9
$DIMTIH
 70
     1
  9
$DIMTOH
 70
     1
  9
$DIMSE1
 70
     0
  9
$DIMSE2
 70
     0
  9
$DIMTAD
 70
     0
  9
$DIMZIN
 70
     0
  9
$DIMBLK
  1

  9
$DIMASO
 70
     1
  9
$DIMSHO
 70
     1
  9
$DIMPOST
  1
\X
  9
$DIMAPOST
  1

  9
$DIMALT
 70
     1
  9
$DIMALTD
 70
     2
  9
$DIMALTF
 40
25.3999999999999986
  9
$DIMLFAC
 40
1.0
  9
$DIMTOFL
 70
     0
  9
$DIMTVP
 40
0.0
  9
$DIMTIX
 70
     0
  9
$DIMSOXD
 70
     0
  9
$DIMSAH
 70
     0
  9
$DIMBLK1
  1

  9
$DIMBLK2
  1

  9
$DIMSTYLE
  2
STANDARD
  9
$DIMCLRD
 70
     0
  9
$DIMCLRE
 70
     0
  9
$DIMCLRT
 70
     0
  9
$DIMTFAC
 40
1.0
  9
$DIMGAP
 40
0.09
  9
$LUNITS
 70
     2
  9
$LUPREC
 70
     4
  9
$SKETCHINC
 40
0.1
  9
$FILLETRAD
 40
0.0
  9
$AUNITS
 70
     0
  9
$AUPREC
 70
     0
  9
$MENU
  1
.
  9
$ELEVATION
 40
0.0
  9
$PELEVATION
 40
0.0
  9
$THICKNESS
 40
0.0
  9
$LIMCHECK
 70
     0
  9
$BLIPMODE
 70
     0
  9
$CHAMFERA
 40
0.0
  9
$CHAMFERB
 40
0.0
  9
$SKPOLY
 70
     0
  9
$TDCREATE
 40
2458060.468368056230247
  9
$TDUPDATE
 40
2460306.5843402780592442
  9
$TDINDWG
 40
0.9503658565000001
  9
$TDUSRTIMER
 40
0.9503658565000001
  9
$USRTIMER
 70
     1
  9
$ANGBASE
 50
0.0
  9
$ANGDIR
 70
     0
  9
$PDMODE
 70
     0
  9
$PDSIZE
 40
0.3125
  9
$PLINEWID
 40
0.0
  9
$COORDS
 70
     1
  9
$SPLFRAME
 70
     0
  9
$SPLINETYPE
 70
     6
  9
$SPLINESEGS
 70
     8
  9
$ATTDIA
 70
     1
  9
$ATTREQ
 70
     1
  9
$HANDLING
 70
     1
  9
$HANDSEED
  5
310A5
  9
$SURFTAB1
 70
     6
  9
$SURFTAB2
 70
     6
  9
$SURFTYPE
 70
     6
  9
$SURFU
 70
     6
  9
$SURFV
 70
     6
  9
$UCSNAME
  2

  9
$UCSORG
 10
0.0
 20
0.0
 30
0.0
  9
$UCSXDIR
 10
1.0
 20
0.0
 30
0.0
  9
$UCSYDIR
 10
0.0
 20
1.0
 30
0.0
  9
$PUCSNAME
  2

  9
$PUCSORG
 10
0.0
 20
0.0
 30
0.0
  9
$PUCSXDIR
 10
1.0
 20
0.0
 30
0.0
  9
$PUCSYDIR
 10
0.0
 20
1.0
 30
0.0
  9
$USERI1
 70
     0
  9
$USERI2
 70
     0
  9
$USERI3
 70
     0
  9
$USERI4
 70
     0
  9
$USERI5
 70
     0
  9
$USERR1
 40
0.0
  9
$USERR2
 40
0.0
  9
$USERR3
 40
0.0
  9
$USERR4
 40
0.0
  9
$USERR5
 40
0.0
  9
$WORLDVIEW
 70
     1
  9
$SHADEDGE
 70
     3
  9
$SHADEDIF
 70
    70
  9
$TILEMODE
 70
     1
  9
$MAXACTVP
 70
    64
  9
$PLIMCHECK
 70
     0
  9
$PEXTMIN
 10
1.0000000000000000E+20
 20
1.0000000000000000E+20
 30
1.0000000000000000E+20
  9
$PEXTMAX
 10
-1.0000000000000000E+20
 20
-1.0000000000000000E+20
 30
-1.0000000000000000E+20
  9
$PLIMMIN
 10
0.0
 20
0.0
  9
$PLIMMAX
 10
12.0
 20
9.0
  9
$UNITMODE
 70
     0
  9
$VISRETAIN
 70
     1
  9
$PLINEGEN
 70
     0
  9
$PSLTSCALE
 70
     1
  0
ENDSEC
  0
SECTION
  2
TABLES
  0
TABLE
  2
VPORT
 70
     1
  0
VPORT
  2
*ACTIVE
 70
     0
 10
0.0
 20
0.0
 11
1.0
 21
1.0
 12
2738.9760407349808702
 22
180.6588127107278012
 13
0.0
 23
0.0
 14
1.0
 24
1.0
 15
0.0
 25
0.0
 16
0.0
 26
0.0
 36
60.4960186965801583
 17
3911.3653564453120453
 27
132.5796051025390057
 37
0.0
 40
44.6689847080932623
 41
2.8481203007518792
 42
50.0
 43
0.0
 44
0.0
 50
0.0
 51
0.0
 71
     0
 72
   100
 73
     1
 74
     1
 75
     0
 76
     0
 77
     0
 78
     0
  0
ENDTAB
  0
TABLE
  2
LTYPE
 70
     2
  0
LTYPE
  2
CONTINUOUS
 70
     0
  3
Solid line
 72
    65
 73
     0
 40
0.0
  0
LTYPE
  2
PHANTOM2
 70
     0
  3
___ _ _ ___ _ _ ___ _ _ ___ _ _
 72
    65
 73
     6
 40
1.25
 49
0.625
 49
-0.125
 49
0.125
 49
-0.125
 49
0.125
 49
-0.125
  0
ENDTAB
  0
TABLE
  2
LAYER
 70
     2
  0
LAYER
  2
0
 70
     0
 62
   255
  6
CONTINUOUS
  0
LAYER
  2
DEFPOINTS
 70
     0
 62
     7
  6
CONTINUOUS
  0
ENDTAB
  0
TABLE
  2
STYLE
 70
     1
  0
STYLE
  2
STANDARD
 70
     0
 40
0.0
 41
0.8
 50
0.0
 71
     0
 42
0.2
  3
txt
  4

  0
ENDTAB
  0
TABLE
  2
VIEW
 70
     0
  0
ENDTAB
  0
TABLE
  2
UCS
 70
     0
  0
ENDTAB
  0
TABLE
  2
APPID
 70
    11
  0
APPID
  2
ACAD
 70
     0
  0
APPID
  2
ACAD_MLEADERVER
 70
     0
  0
APPID
  2
ACAD_EXEMPT_FROM_CAD_STANDARDS
 70
     0
  0
APPID
  2
ACAD_NAV_VCDISPLAY
 70
     0
  0
APPID
  2
ACAECLAYERSTANDARD
 70
     0
  0
APPID
  2
ACCMTRANSPARENCY
 70
     0
  0
APPID
  2
ACAD_DSTYLE_DIMJAG
 70
     0
  0
APPID
  2
ACAD_DSTYLE_DIMTALN
 70
     0
  0
APPID
  2
ACDBATTR
 70
     0
  0
APPID
  2
ACADANNOTATIVE
 70
     0
  0
APPID
  2
DCO15
 70
     0
  0
ENDTAB
  0
TABLE
  2
DIMSTYLE
 70
     1
  0
DIMSTYLE
  2
STANDARD
 70
     0
  3

  4

  5

  6

  7

 40
1.0
 41
0.1875
 42
0.0625
 43
0.38
 44
0.125
 45
0.0
 46
0.0
 47
0.01
 48
0.01
140
0.15625
141
0.09
142
0.0
143
25.3999999999999986
144
1.0
145
0.0
146
1.0
147
0.09
 71
     1
 72
     0
 73
     1
 74
     1
 75
     0
 76
     0
 77
     0
 78
     4
170
     0
171
     2
172
     0
173
     0
174
     0
175
     0
176
     0
177
     0
178
     0
  0
ENDTAB
  0
ENDSEC
  0
SECTION
  2
BLOCKS
  0
BLOCK
  8
0
  2
$MODEL_SPACE
 70
     0
 10
0.0
 20
0.0
 30
0.0
  3
$MODEL_SPACE
  1

  0
ENDBLK
  5
21
  8
0
  0
BLOCK
 67
     1
  8
0
  2
$PAPER_SPACE
 70
     0
 10
0.0
 20
0.0
 30
0.0
  3
$PAPER_SPACE
  1

  0
ENDBLK
  5
1D
 67
     1
  8
0
  0
BLOCK
  8
0
  2
_FILLED
 70
     0
 10
0.0
 20
0.0
 30
0.0
  3
_FILLED
  1

  0
SOLID
  5
26C2A
  8
0
  6
BYBLOCK
 62
     0
 10
0.0
 20
0.0
 30
0.0
 11
-1.0
 21
0.1666666667
 31
0.0
 12
-1.0
 22
-0.1666666667
 32
0.0
 13
-1.0
 23
-0.1666666667
 33
0.0
  0
ENDBLK
  5
26C2B
  8
0
  6
BYBLOCK
 62
     0
  0
ENDSEC
  0
SECTION
  2
ENTITIES
  0
ATTDEF
  5
26A5B
  8
DEFPOINTS
 10
6653.0960015095070048
 20
315.8682901324049794
 30
0.0
 40
0.001
  1
K-EX27026T-4
  3

  2
MODELNUMBER
 70
     0
1001
ACDBATTR
1070
     0
1070
     1
  0
ATTDEF
  5
26A5C
  8
DEFPOINTS
 10
6653.0958756998497847
 20
315.8666232920257926
 30
0.0
 40
0.001
  1
OCCASION
  3

  2
TRADENAME
 70
     0
1001
ACDBATTR
1070
     0
1070
     1
  0
ATTDEF
  5
26A5D
  8
DEFPOINTS
 10
6653.0960015095070048
 20
315.864956799071706
 30
0.0
 40
0.001
  1
BATH AND SHOWER FAUCET
  3

  2
PRODUCT
 70
     0
1001
ACDBATTR
1070
     0
1070
     1
  0
ARC
  5
30D71
  8
0
 10
6649.0776501192449359
 20
335.1307820527450758
 30
0.0
 40
0.0118110235999977
 50
107.837268002697698
 51
198.0000000000104876
  0
LINE
  5
30D72
  8
0
 10
6649.0664171682856249
 20
335.1271322457316728
 30
0.0
 11
6650.6405523573439496
 21
330.2824456610450738
 31
0.0
  0
ARC
  5
30D73
  8
0
 10
6650.6518700089345657
 20
330.2857849297679991
 30
0.0
 40
0.011799998013646
 50
196.4386742362704865
 51
270.0695750649813931
  0
ARC
  5
30D74
  8
0
 10
6650.6905393760289371
 20
330.1425821647891894
 30
0.0
 40
0.1369704399873027
 50
91.0791183141041643
 51
106.3924149165249986
  0
ARC
  5
30D75
  8
0
 10
6650.6884034121412697
 20
330.1688161524999146
 30
0.0
 40
0.1107130482485923
 50
2.0491454644661631
 51
90.2295747824521328
  0
LINE
  5
30D76
  8
0
 10
6650.8007626385451658
 20
330.0157465117450784
 30
0.0
 11
6650.80076200354506
 21
327.3462235008449852
 31
0.0
  0
ARC
  5
30D77
  8
0
 10
6646.2034341563949056
 20
330.0440020709747273
 30
0.0
 40
4.597415311826559
 50
359.6478598573497152
 51
1.6050548991484399
  0
ARC
  5
30D78
  8
0
 10
6652.1673487743682927
 20
330.5928394597124793
 30
0.0
 40
0.2818970982251205
 50
105.8393649019908054
 51
166.7424154943331018
  0
ARC
  5
30D79
  8
0
 10
6652.7842689543558663
 20
330.4200456535456283
 30
0.0
 40
0.9223891861646206
 50
165.0829948743050011
 51
183.6616503459798935
  0
ARC
  5
30D7A
  8
0
 10
6650.8794372757583915
 20
326.7440977313759731
 30
0.0
 40
0.0118110236309296
 50
183.3352463429918942
 51
269.9999999403859192
  0
ARC
  5
30D7B
  8
0
 10
6648.4971083479458684
 20
326.5991434057715992
 30
0.0
 40
2.3749237882849861
 50
3.4826350171432039
 51
7.2311052798849857
  0
ARC
  5
30D7C
  8
0
 10
7538.2455869587984125
 20
451.6109629526911817
 30
0.0
 40
896.1130802228658467
 50
187.9803478434936039
 51
187.9998739257800082
  0
ARC
  5
30D7D
  8
0
 10
6652.0479976229617023
 20
327.3580298224104013
 30
0.0
 40
1.2472914974345961
 50
180.5423451538106008
 51
187.2554591920365965
  0
ARC
  5
30D7E
  8
0
 10
6650.8946271985523708
 20
326.7240074145365725
 30
0.0
 40
0.0082887650532139
 50
92.7393742312622464
 51
184.4903910178690865
  0
ARC
  5
30D7F
  8
0
 10
6651.7850867312463379
 20
326.7440977313451071
 30
0.0
 40
0.0118110235999977
 50
270.0
 51
356.6647535674873097
  0
ARC
  5
30D80
  8
0
 10
6651.7828359565910432
 20
326.7239647693393181
 30
0.0
 40
0.008376821597521
 50
355.8494140728669208
 51
83.437714958820024
  0
LINE
  5
30D81
  8
0
 10
6650.8794372757583915
 20
326.7322867077451178
 30
0.0
 11
6651.7850867312463379
 21
326.7322867077451178
 31
0.0
  0
LINE
  5
30D82
  8
0
 10
6651.8637627445459657
 20
330.3611378573449997
 30
0.0
 11
6651.8637620035451619
 21
327.3462235008449852
 31
0.0
  0
ARC
  5
30D83
  8
0
 10
6654.1674156591443534
 20
326.5991434057715992
 30
0.0
 40
2.3749237882849861
 50
172.7688947201149858
 51
176.5173649828568045
  0
ARC
  5
30D84
  8
0
 10
5764.4189370482927188
 20
451.6109629526911817
 30
0.0
 40
896.1130802228658467
 50
352.0001260742183149
 51
352.0196521565064245
  0
ARC
  5
30D85
  8
0
 10
6650.6165263841276101
 20
327.3580298224104013
 30
0.0
 40
1.2472914974345961
 50
352.7445408079632898
 51
359.4576548461877223
  0
LINE
  5
30D86
  8
0
 10
6651.7911908080450303
 20
326.7233584713450796
 30
0.0
 11
6651.7835867505809802
 21
326.5246966331800991
 31
0.0
  0
LINE
  5
30D87
  8
0
 10
6650.9035074050461844
 20
326.2754706156364932
 30
0.0
 11
6650.8863638760440153
 21
326.7233584713450796
 31
0.0
  0
ARC
  5
30D88
  8
0
 10
6653.1448447083275823
 20
321.2512108602836065
 30
0.0
 40
5.4895850528344994
 50
90.530155229186974
 51
91.6809440483207112
  0
LINE
  5
30D89
  8
0
 10
6653.0940505535472766
 20
326.7405609134449946
 30
0.0
 11
6653.0940505367452715
 21
324.4825372731451125
 31
0.0
  0
LINE
  5
30D8A
  8
0
 10
6653.0940505367452715
 20
324.4825372731451125
 30
0.0
 11
6652.7064646890448785
 21
324.4916999574451211
 31
0.0
  0
ARC
  5
30D8B
  8
0
 10
6653.6146880088990656
 20
312.9000847598833275
 30
0.0
 40
13.8546390154736407
 50
93.4250878968699681
 51
96.6626766047010335
  0
ARC
  5
30D8C
  8
0
 10
6652.9836833836234291
 20
326.734540470177194
 30
0.0
 40
0.0001322535861862
 50
284.9150223130192785
 51
351.9059779347567201
  0
ARC
  5
30D8D
  8
0
 10
6652.9785971487472125
 20
326.7550268507287115
 30
0.0
 40
0.0212405641550054
 50
273.2151232736455881
 51
283.9491795696583267
  0
ARC
  5
30D8E
  8
0
 10
6653.3198674787736309
 20
316.6513377007482859
 30
0.0
 40
10.0882157697253003
 50
91.9318368276393301
 51
93.0002194848522947
  0
ARC
  5
30D8F
  8
0
 10
6652.7870611075268243
 20
326.7260873020396161
 30
0.0
 40
0.0000975376991419
 50
184.8982456640532916
 51
246.3762455902239026
  0
LINE
  5
30D90
  8
0
 10
6652.9838143197448517
 20
326.7384335882450728
 30
0.0
 11
6652.9838143197448517
 21
326.7345218491449828
 31
0.0
  0
ARC
  5
30D91
  8
0
 10
6652.7881829401922005
 20
326.7296996407002894
 30
0.0
 40
0.0038794758708606
 50
252.5876595935982039
 51
265.7242190546281222
  0
ARC
  5
30D92
  8
0
 10
6652.7910239745860963
 20
326.7691437350820252
 30
0.0
 40
0.0434257401892923
 50
265.8663373606777895
 51
271.093176966638282
  0
LINE
  5
30D93
  8
0
 10
6652.7869639260461554
 20
326.7260789736449738
 30
0.0
 11
6652.786963887746424
 21
326.7299761198449914
 31
0.0
  0
ARC
  5
30D94
  8
0
 10
6652.7542929642258969
 20
320.2443348967418046
 30
0.0
 40
6.4601629320599523
 50
96.6407086614436679
 51
97.5918098205516031
  0
ARC
  5
30D95
  8
0
 10
6651.9034099083455658
 20
326.6283581980450208
 30
0.0
 40
0.0196850394000023
 50
97.5881169972836346
 51
179.999999990879104
  0
LINE
  5
30D96
  8
0
 10
6651.8837248689451371
 20
326.6283581980450208
 30
0.0
 11
6651.8837248689451371
 21
326.5415464744449991
 31
0.0
  0
ARC
  5
30D97
  8
0
 10
6651.8520832123949731
 20
326.6170309895886135
 30
0.0
 40
0.0818480693462321
 50
276.7296895041682774
 51
292.742493604137394
  0
ARC
  5
30D98
  8
0
 10
6681.9588072813176041
 20
113.5688101048930037
 30
0.0
 40
215.0831316982512078
 50
98.0439436552384649
 51
98.0649526472931257
  0
ARC
  5
30D99
  8
0
 10
6652.3376519790053862
 20
322.604386704888384
 30
0.0
 40
3.9592699088609482
 50
98.0444473525804341
 51
100.1742448034916038
  0
ARC
  5
30D9A
  8
0
 10
6652.6735171583095507
 20
320.4778814667375855
 30
0.0
 40
6.1118301006536759
 50
99.7519440752194555
 51
102.1546195127747012
  0
ARC
  5
30D9B
  8
0
 10
6651.4970681993818289
 20
325.8045953241817756
 30
0.0
 40
0.7576129058369463
 50
135.3353308327351101
 51
138.608939367502586
  0
ARC
  5
30D9C
  8
0
 10
6651.21868267642094
 20
326.0369030173907845
 30
0.0
 40
0.3952846450580237
 50
137.1902553168864927
 51
142.8765994148388074
  0
ARC
  5
30D9D
  8
0
 10
6650.9991422831189993
 20
326.2961217671116856
 30
0.0
 40
0.0579515292987987
 50
107.3209340861152015
 51
134.9099204539880077
  0
ARC
  5
30D9E
  8
0
 10
6652.0756707148957503
 20
322.7405294720892925
 30
0.0
 40
3.7729394689342581
 50
103.4067940907214052
 51
106.852077528962397
  0
ARC
  5
30D9F
  8
0
 10
6652.9118924045033054
 20
319.2821592326827158
 30
0.0
 40
7.3309617566068921
 50
102.0082456653828018
 51
103.4971761676492008
  0
ARC
  5
30DA0
  8
0
 10
6651.5538640261638648
 20
325.7715494871458191
 30
0.0
 40
0.8227394717472698
 50
142.2301093069148124
 51
182.1681159563950985
  0
ARC
  5
30DA1
  8
0
 10
6651.4650849487570667
 20
325.7601005358901034
 30
0.0
 40
0.7336353350068768
 50
181.5369045996494037
 51
224.6270161956547042
  0
ARC
  5
30DA2
  8
0
 10
6651.5810774883666454
 20
325.8743671358510028
 30
0.0
 40
0.8964576431815917
 50
224.6167584135581023
 51
233.9144196550091124
  0
ARC
  5
30DA3
  8
0
 10
6650.9648394882306093
 20
325.2099583181650928
 30
0.0
 40
0.0205483914840022
 50
179.9804429593353063
 51
267.5442726300079244
  0
LINE
  5
30DA4
  8
0
 10
6650.942960432243126
 20
325.2447299953778952
 30
0.0
 11
6650.9442910979460066
 21
325.2099653320449875
 31
0.0
  0
LINE
  5
30DA5
  8
0
 10
6650.9639590429460441
 20
325.1894287977449949
 30
0.0
 11
6651.0027213911289437
 21
325.1894287949726277
 31
0.0
  0
ARC
  5
30DA6
  8
0
 10
6651.0882007624295511
 20
325.1985644981047017
 30
0.0
 40
0.0600154230894201
 50
234.1716736249539963
 51
262.2924121552849215
  0
ARC
  5
30DA7
  8
0
 10
6650.4281329446303062
 20
320.4906519067519071
 30
0.0
 40
4.6939447234882801
 50
76.3976477139474213
 51
82.0154339187277657
  0
ARC
  5
30DA8
  8
0
 10
6650.8051868940638087
 20
322.1025280615107818
 30
0.0
 40
3.03862936644291
 50
74.3632731732822521
 51
76.159947241705396
  0
ARC
  5
30DA9
  8
0
 10
6650.8412335618868383
 20
322.1400895620622009
 30
0.0
 40
2.992843108292663
 50
65.7582583551822211
 51
74.8340045364960531
  0
ARC
  5
30DAA
  8
0
 10
6650.6901396144339742
 20
321.9174166204721246
 30
0.0
 40
3.2582479054787892
 50
52.5317190944168928
 51
64.9432796172154525
  0
ARC
  5
30DAB
  8
0
 10
6652.7079501744728987
 20
324.5518297622263049
 30
0.0
 40
0.0601481511768327
 50
233.537019568292294
 51
268.584816015035301
  0
LINE
  5
30DAC
  8
0
 10
6651.6242104129423751
 20
325.0286977254457952
 30
0.0
 11
6651.6242083468450801
 21
296.5322473376451171
 31
0.0
  0
LINE
  5
30DAD
  8
0
 10
6651.0533442711448515
 20
296.5322473376451171
 30
0.0
 11
6651.0533442711448515
 21
325.1497088249440139
 31
0.0
  0
ARC
  5
30DAE
  8
0
 10
6651.1405208456862965
 20
326.3244962976747274
 30
0.0
 40
0.196672013433662
 50
90.0372849574264364
 51
124.4959856603930035
  0
ARC
  5
30DAF
  8
0
 10
6650.9675920466352181
 20
326.3886898817129918
 30
0.0
 40
0.038895911851627
 50
143.1229667720114946
 51
180.1123379235297932
  0
ARC
  5
30DB0
  8
0
 10
6651.0219277055457496
 20
326.3386577828222244
 30
0.0
 40
0.1126289817027227
 50
128.2353224705925072
 51
139.3480656780276945
  0
ARC
  5
30DB1
  8
0
 10
6651.519241810397034
 20
325.7731604819013
 30
0.0
 40
0.8655522326297282
 50
124.4880874987415069
 51
130.9268910397667867
  0
LINE
  5
30DB2
  8
0
 10
6650.9286962095457056
 20
326.3886136198451027
 30
0.0
 11
6650.9286962095457056
 21
326.3055250560400964
 31
0.0
  0
LINE
  5
30DB3
  8
0
 10
6651.1405997167439637
 20
326.5211840075451164
 30
0.0
 11
6651.7592797343750135
 21
326.5211843455451231
 31
0.0
  0
ARC
  5
30DB4
  8
0
 10
6651.5105691403659876
 20
325.1465510660171958
 30
0.0
 40
1.360852064048703
 50
84.6151927448286187
 51
95.3389100076958442
  0
ARC
  5
30DB5
  8
0
 10
6651.513654130051691
 20
325.8125637559662096
 30
0.0
 40
0.7010395521558795
 50
100.6624266319819014
 51
124.6808336657873042
  0
ARC
  5
30DB6
  8
0
 10
6651.5183395832991664
 20
325.7703672323561932
 30
0.0
 40
0.7175607020168587
 50
245.5700168945101041
 51
271.0959604155046918
  0
ARC
  5
30DB7
  8
0
 10
6650.5260980310722516
 20
331.128291320028211
 30
0.0
 40
1.132291800064672
 50
348.4355286812902932
 51
3.8677194275523901
  0
ARC
  5
30DB8
  8
0
 10
6651.8334287350517116
 20
328.5849991969893154
 30
0.0
 40
2.061242344855664
 50
111.1969687128319038
 51
124.9750408952671989
  0
ARC
  5
30DB9
  8
0
 10
6651.2558287075416956
 20
331.019698251084094
 30
0.0
 40
0.3976122511152875
 50
298.9355913695455911
 51
342.6761382323956013
  0
ARC
  5
30DBA
  8
0
 10
6650.2204888546666552
 20
332.876396378067227
 30
0.0
 40
2.52346432144035
 50
290.1104620323467884
 51
299.1120855138545949
  0
ARC
  5
30DBB
  8
0
 10
6621.340032127577615
 20
323.0658065020052163
 30
0.0
 40
31.4301040003136194
 50
15.8353100061172007
 51
17.2961096214638417
  0
ARC
  5
30DBC
  8
0
 10
6648.9626345959286482
 20
330.9476578413102743
 30
0.0
 40
2.7054118358606991
 50
5.4512355556469423
 51
14.8765785613493993
  0
ARC
  5
30DBD
  8
0
 10
6583.1624418462088215
 20
310.9943413782702919
 30
0.0
 40
71.4705235587460237
 50
17.4364215179769992
 51
19.4653430380671786
  0
ARC
  5
30DBE
  8
0
 10
6649.4368065888147612
 20
334.4336349278277112
 30
0.0
 40
1.1734465398182761
 50
18.7556600053390312
 51
44.5213461304984435
  0
ARC
  5
30DBF
  8
0
 10
6649.9171703771071407
 20
334.7733535582207764
 30
0.0
 40
0.6002520255390241
 50
53.589312665977431
 51
88.9004596333902555
  0
ARC
  5
30DC0
  8
0
 10
6661.5675727914822346
 20
296.3100743709049993
 30
0.0
 40
40.7922660637276167
 50
107.0549754984097035
 51
107.8347240323681007
  0
ARC
  5
30DC1
  8
0
 10
6650.0196894465871083
 20
334.074041900055704
 30
0.0
 40
1.302635640811775
 50
94.0058779717241038
 51
108.6258903889582967
  0
ARC
  5
30DC2
  8
0
 10
6651.4673215151879049
 20
332.4535647581220132
 30
0.0
 40
0.1260819946189289
 50
200.0725721779093078
 51
286.9498792896364989
  0
ARC
  5
30DC3
  8
0
 10
6651.6066947932640687
 20
332.3519818452272716
 30
0.0
 40
0.0118110791898336
 50
17.8668556169859407
 51
106.9998902361776061
  0
ARC
  5
30DC4
  8
0
 10
6651.8317690807925828
 20
331.9375334032848741
 30
0.0
 40
0.0195804204654789
 50
16.9108399170007289
 51
107.8138179055226971
  0
LINE
  5
30DC5
  8
0
 10
6651.5040788351489027
 20
332.3329597466328096
 30
0.0
 11
6651.6032415895451777
 21
332.3632768430449005
 31
0.0
  0
LINE
  5
30DC6
  8
0
 10
6651.6179362482462238
 20
332.3556055562451093
 30
0.0
 11
6652.0977684398321799
 21
330.87883476332388
 31
0.0
  0
ARC
  5
30DC7
  8
0
 10
6652.0865510589537735
 20
330.8751821111355866
 30
0.0
 40
0.0117970971822164
 50
289.0801697847970217
 51
18.0365110831234894
  0
ARC
  5
30DC8
  8
0
 10
6652.1367220605361581
 20
330.9984491366503221
 30
0.0
 40
0.0197420754438463
 50
288.6649281930965003
 51
15.4474298687021108
  0
LINE
  5
30DC9
  8
0
 10
6651.8505028158460846
 20
331.9432290188449883
 30
0.0
 11
6652.1557509583326464
 21
331.0037075196181036
 31
0.0
  0
LINE
  5
30DCA
  8
0
 10
6651.7549706325453371
 20
331.9338570875451069
 30
0.0
 11
6651.8257789422450514
 21
331.9561750530450013
 31
0.0
  0
LINE
  5
30DCB
  8
0
 10
6652.1430895337161928
 20
330.9797621136632984
 30
0.0
 11
6652.072634580434169
 21
330.956187984816097
 31
0.0
  0
ARC
  5
30DCC
  8
0
 10
6649.1752281330464029
 20
334.7603954681450773
 30
0.0
 40
0.007874015699992
 50
138.0000006133570878
 51
198.000000000034305
  0
ARC
  5
30DCD
  8
0
 10
6649.2299130665096527
 20
334.5919779206502085
 30
0.0
 40
0.0078386203798814
 50
197.8505153258662119
 51
258.1494844692563788
  0
LINE
  5
30DCE
  8
0
 10
6649.228303335245073
 20
334.5843063670450874
 30
0.0
 11
6649.2438669972625576
 21
334.5809982085352203
 31
0.0
  0
LINE
  5
30DCF
  8
0
 10
6649.2224471447461838
 20
334.5895894427450799
 30
0.0
 11
6649.1677394991038454
 21
334.7579622634797829
 31
0.0
  0
LINE
  5
30DD0
  8
0
 10
6649.1693765990221436
 20
334.7656642130448859
 30
0.0
 11
6649.1800232884434081
 21
334.7774885596311947
 31
0.0
  0
ARC
  5
30DD1
  8
0
 10
6649.2626743108748997
 20
334.4912638068275896
 30
0.0
 40
0.0078740159498314
 50
138.0000011004202065
 51
197.9999987765623928
  0
ARC
  5
30DD2
  8
0
 10
6649.2951461557449875
 20
334.3913257438450728
 30
0.0
 40
0.0078740157000145
 50
198.0000000000885052
 51
257.9999999999312763
  0
LINE
  5
30DD3
  8
0
 10
6649.2935090558439697
 20
334.3836237942451248
 30
0.0
 11
6649.3090727665976374
 21
334.380315625397202
 31
0.0
  0
LINE
  5
30DD4
  8
0
 10
6649.28765442684562
 20
334.3889020642449736
 30
0.0
 11
6649.2551856766413039
 21
334.4888306022598954
 31
0.0
  0
LINE
  5
30DD5
  8
0
 10
6649.2568227765832489
 20
334.4965325518859913
 30
0.0
 11
6649.2674695689629516
 21
334.5083570127357007
 31
0.0
  0
ARC
  5
30DD6
  8
0
 10
6649.3664033614259097
 20
334.1720186156276213
 30
0.0
 40
0.0078740159498314
 50
138.0000011004202065
 51
197.9999987765623928
  0
ARC
  5
30DD7
  8
0
 10
6649.3988752062941785
 20
334.0720805526451045
 30
0.0
 40
0.0078740157000145
 50
198.0000000000885052
 51
257.9999999999312763
  0
LINE
  5
30DD8
  8
0
 10
6649.3972381063949797
 20
334.064378603044986
 30
0.0
 11
6649.4128018171486474
 21
334.0610704341972905
 31
0.0
  0
LINE
  5
30DD9
  8
0
 10
6649.3913834773957205
 20
334.069656873045119
 30
0.0
 11
6649.3589147271914044
 21
334.1695854110599271
 31
0.0
  0
LINE
  5
30DDA
  8
0
 10
6649.3605518271333494
 20
334.1772873606859093
 30
0.0
 11
6649.3711986195139616
 21
334.1891118215356755
 31
0.0
  0
ARC
  5
30DDB
  8
0
 10
6649.5015829788753763
 20
333.7559785325275925
 30
0.0
 40
0.0078740159498314
 50
138.0000011004202065
 51
197.9999987765623928
  0
ARC
  5
30DDC
  8
0
 10
6649.5340548237445546
 20
333.6560404695450757
 30
0.0
 40
0.0078740157000145
 50
198.0000000000885052
 51
257.9999999999312763
  0
LINE
  5
30DDD
  8
0
 10
6649.5324177238462653
 20
333.6483385199451277
 30
0.0
 11
6649.547981434599933
 21
333.6450303510972049
 31
0.0
  0
LINE
  5
30DDE
  8
0
 10
6649.5265630948451872
 20
333.6536167899450902
 30
0.0
 11
6649.494094344640871
 21
333.7535453279598983
 31
0.0
  0
LINE
  5
30DDF
  8
0
 10
6649.495731444582816
 20
333.7612472775858805
 30
0.0
 11
6649.5063782369643377
 21
333.7730717384358172
 31
0.0
  0
ARC
  5
30DE0
  8
0
 10
6649.659004132075097
 20
333.2714860407276092
 30
0.0
 40
0.0078740159498314
 50
138.0000011004202065
 51
197.9999987765623928
  0
ARC
  5
30DE1
  8
0
 10
6649.6914759769451848
 20
333.1715479777450923
 30
0.0
 40
0.0078740157000145
 50
198.0000000000885052
 51
257.9999999999312763
  0
LINE
  5
30DE2
  8
0
 10
6649.689838877044167
 20
333.1638460281449738
 30
0.0
 11
6649.7054025877978347
 21
333.1605378592972215
 31
0.0
  0
LINE
  5
30DE3
  8
0
 10
6649.6839842480458174
 20
333.1691242981451069
 30
0.0
 11
6649.6515154978405917
 21
333.2690528361599149
 31
0.0
  0
LINE
  5
30DE4
  8
0
 10
6649.6531525977834463
 20
333.2767547857858972
 30
0.0
 11
6649.6637993901631489
 21
333.2885792466357202
 31
0.0
  0
ARC
  5
30DE5
  8
0
 10
6649.8279368361254456
 20
332.7515646385775767
 30
0.0
 40
0.0078740159498314
 50
138.0000011004202065
 51
197.9999987765623928
  0
ARC
  5
30DE6
  8
0
 10
6649.8604086809964429
 20
332.6516265755951167
 30
0.0
 40
0.0078740157000145
 50
198.0000000000885052
 51
257.9999999999312763
  0
LINE
  5
30DE7
  8
0
 10
6649.8587715810954251
 20
332.6439246259951119
 30
0.0
 11
6649.8743352918490928
 21
332.6406164571471891
 31
0.0
  0
LINE
  5
30DE8
  8
0
 10
6649.8529169520952564
 20
332.6492028959950744
 30
0.0
 11
6649.8204482018900308
 21
332.7491314340098825
 31
0.0
  0
LINE
  5
30DE9
  8
0
 10
6649.8220853018319758
 20
332.7568333836359216
 30
0.0
 11
6649.8327320942116785
 21
332.7686578444856877
 31
0.0
  0
ARC
  5
30DEA
  8
0
 10
6649.9968699322253087
 20
332.2316420299276274
 30
0.0
 40
0.0078740159498314
 50
138.0000011004202065
 51
197.9999987765623928
  0
ARC
  5
30DEB
  8
0
 10
6650.029341777096306
 20
332.1317039669451106
 30
0.0
 40
0.0078740157000145
 50
198.0000000000885052
 51
257.9999999999312763
  0
LINE
  5
30DEC
  8
0
 10
6650.0277046771961977
 20
332.1240020173449921
 30
0.0
 11
6650.0432683879498654
 21
332.1206938484971829
 31
0.0
  0
LINE
  5
30DED
  8
0
 10
6650.0218500481951196
 20
332.1292802873451251
 30
0.0
 11
6649.9893812979908034
 21
332.22920882535999
 31
0.0
  0
LINE
  5
30DEE
  8
0
 10
6649.991018397931839
 20
332.2369107749859154
 30
0.0
 11
6650.0016651903133607
 21
332.2487352358356816
 31
0.0
  0
ARC
  5
30DEF
  8
0
 10
6650.1542904767256914
 20
331.7471514115775904
 30
0.0
 40
0.0078740159498314
 50
138.0000011004202065
 51
197.9999987765623928
  0
ARC
  5
30DF0
  8
0
 10
6650.1867623215939602
 20
331.6472133485950735
 30
0.0
 40
0.0078740157000145
 50
198.0000000000885052
 51
257.9999999999312763
  0
LINE
  5
30DF1
  8
0
 10
6650.1851252216947614
 20
331.6395113989951255
 30
0.0
 11
6650.2006889324493386
 21
331.6362032301472027
 31
0.0
  0
LINE
  5
30DF2
  8
0
 10
6650.1792705926964118
 20
331.6447896689949744
 30
0.0
 11
6650.1468018424902766
 21
331.7447182070098961
 31
0.0
  0
LINE
  5
30DF3
  8
0
 10
6650.1484389424322217
 20
331.7524201566358784
 30
0.0
 11
6650.1590857348128338
 21
331.7642446174857014
 31
0.0
  0
ARC
  5
30DF4
  8
0
 10
6650.2894704600767
 20
331.3311102023777153
 30
0.0
 40
0.0078740159498314
 50
138.0000011004202065
 51
197.9999987765623928
  0
ARC
  5
30DF5
  8
0
 10
6650.3219423049449688
 20
331.2311721393950847
 30
0.0
 40
0.0078740157000145
 50
198.0000000000885052
 51
257.9999999999312763
  0
LINE
  5
30DF6
  8
0
 10
6650.3203052050448605
 20
331.2234701897950799
 30
0.0
 11
6650.3358689157994377
 21
331.2201620209472139
 31
0.0
  0
LINE
  5
30DF7
  8
0
 10
6650.3144505760456013
 20
331.2287484597950993
 30
0.0
 11
6650.2819818258403757
 21
331.3286769978099073
 31
0.0
  0
LINE
  5
30DF8
  8
0
 10
6650.2836189257823207
 20
331.3363789474358896
 30
0.0
 11
6650.2942657181629329
 21
331.3482034082857126
 31
0.0
  0
ARC
  5
30DF9
  8
0
 10
6650.3931977231750352
 20
331.0118705123276186
 30
0.0
 40
0.0078740159498314
 50
138.0000011004202065
 51
197.9999987765623928
  0
ARC
  5
30DFA
  8
0
 10
6650.425669568045123
 20
330.9119324493451018
 30
0.0
 40
0.0078740157000145
 50
198.0000000000885052
 51
257.9999999999312763
  0
LINE
  5
30DFB
  8
0
 10
6650.4240324681441052
 20
330.9042304997450969
 30
0.0
 11
6650.4395970241594114
 21
330.9009221512316117
 31
0.0
  0
LINE
  5
30DFC
  8
0
 10
6650.4181778391457556
 20
330.9095087697451163
 30
0.0
 11
6650.3857090889414394
 21
331.0094373077599244
 31
0.0
  0
LINE
  5
30DFD
  8
0
 10
6650.3873461888833845
 20
331.0171392573859066
 30
0.0
 11
6650.3979929812630871
 21
331.0289637182357865
 31
0.0
  0
ARC
  5
30DFE
  8
0
 10
6650.4584031768163186
 20
330.8111887607277026
 30
0.0
 40
0.007874015699992
 50
138.0000006133570878
 51
198.000000000034305
  0
ARC
  5
30DFF
  8
0
 10
6650.5130881102795684
 20
330.6427712132328907
 30
0.0
 40
0.0078386203798814
 50
197.8505153258647056
 51
258.1494844692563788
  0
LINE
  5
30E00
  8
0
 10
6650.5114783790158981
 20
330.6350996596277128
 30
0.0
 11
6650.5270420410333827
 21
330.6317915011177888
 31
0.0
  0
LINE
  5
30E01
  8
0
 10
6650.5056221885151899
 20
330.6403827353277052
 30
0.0
 11
6650.4509145428737611
 21
330.8087555560624082
 31
0.0
  0
LINE
  5
30E02
  8
0
 10
6650.4525516427929688
 20
330.8164575056275112
 30
0.0
 11
6650.4631990466623392
 21
330.8282826456892849
 31
0.0
  0
LINE
  5
30E03
  8
0
 10
6651.8538605402463872
 20
316.6597887301451237
 30
0.0
 11
6651.8538605402463872
 21
315.2014775987451003
 31
0.0
  0
LINE
  5
30E04
  8
0
 10
6651.6242104129441941
 20
315.2908693849449833
 30
0.0
 11
6651.8538605402463872
 21
315.2908693849449833
 31
0.0
  0
LINE
  5
30E05
  8
0
 10
6651.6242104129441941
 20
316.5703969439451271
 30
0.0
 11
6651.8538605402463872
 21
316.5703969439451271
 31
0.0
  0
LINE
  5
30E06
  8
0
 10
6652.700321540245568
 20
317.0825819365451252
 30
0.0
 11
6652.700321540245568
 21
314.6530499910451226
 31
0.0
  0
LINE
  5
30E07
  8
0
 10
6652.8351814230463788
 20
314.512312842813003
 30
0.0
 11
6653.0940505402459166
 21
314.512312842813003
 31
0.0
  0
LINE
  5
30E08
  8
0
 10
6653.0940505402459166
 20
314.512312842813003
 30
0.0
 11
6653.0940505402459166
 21
317.2169531645174061
 31
0.0
  0
LINE
  5
30E09
  8
0
 10
6653.0940505402459166
 20
317.2169531645174061
 30
0.0
 11
6652.8346291608459069
 21
317.2169531645174061
 31
0.0
  0
LINE
  5
30E0A
  8
0
 10
6652.711852769345569
 20
317.1104290834451263
 30
0.0
 11
6652.8067903111450505
 21
317.2053666252450057
 31
0.0
  0
ARC
  5
30E0B
  8
0
 10
6652.8348367215967301
 20
317.1772171397449824
 30
0.0
 40
0.0397365668645354
 50
90.2992812430749723
 51
134.8949076546620063
  0
ARC
  5
30E0C
  8
0
 10
6652.7396916180114204
 20
317.0825902329466999
 30
0.0
 40
0.0393700786395848
 50
134.9999981138005012
 51
180.0120738596220917
  0
ARC
  5
30E0D
  8
0
 10
6652.7404909076321928
 20
314.6533641828960981
 30
0.0
 40
0.0401705961215029
 50
180.4481399906640888
 51
222.757598658321001
  0
LINE
  5
30E0E
  8
0
 10
6652.7109963512448303
 20
314.6260924404447792
 30
0.0
 11
6652.8065464258961583
 21
314.524611207015198
 31
0.0
  0
ARC
  5
30E0F
  8
0
 10
6652.8351877049399263
 20
314.5518129166434846
 30
0.0
 40
0.0395000743300453
 50
223.5233063237866986
 51
269.990887963672094
  0
ARC
  5
30E10
  8
0
 10
6652.5033215402463611
 20
316.8874995570449755
 30
0.0
 40
0.196999999999988
 50
270.9999999999757279
 51
0.0000000000032569
  0
ARC
  5
30E11
  8
0
 10
6651.8735455795176676
 20
316.659788730197306
 30
0.0
 40
0.0196850392722254
 50
90.9999996333245917
 51
180.000000152143798
  0
LINE
  5
30E12
  8
0
 10
6651.8732020283450765
 20
316.6794707713449952
 30
0.0
 11
6652.506759664322999
 21
316.6905295610446842
 31
0.0
  0
LINE
  5
30E13
  8
0
 10
6651.8732020283450765
 20
315.1817955574717871
 30
0.0
 11
6652.5067596643448269
 21
315.1707367678902756
 31
0.0
  0
ARC
  5
30E14
  8
0
 10
6652.5033215403236682
 20
314.9737667719774095
 30
0.0
 40
0.196999999921096
 50
359.9999999906103767
 51
89.0000000202461337
  0
ARC
  5
30E15
  8
0
 10
6651.8735455796440874
 20
315.2014775987451003
 30
0.0
 40
0.0196850394000094
 50
180.0000000000277112
 51
268.9999999998678959
  0
ARC
  5
30E16
  8
0
 10
6650.0870734311693013
 20
315.5724331263313047
 30
0.0
 40
1.5344063038464399
 50
121.9722084999934992
 51
166.0277956287042969
  0
ARC
  5
30E17
  8
0
 10
6649.2984939566031244
 20
316.8402714959617015
 30
0.0
 40
0.0414017501763394
 50
90.7401027614973117
 51
125.259986639132606
  0
ARC
  5
30E18
  8
0
 10
6649.405736470543161
 20
315.3510533281884136
 30
0.0
 40
1.534406303770935
 50
49.9722085344007922
 51
94.0277944542508664
  0
ARC
  5
30E19
  8
0
 10
6650.3678379542880066
 20
316.4928205787790034
 30
0.0
 40
0.0414017499955846
 50
18.7401047047523406
 51
53.2599873594949003
  0
ARC
  5
30E1A
  8
0
 10
6648.9846470759021031
 20
315.930633164445112
 30
0.0
 40
1.5344062992694021
 50
337.9722028738494828
 51
22.0277945917600313
  0
ARC
  5
30E1B
  8
0
 10
6650.3678380492201541
 20
315.3684456863609853
 30
0.0
 40
0.0414016357230577
 50
306.7401133992502764
 51
341.2598428599796989
  0
ARC
  5
30E1C
  8
0
 10
6649.4057364703621715
 20
316.5102130009557868
 30
0.0
 40
1.5344063039732589
 50
265.9722030749380224
 51
310.0277956069468814
  0
ARC
  5
30E1D
  8
0
 10
6649.298493926545234
 20
315.0209947275176887
 30
0.0
 40
0.041401640541659
 50
234.7401127417099076
 51
269.2598452557966198
  0
ARC
  5
30E1E
  8
0
 10
6650.0870734303789504
 20
316.2888332019052768
 30
0.0
 40
1.534406302864131
 50
193.9722029274520025
 51
238.0277955561865042
  0
ARC
  5
30E1F
  8
0
 10
6648.6376029160310281
 20
315.9306331682340101
 30
0.0
 40
0.041401636985322
 50
162.7401148680540075
 51
197.2598423404307084
  0
ARC
  5
30E20
  8
0
 10
6648.7650242641848308
 20
315.9306331470065743
 30
0.0
 40
0.0585106296495968
 50
170.6559424520229982
 51
189.3440665912023917
  0
ARC
  5
30E21
  8
0
 10
6650.0870733862138877
 20
315.5724331778570217
 30
0.0
 40
1.42793746629165
 50
122.9220262407619941
 51
165.0779778709105869
  0
ARC
  5
30E22
  8
0
 10
6649.3380378150131946
 20
316.7185680642219836
 30
0.0
 40
0.0590487922021005
 50
98.7418563081002247
 51
117.2582078933138945
  0
ARC
  5
30E23
  8
0
 10
6649.4057337279491549
 20
315.3510482628914815
 30
0.0
 40
1.4279431977632451
 50
50.9220692022505688
 51
93.077629007011879
  0
ARC
  5
30E24
  8
0
 10
6650.2643057935829347
 20
316.4175993063900023
 30
0.0
 40
0.0590554710444119
 50
26.7379602823877001
 51
45.2577344179007213
  0
ARC
  5
30E25
  8
0
 10
6648.9846470636048252
 20
315.9306331642994223
 30
0.0
 40
1.427937540339786
 50
338.9220247812021967
 51
21.0779754475822685
  0
ARC
  5
30E26
  8
0
 10
6650.2643186540371971
 20
315.4436568893045774
 30
0.0
 40
0.0590392337737731
 50
314.7403719191887035
 51
333.259701641410004
  0
ARC
  5
30E27
  8
0
 10
6649.405736477496248
 20
316.5102129475134234
 30
0.0
 40
1.4279374800420861
 50
266.9220249777691265
 51
309.0779774386829217
  0
ARC
  5
30E28
  8
0
 10
6649.338034739651448
 20
315.1426890453519718
 30
0.0
 40
0.0590392130769769
 50
242.7403970383008982
 51
261.2597525759164228
  0
ARC
  5
30E29
  8
0
 10
6650.0870733644896973
 20
316.2888331705992186
 30
0.0
 40
1.42793746021706
 50
194.9220248331886864
 51
237.0779779060844987
  0
ARC
  5
30E2A
  8
0
 10
6650.2907846169337063
 20
316.5657978684901082
 30
0.0
 40
0.0393701006488067
 50
85.8875818844587684
 51
91.3839600953248237
  0
ARC
  5
30E2B
  8
0
 10
6650.2802658058981251
 20
316.4507562957298887
 30
0.0
 40
0.1548860365927873
 50
36.8294440275849126
 51
85.0583059155365362
  0
ARC
  5
30E2C
  8
0
 10
6650.3039447414703318
 20
316.423236836103797
 30
0.0
 40
0.151960012981419
 50
346.4127832565192193
 51
31.1503544028020016
  0
ARC
  5
30E2D
  8
0
 10
6649.0242068560792177
 20
315.5287782457249932
 30
0.0
 40
1.712996235920847
 50
34.6142691237808506
 51
36.3292983427410121
  0
ARC
  5
30E2E
  8
0
 10
6650.4022094079464296
 20
316.7706331644452007
 30
0.0
 40
0.2000000000001343
 50
262.5380890531347973
 51
270.0
  0
LINE
  5
30E2F
  8
0
 10
6650.4022094079464296
 20
316.5706331644450984
 30
0.0
 11
6651.0507434536439177
 21
316.5706331644450984
 31
0.0
  0
ARC
  5
30E30
  8
0
 10
6650.4022094080892202
 20
315.0906331635097786
 30
0.0
 40
0.2000000009352627
 50
90.0000000413234034
 51
125.0669052972695994
  0
LINE
  5
30E31
  8
0
 10
6650.4022094080892202
 20
315.2906331644451257
 30
0.0
 11
6651.0533442711448515
 21
315.2906331644451257
 31
0.0
  0
LINE
  5
30E32
  8
0
 10
6650.4684943197462417
 20
315.2906331644451257
 30
0.0
 11
6650.4684943197462417
 21
315.0034678101450254
 31
0.0
  0
LINE
  5
30E33
  8
0
 10
6650.4684943197462417
 20
315.0034678101450254
 30
0.0
 11
6650.4586518000451179
 21
314.9936252904450953
 31
0.0
  0
LINE
  5
30E34
  8
0
 10
6650.4586518000451179
 20
314.9936252904450953
 30
0.0
 11
6649.6388982639737151
 21
314.9936252904450953
 31
0.0
  0
LINE
  5
30E35
  8
0
 10
6650.4684943197462417
 20
315.0034678101450254
 30
0.0
 11
6649.6957737707925844
 21
315.0034678101450254
 31
0.0
  0
ARC
  5
30E36
  8
0
 10
6650.440600348544649
 20
314.985751274644997
 30
0.0
 40
0.007874015700005
 50
357.6140559819369855
 51
89.9999999999478888
  0
LINE
  5
30E37
  8
0
 10
6650.4484675381436318
 20
314.9854234750779938
 30
0.0
 11
6650.3905402264454096
 21
313.5951679962450953
 31
0.0
  0
ARC
  5
30E38
  8
0
 10
6650.3708722527253485
 20
313.5959874949472805
 30
0.0
 40
0.0196850392021959
 50
269.9999997685263793
 51
357.6140565594374721
  0
ARC
  5
30E39
  8
0
 10
6649.6212344971454513
 20
313.5959874951450956
 30
0.0
 40
0.0196850394000058
 50
182.3859439927967969
 51
270.0
  0
LINE
  5
30E3A
  8
0
 10
6649.6212344971454513
 20
313.5763024557451217
 30
0.0
 11
6650.370872252645313
 21
313.5763024557451217
 31
0.0
  0
LINE
  5
30E3B
  8
0
 10
6649.6015665233462641
 20
313.5951679962450953
 30
0.0
 11
6649.5437806504323817
 21
314.9820289446258244
 31
0.0
  0
ARC
  5
30E3C
  8
0
 10
6649.0615918807616254
 20
315.068863129035492
 30
0.0
 40
0.0593127531049182
 50
50.1374404293141396
 51
125.8060341386569974
  0
ARC
  5
30E3D
  8
0
 10
6648.6095798145879598
 20
315.6908087623630763
 30
0.0
 40
0.0597366830813122
 50
306.3033018130491882
 51
17.3149108376069307
  0
ARC
  5
30E3E
  8
0
 10
6647.6165932017447631
 20
314.8565929170450772
 30
0.0
 40
0.0314960629999873
 50
126.0000000000071054
 51
170.9999999495460088
  0
ARC
  5
30E3F
  8
0
 10
6647.6076222563797273
 20
314.7999525396181753
 30
0.0
 40
0.0314960719704925
 50
171.0000033073515056
 51
216.0168914963724944
  0
LINE
  5
30E40
  8
0
 10
6647.5765139530449233
 20
314.8048796090450878
 30
0.0
 11
6647.5854849075440143
 21
314.86151998684511
 31
0.0
  0
LINE
  5
30E41
  8
0
 10
6647.5821468578460554
 20
314.7814321017451107
 30
0.0
 11
6647.8793903716223213
 21
314.3723115034084117
 31
0.0
  0
ARC
  5
30E42
  8
0
 10
6647.9048712218464061
 20
314.3908244247451194
 30
0.0
 40
0.0314960629999983
 50
215.9999999999899956
 51
260.9999999999823217
  0
LINE
  5
30E43
  8
0
 10
6647.8999441520463733
 20
314.3597161305449958
 30
0.0
 11
6647.9565845299539433
 21
314.3507451759335254
 31
0.0
  0
ARC
  5
30E44
  8
0
 10
6647.9615115996448367
 20
314.3818534701450744
 30
0.0
 40
0.0314960630000032
 50
261.0000001375786951
 51
306.0000000000071054
  0
LINE
  5
30E45
  8
0
 10
6647.9800245209926288
 20
314.356372619907404
 30
0.0
 11
6649.0268913644331406
 21
315.1169659028552132
 31
0.0
  0
LINE
  5
30E46
  8
0
 10
6648.6449453210452702
 20
315.6426559085451231
 30
0.0
 11
6647.5980802804087944
 21
314.8820737672680252
 31
0.0
  0
LINE
  5
30E47
  8
0
 10
6648.8457126458506536
 20
315.3869318188376951
 30
0.0
 11
6647.7307686147341883
 21
314.5768718025767043
 31
0.0
  0
LINE
  5
30E48
  8
0
 10
6652.8067903111450505
 20
317.2053666252450057
 30
0.0
 11
6652.8065464258779684
 21
314.5246112070328195
 31
0.0
  0
LINE
  5
30E49
  8
0
 10
6650.2814864457450312
 20
313.5763024557451217
 30
0.0
 11
6650.2814917373443677
 21
296.5322174826376909
 31
0.0
  0
LINE
  5
30E4A
  8
0
 10
6649.7106223201435569
 20
296.5322172991199068
 30
0.0
 11
6649.7106223201435569
 21
313.5763024557451217
 31
0.0
  0
ARC
  5
30E4B
  8
0
 10
6672.5428726858299342
 20
296.0696969422958205
 30
0.0
 40
22.2661852813596006
 50
178.8097475739471918
 51
190.7496103243848893
  0
ARC
  5
30E4C
  8
0
 10
6629.2745595597853026
 20
296.029312128893821
 30
0.0
 40
21.7845910525765198
 50
349.1180031560630823
 51
1.3228903489721391
  0
ARC
  5
30E4D
  8
0
 10
6617.839311792308763
 20
296.4262638542941204
 30
0.0
 40
33.7850627896328817
 50
355.3285590836895835
 51
0.1797367165316592
  0
ARC
  5
30E4E
  8
0
 10
6650.663906164250875
 20
291.5267431349449225
 30
0.0
 40
0.4234130797887398
 50
270.4037829551198797
 51
334.8342372785298267
  0
ARC
  5
30E4F
  8
0
 10
6637.5122762064693234
 20
294.7578648345943861
 30
0.0
 40
14.0417036103922008
 50
349.1020923885919842
 51
355.5760631998844019
  0
ARC
  5
30E50
  8
0
 10
6648.7500535841272722
 20
292.5375758321400212
 30
0.0
 40
2.5874239617545971
 50
332.5962011623255989
 51
350.3342314188208206
  0
ARC
  5
30E51
  8
0
 10
6683.4028565329663252
 20
296.4226005137874722
 30
0.0
 40
33.6924125299932768
 50
179.8135903673349105
 51
184.6771289343078877
  0
ARC
  5
30E52
  8
0
 10
6659.0158544445112057
 20
294.1600899124944135
 30
0.0
 40
9.2059887396220752
 50
183.018616215936504
 51
196.3945655439619031
  0
ARC
  5
30E53
  8
0
 10
6650.6738539729321928
 20
291.5083347470575177
 30
0.0
 40
0.4050540453957344
 50
229.611800122300707
 51
269.0148930818426152
  0
ARC
  5
30E54
  8
0
 10
6651.0581010803252866
 20
291.8581503720789101
 30
0.0
 40
0.922839975526949
 50
198.7380594247088084
 51
225.5104383741332867
  0
ENDSEC
  0
EOF
