  0
SECTION
  2
HEADER
  9
$ACADVER
  1
AC1009
  9
$INSBASE
 10
4193.1217367758436012
 20
154.15609739312751
 30
0.0
  9
$EXTMIN
 10
4188.5137504098202044
 20
145.5802923528706003
 30
-0.0000000000000058
  9
$EXTMAX
 10
4205.4394849811342283
 20
154.1573207206708105
 30
0.0000000000000104
  9
$LIMMIN
 10
0.0
 20
0.0
  9
$LIMMAX
 10
11.6929133858000007
 20
8.2677165353999982
  9
$ORTHOMODE
 70
     0
  9
$REGENMODE
 70
     1
  9
$FILLMODE
 70
     1
  9
$QTEXTMODE
 70
     0
  9
$MIRRTEXT
 70
     0
  9
$DRAGMODE
 70
     2
  9
$LTSCALE
 40
0.6431102362
  9
$OSMODE
 70
  4095
  9
$ATTMODE
 70
     1
  9
$TEXTSIZE
 40
0.2
  9
$TRACEWID
 40
0.05
  9
$TEXTSTYLE
  7
STANDARD
  9
$CLAYER
  8
0
  9
$CELTYPE
  6
BYLAYER
  9
$CECOLOR
 62
   256
  9
$DIMSCALE
 40
1.0
  9
$DIMASZ
 40
0.1875
  9
$DIMEXO
 40
0.0625
  9
$DIMDLI
 40
0.4443307087
  9
$DIMRND
 40
0.0
  9
$DIMDLE
 40
0.0
  9
$DIMEXE
 40
0.125
  9
$DIMTP
 40
0.01
  9
$DIMTM
 40
0.01
  9
$DIMTXT
 40
2.0
  9
$DIMCEN
 40
0.1052362205
  9
$DIMTSZ
 40
0.0
  9
$DIMTOL
 70
     1
  9
$DIMLIM
 70
     0
  9
$DIMTIH
 70
     1
  9
$DIMTOH
 70
     1
  9
$DIMSE1
 70
     0
  9
$DIMSE2
 70
     0
  9
$DIMTAD
 70
     0
  9
$DIMZIN
 70
     0
  9
$DIMBLK
  1

  9
$DIMASO
 70
     1
  9
$DIMSHO
 70
     1
  9
$DIMPOST
  1
\X
  9
$DIMAPOST
  1

  9
$DIMALT
 70
     1
  9
$DIMALTD
 70
     2
  9
$DIMALTF
 40
25.3999999999999986
  9
$DIMLFAC
 40
1.0
  9
$DIMTOFL
 70
     0
  9
$DIMTVP
 40
0.0
  9
$DIMTIX
 70
     0
  9
$DIMSOXD
 70
     0
  9
$DIMSAH
 70
     0
  9
$DIMBLK1
  1

  9
$DIMBLK2
  1

  9
$DIMSTYLE
  2
STANDARD
  9
$DIMCLRD
 70
     0
  9
$DIMCLRE
 70
     0
  9
$DIMCLRT
 70
     0
  9
$DIMTFAC
 40
1.0
  9
$DIMGAP
 40
0.09
  9
$LUNITS
 70
     2
  9
$LUPREC
 70
     4
  9
$SKETCHINC
 40
0.1
  9
$FILLETRAD
 40
0.0
  9
$AUNITS
 70
     0
  9
$AUPREC
 70
     0
  9
$MENU
  1
.
  9
$ELEVATION
 40
0.0
  9
$PELEVATION
 40
0.0
  9
$THICKNESS
 40
0.0
  9
$LIMCHECK
 70
     0
  9
$BLIPMODE
 70
     0
  9
$CHAMFERA
 40
0.0
  9
$CHAMFERB
 40
0.0
  9
$SKPOLY
 70
     0
  9
$TDCREATE
 40
2458060.468368056230247
  9
$TDUPDATE
 40
2459341.5278819450177252
  9
$TDINDWG
 40
0.3629584491
  9
$TDUSRTIMER
 40
0.3629584491
  9
$USRTIMER
 70
     1
  9
$ANGBASE
 50
0.0
  9
$ANGDIR
 70
     0
  9
$PDMODE
 70
     0
  9
$PDSIZE
 40
0.3125
  9
$PLINEWID
 40
0.0
  9
$COORDS
 70
     1
  9
$SPLFRAME
 70
     0
  9
$SPLINETYPE
 70
     6
  9
$SPLINESEGS
 70
     8
  9
$ATTDIA
 70
     1
  9
$ATTREQ
 70
     1
  9
$HANDLING
 70
     1
  9
$HANDSEED
  5
A436
  9
$SURFTAB1
 70
     6
  9
$SURFTAB2
 70
     6
  9
$SURFTYPE
 70
     6
  9
$SURFU
 70
     6
  9
$SURFV
 70
     6
  9
$UCSNAME
  2

  9
$UCSORG
 10
0.0
 20
0.0
 30
0.0
  9
$UCSXDIR
 10
1.0
 20
0.0
 30
0.0
  9
$UCSYDIR
 10
0.0
 20
1.0
 30
0.0
  9
$PUCSNAME
  2

  9
$PUCSORG
 10
0.0
 20
0.0
 30
0.0
  9
$PUCSXDIR
 10
1.0
 20
0.0
 30
0.0
  9
$PUCSYDIR
 10
0.0
 20
1.0
 30
0.0
  9
$USERI1
 70
     0
  9
$USERI2
 70
     0
  9
$USERI3
 70
     0
  9
$USERI4
 70
     0
  9
$USERI5
 70
     0
  9
$USERR1
 40
0.0
  9
$USERR2
 40
0.0
  9
$USERR3
 40
0.0
  9
$USERR4
 40
0.0
  9
$USERR5
 40
0.0
  9
$WORLDVIEW
 70
     1
  9
$SHADEDGE
 70
     3
  9
$SHADEDIF
 70
    70
  9
$TILEMODE
 70
     1
  9
$MAXACTVP
 70
    64
  9
$PLIMCHECK
 70
     0
  9
$PEXTMIN
 10
1.0000000000000000E+20
 20
1.0000000000000000E+20
 30
1.0000000000000000E+20
  9
$PEXTMAX
 10
-1.0000000000000000E+20
 20
-1.0000000000000000E+20
 30
-1.0000000000000000E+20
  9
$PLIMMIN
 10
0.0
 20
0.0
  9
$PLIMMAX
 10
12.0
 20
9.0
  9
$UNITMODE
 70
     0
  9
$VISRETAIN
 70
     1
  9
$PLINEGEN
 70
     0
  9
$PSLTSCALE
 70
     1
  0
ENDSEC
  0
SECTION
  2
TABLES
  0
TABLE
  2
VPORT
 70
     1
  0
VPORT
  2
*ACTIVE
 70
     0
 10
0.0
 20
0.0
 11
1.0
 21
1.0
 12
393.4325503126647163
 22
23.8735443400208212
 13
0.0
 23
0.0
 14
1.0
 24
1.0
 15
0.0
 25
0.0
 16
0.0
 26
0.0
 36
17.1152628219792007
 17
3803.5440673828129547
 27
125.9952621967499056
 37
0.0
 40
8.6972670832366603
 41
3.0070257611241211
 42
50.0
 43
0.0
 44
0.0
 50
0.0
 51
0.0
 71
     0
 72
   100
 73
     1
 74
     1
 75
     0
 76
     0
 77
     0
 78
     0
  0
ENDTAB
  0
TABLE
  2
LTYPE
 70
     2
  0
LTYPE
  2
CONTINUOUS
 70
     0
  3
Solid line
 72
    65
 73
     0
 40
0.0
  0
LTYPE
  2
PHANTOM2
 70
     0
  3
___ _ _ ___ _ _ ___ _ _ ___ _ _
 72
    65
 73
     6
 40
1.25
 49
0.625
 49
-0.125
 49
0.125
 49
-0.125
 49
0.125
 49
-0.125
  0
ENDTAB
  0
TABLE
  2
LAYER
 70
     2
  0
LAYER
  2
0
 70
     0
 62
   255
  6
CONTINUOUS
  0
LAYER
  2
DEFPOINTS
 70
     0
 62
     7
  6
CONTINUOUS
  0
ENDTAB
  0
TABLE
  2
STYLE
 70
     1
  0
STYLE
  2
STANDARD
 70
     0
 40
0.0
 41
0.8
 50
0.0
 71
     0
 42
0.2
  3
txt
  4

  0
ENDTAB
  0
TABLE
  2
VIEW
 70
     0
  0
ENDTAB
  0
TABLE
  2
UCS
 70
     0
  0
ENDTAB
  0
TABLE
  2
APPID
 70
     9
  0
APPID
  2
ACAD
 70
     0
  0
APPID
  2
ACAD_MLEADERVER
 70
     0
  0
APPID
  2
ACAD_EXEMPT_FROM_CAD_STANDARDS
 70
     0
  0
APPID
  2
ACAD_NAV_VCDISPLAY
 70
     0
  0
APPID
  2
ACAECLAYERSTANDARD
 70
     0
  0
APPID
  2
ACCMTRANSPARENCY
 70
     0
  0
APPID
  2
ACAD_DSTYLE_DIMJAG
 70
     0
  0
APPID
  2
ACAD_DSTYLE_DIMTALN
 70
     0
  0
APPID
  2
ACDBATTR
 70
     0
  0
ENDTAB
  0
TABLE
  2
DIMSTYLE
 70
     1
  0
DIMSTYLE
  2
STANDARD
 70
     0
  3

  4

  5

  6

  7

 40
1.0
 41
0.1875
 42
0.0625
 43
0.38
 44
0.125
 45
0.0
 46
0.0
 47
0.01
 48
0.01
140
0.15625
141
0.09
142
0.0
143
25.3999999999999986
144
1.0
145
0.0
146
1.0
147
0.09
 71
     1
 72
     0
 73
     1
 74
     1
 75
     0
 76
     0
 77
     0
 78
     4
170
     0
171
     2
172
     0
173
     0
174
     0
175
     0
176
     0
177
     0
178
     0
  0
ENDTAB
  0
ENDSEC
  0
SECTION
  2
BLOCKS
  0
BLOCK
  8
0
  2
$MODEL_SPACE
 70
     0
 10
0.0
 20
0.0
 30
0.0
  3
$MODEL_SPACE
  1

  0
ENDBLK
  5
21
  8
0
  0
BLOCK
 67
     1
  8
0
  2
$PAPER_SPACE
 70
     0
 10
0.0
 20
0.0
 30
0.0
  3
$PAPER_SPACE
  1

  0
ENDBLK
  5
1D
 67
     1
  8
0
  0
ENDSEC
  0
SECTION
  2
ENTITIES
  0
ATTDEF
  5
3930
  8
DEFPOINTS
 10
4193.1160860288946424
 20
154.1533603513462083
 30
0.0
 40
0.001
  1
K-EX27027T-4
  3

  2
MODELNUMBER
 70
     0
1001
ACDBATTR
1070
     0
1070
     1
  0
ATTDEF
  5
3931
  8
DEFPOINTS
 10
4193.1160860288946424
 20
154.1516936846794863
 30
0.0
 40
0.001
  1

  3

  2
TRADENAME
 70
     0
1001
ACDBATTR
1070
     0
1070
     1
  0
ATTDEF
  5
3932
  8
DEFPOINTS
 10
4193.1160860288946424
 20
154.1500270180127927
 30
0.0
 40
0.001
  1
BATH AND SHOWER FAUCET
  3

  2
PRODUCT
 70
     0
1001
ACDBATTR
1070
     0
1070
     1
  0
ARC
  5
A221
  8
0
 10
4202.8484212021203348
 20
165.3364151503529058
 30
0.0
 40
15.2629085490520904
 50
267.342418841800793
 51
268.9568567332148064
  0
ARC
  5
A222
  8
0
 10
4202.527888615349184
 20
157.4627987616408973
 30
0.0
 40
7.383034769325211
 50
261.4088712952024025
 51
266.994069416126024
  0
ARC
  5
A223
  8
0
 10
4202.1261510190142872
 20
154.8036480886237882
 30
0.0
 40
4.6937085715359634
 50
251.6163817633315887
 51
261.4088712952024025
  0
ARC
  5
A224
  8
0
 10
4201.1829809541522991
 20
151.965665375541704
 30
0.0
 40
1.7031040087420231
 50
234.5993363224409904
 51
251.6163817633315887
  0
ARC
  5
A225
  8
0
 10
4200.4934538278102991
 20
150.9954302534571013
 30
0.0
 40
0.5128083101490591
 50
212.5697087002664887
 51
234.5993363224409904
  0
ARC
  5
A226
  8
0
 10
4200.3275936953277778
 20
150.8900846986446993
 30
0.0
 40
0.3163220486987805
 50
182.5730622647450048
 51
212.661741399403013
  0
ARC
  5
A227
  8
0
 10
4220.5192963095596497
 20
150.8558594054071875
 30
0.0
 40
20.5077155192785696
 50
178.0339379030459099
 51
179.9440541165384104
  0
ARC
  5
A228
  8
0
 10
4200.8957120225350081
 20
151.5216634286610997
 30
0.0
 40
0.8728761553720829
 50
138.1682339850864878
 51
177.5203294879700024
  0
ARC
  5
A229
  8
0
 10
4201.4603955178399701
 20
150.7878900324170104
 30
0.0
 40
1.791110295108489
 50
104.3086363633790938
 51
132.7178614894704083
  0
ARC
  5
A22A
  8
0
 10
4202.2678619812268153
 20
148.209063894507608
 30
0.0
 40
4.4918420456912811
 50
97.8614769055678408
 51
106.1594456072383963
  0
ARC
  5
A22B
  8
0
 10
4203.6981153559099766
 20
138.0738856374667023
 30
0.0
 40
14.7274259867265904
 50
97.6396287121392987
 51
97.9802764421296644
  0
ARC
  5
A22C
  8
0
 10
4201.7007234411794343
 20
152.7394268497353096
 30
0.0
 40
0.0793657888759777
 50
299.8471703398914769
 51
356.5870295248387265
  0
ARC
  5
A22D
  8
0
 10
4216.245825605619757
 20
152.459593543101505
 30
0.0
 40
14.4684928765589707
 50
178.4431761438818
 51
178.9104943684656064
  0
ARC
  5
A22E
  8
0
 10
4202.5698721681474126
 20
155.1159789510572011
 30
0.0
 40
2.4999256135747712
 50
265.7748682658545931
 51
270.0156657901731023
  0
ARC
  5
A22F
  8
0
 10
4202.5427988186693256
 20
154.749510879176114
 30
0.0
 40
2.132458861391509
 50
259.712944365253577
 51
265.7748682658545931
  0
ARC
  5
A230
  8
0
 10
4202.3814525741372563
 20
153.860538249588501
 30
0.0
 40
1.228962903027065
 50
248.7385000479544033
 51
259.712944365253577
  0
ARC
  5
A231
  8
0
 10
4202.0757111652446838
 20
153.0747924339848112
 30
0.0
 40
0.38582928618446
 50
227.2931951773086041
 51
248.7385000479544033
  0
ARC
  5
A232
  8
0
 10
4201.8817979007371832
 20
152.8647007124930042
 30
0.0
 40
0.0999256562822194
 50
188.7191717054697904
 51
227.293195177309201
  0
ARC
  5
A233
  8
0
 10
4201.8444951170322383
 20
152.8589798096789991
 30
0.0
 40
0.0621867320640816
 50
176.7495227391056005
 51
188.7191717054689946
  0
ARC
  5
A234
  8
0
 10
4201.8821587676238778
 20
152.856840797866198
 30
0.0
 40
0.0999110736413588
 50
152.3318670435187983
 51
176.7495227391023889
  0
ARC
  5
A235
  8
0
 10
4201.9867010254420165
 20
152.7809356079453096
 30
0.0
 40
0.2285105879628201
 50
115.3548266019329986
 51
147.6425289719315117
  0
ARC
  5
A236
  8
0
 10
4202.0324043634509508
 20
152.7236328260981963
 30
0.0
 40
0.2985173028040781
 50
119.1255959089925938
 51
130.1653631522071066
  0
ARC
  5
A237
  8
0
 10
4201.9421556161150875
 20
152.830558845272094
 30
0.0
 40
0.1585958606588731
 50
130.1653631522071066
 51
151.7297669498493065
  0
ARC
  5
A238
  8
0
 10
4201.8697074100537066
 20
152.8695196471011002
 30
0.0
 40
0.0763359880560511
 50
151.7297669498479138
 51
220.7872750199998961
  0
ARC
  5
A239
  8
0
 10
4202.0597561225777099
 20
153.0334916524533924
 30
0.0
 40
0.3273446167354156
 50
220.7872750199998961
 51
253.9085543801029985
  0
ARC
  5
A23A
  8
0
 10
4202.4055964635936107
 20
153.9399613004968046
 30
0.0
 40
1.2966913427572411
 50
250.3252321005060992
 51
261.6419413430538157
  0
ARC
  5
A23B
  8
0
 10
4202.5577803986088838
 20
154.8730052716823025
 30
0.0
 40
2.2419965227668772
 50
261.2601003483977138
 51
268.1144781596105986
  0
ARC
  5
A23C
  8
0
 10
4202.5707606905225475
 20
155.1684860598365105
 30
0.0
 40
2.5377464946657491
 50
268.0410750854666162
 51
269.9953717707027749
  0
ARC
  5
A23D
  8
0
 10
4201.9342051840176282
 20
152.8663291986096056
 30
0.0
 40
0.0919419965540288
 50
129.984834781184901
 51
179.1560168689541968
  0
ARC
  5
A23E
  8
0
 10
4201.9515851408759772
 20
152.8829444822034986
 30
0.0
 40
0.1103721289233976
 50
187.9476705152154921
 51
231.0039239511056905
  0
ARC
  5
A23F
  8
0
 10
4202.2769959028519224
 20
153.3711165964253951
 30
0.0
 40
0.6966626675205017
 50
235.4730272998612861
 51
261.0920699297765282
  0
ARC
  5
A240
  8
0
 10
4202.582403145122953
 20
154.953644345897402
 30
0.0
 40
2.3080900003706648
 50
259.6850670327175976
 51
269.7058989185085238
  0
ARC
  5
A241
  8
0
 10
4201.9995785954251915
 20
152.8985986292663029
 30
0.0
 40
0.1487272379159768
 50
204.2287314924288069
 51
239.4474536742490898
  0
ARC
  5
A242
  8
0
 10
4201.9995785954251915
 20
152.8985986292663029
 30
0.0
 40
0.1487272379159768
 50
239.1968511419530046
 51
239.7177937837396939
  0
ARC
  5
A243
  8
0
 10
4201.9319476607561228
 20
152.8531961929676868
 30
0.0
 40
0.0697693915813043
 50
144.5320640564009977
 51
192.9474178653146055
  0
ARC
  5
A244
  8
0
 10
4202.5547596136148059
 20
152.9921500591815118
 30
0.0
 40
0.0082316117137733
 50
288.4765130754386746
 51
327.0381976099224062
  0
ARC
  5
A245
  8
0
 10
4202.5442656340119356
 20
153.0234480677603131
 30
0.0
 40
0.041242045143808
 50
270.4574923523409211
 51
288.524049282255703
  0
ARC
  5
A246
  8
0
 10
4202.5498045286958586
 20
152.3297784522806069
 30
0.0
 40
0.6524496837921314
 50
90.4574923523408643
 51
97.1532347860403434
  0
ARC
  5
A247
  8
0
 10
4202.5869078335881568
 20
152.0341351324460959
 30
0.0
 40
0.9504121441737137
 50
97.1532347860403434
 51
101.628854393965895
  0
ARC
  5
A248
  8
0
 10
4202.4839871092808608
 20
152.5613713143804091
 30
0.0
 40
0.4132883964808398
 50
102.3868542497530996
 51
110.2244336728085017
  0
ARC
  5
A249
  8
0
 10
4202.4179351816283088
 20
152.7406592249903099
 30
0.0
 40
0.2222203142756973
 50
110.2244336728085017
 51
118.9117807768974018
  0
ARC
  5
A24A
  8
0
 10
4202.3580733434009744
 20
152.8490460788472092
 30
0.0
 40
0.0984012940693126
 50
118.9117807768974018
 51
144.5703242533382138
  0
ARC
  5
A24B
  8
0
 10
4202.2962792076777987
 20
152.8930090728474056
 30
0.0
 40
0.0225642315524011
 50
144.5703242533382138
 51
194.1929041482875959
  0
ARC
  5
A24C
  8
0
 10
4202.3061344020479737
 20
152.9003771218486065
 30
0.0
 40
0.0342528623941686
 50
202.1248343610261884
 51
229.9080981803111001
  0
ARC
  5
A24D
  8
0
 10
4202.342419641718152
 20
152.9389501977942984
 30
0.0
 40
0.0871788172418007
 50
227.9906253820805091
 51
236.4030623699406135
  0
ARC
  5
A24E
  8
0
 10
4202.2837607019855568
 20
152.8497523526374948
 30
0.0
 40
0.0195836673183439
 50
0.0510047370837235
 51
57.8583144254616428
  0
ARC
  5
A24F
  8
0
 10
4202.2943863152477206
 20
152.8555392894637919
 30
0.0
 40
0.0106552223502382
 50
269.0049196730237782
 51
327.2161065753194862
  0
ARC
  5
A250
  8
0
 10
8759.9857103492431634
 20
-266864.8565067431773059
 30
0.0
 40
267056.595890799886547
 50
90.9778794831581763
 51
90.9779093078811627
  0
ARC
  5
A251
  8
0
 10
4202.7522153813215482
 20
115.1318140272362029
 30
0.0
 40
37.7154245412977929
 50
90.9069880122786174
 51
91.173600030390304
  0
ARC
  5
A252
  8
0
 10
4201.9708036639603961
 20
152.8924914872312968
 30
0.0
 40
0.0539099829502767
 50
261.2351670273129116
 51
279.538815633686113
  0
ARC
  5
A253
  8
0
 10
4201.9667316858831327
 20
152.8660808975749035
 30
0.0
 40
0.0271873286760357
 50
244.5163895095556086
 51
261.2351670273129116
  0
ARC
  5
A254
  8
0
 10
4202.0542174286920272
 20
153.0225632192353942
 30
0.0
 40
0.2064151993631319
 50
217.9115611566992925
 51
241.2817258820660129
  0
ARC
  5
A255
  8
0
 10
4201.9589687424022486
 20
152.9454017143467013
 30
0.0
 40
0.0838893163979382
 50
185.168058368501903
 51
216.304728517340294
  0
ARC
  5
A256
  8
0
 10
4201.9478889018273549
 20
152.9443995975695998
 30
0.0
 40
0.0727642498720498
 50
146.5230248091515932
 51
185.1680583685003114
  0
ARC
  5
A257
  8
0
 10
4202.0162643653129635
 20
152.9128859232328921
 30
0.0
 40
0.1476229201328665
 50
128.6335573798914993
 51
150.9638020965197995
  0
ARC
  5
A258
  8
0
 10
4202.1279514196103264
 20
152.7775218991822896
 30
0.0
 40
0.3231051319673305
 50
115.8789832275842997
 51
129.1180419614030086
  0
ARC
  5
A259
  8
0
 10
4202.2281002445588456
 20
152.5844764559207931
 30
0.0
 40
0.5405353404011404
 50
112.0550979030624035
 51
116.4987461308542009
  0
ARC
  5
A25A
  8
0
 10
4202.3626751445299305
 20
152.2367351648294118
 30
0.0
 40
0.9132275875453528
 50
101.4189538058189015
 51
111.6676857321765937
  0
ARC
  5
A25B
  8
0
 10
4202.5564344801932748
 20
151.277433881801187
 30
0.0
 40
1.891900991585787
 50
90.4329811601210167
 51
101.4189538058189015
  0
ARC
  5
A25C
  8
0
 10
4202.5422771314451893
 20
153.150819991878592
 30
0.0
 40
0.0184613880877625
 50
43.6066213459176026
 51
90.4329811601210167
  0
ARC
  5
A25D
  8
0
 10
4202.5401128552139198
 20
153.1493107196749861
 30
0.0
 40
0.021073267341589
 50
28.41008396977168
 51
42.519393473148412
  0
ARC
  5
A25E
  8
0
 10
4202.544405991394342
 20
153.151632986325609
 30
0.0
 40
0.0161922899124506
 50
13.72510620653137
 51
28.4100839697731189
  0
ARC
  5
A25F
  8
0
 10
4202.5363262928276527
 20
153.1496596169228042
 30
0.0
 40
0.0245094838932868
 50
2.2089847953062378
 51
13.7251062065179195
  0
LINE
  5
A260
  8
0
 10
4201.8751246519541382
 20
152.9443995975695998
 30
0.0
 11
4201.8751246519541382
 21
152.81716763238569
 31
0.0
  0
LINE
  5
A261
  8
0
 10
4201.9550342580369033
 20
152.8415385436057079
 30
0.0
 11
4201.9550342580369033
 21
152.7533143856938977
 31
0.0
  0
LINE
  5
A262
  8
0
 10
4202.3033443615504439
 20
152.8497697860377968
 30
0.0
 11
4202.3033443615504439
 21
152.7603693738236075
 31
0.0
  0
ARC
  5
A263
  8
0
 10
4202.0000194779267986
 20
152.7355495582237097
 30
0.0
 40
0.01948758490999
 50
121.590309780898707
 51
165.6043692417950979
  0
ARC
  5
A264
  8
0
 10
4202.000146343745655
 20
152.7353432626090068
 30
0.0
 40
0.0197297683459964
 50
90.6066004277757457
 51
121.5903097808991049
  0
ARC
  5
A265
  8
0
 10
4201.9958306872149478
 20
153.1429586466780108
 30
0.0
 40
0.3879084612412826
 50
270.6066004277757884
 51
271.3939513947286741
  0
ARC
  5
A266
  8
0
 10
4202.0427916199278116
 20
151.2130977019203897
 30
0.0
 40
1.542523768934642
 50
90.6066004278799966
 51
91.3939513947286741
  0
ARC
  5
A267
  8
0
 10
4201.867679498200232
 20
167.7525035198736987
 30
0.0
 40
14.9978090289906607
 50
270.6066004278799824
 51
271.3939513947286741
  0
ARC
  5
A268
  8
0
 10
4202.3424108500412331
 20
148.2434043118886962
 30
0.0
 40
4.5170653432266539
 50
90.6066004712902213
 51
91.3939513947286457
  0
ARC
  5
A269
  8
0
 10
4202.2878422403200602
 20
153.397429673464103
 30
0.0
 40
0.6372488847701002
 50
270.6066004712902213
 51
271.3939510434540239
  0
ARC
  5
A26A
  8
0
 10
4202.3203945804416435
 20
152.0596899381249898
 30
0.0
 40
0.7008868536184057
 50
90.5818959740440448
 51
91.3939510434540239
  0
ARC
  5
A26B
  8
0
 10
4202.3134153205382972
 20
152.7468718500938962
 30
0.0
 40
0.0136695006608025
 50
66.279071527703195
 51
90.5818959740440448
  0
ARC
  5
A26C
  8
0
 10
4202.4933377492970976
 20
153.1893936492398041
 30
0.0
 40
0.4640363005156148
 50
247.9210918633239089
 51
261.6519367041285022
  0
ARC
  5
A26D
  8
0
 10
4202.5643368036562606
 20
153.6011555239288953
 30
0.0
 40
0.8818054689875247
 50
260.9719764812012954
 51
268.2561435994683734
  0
ARC
  5
A26E
  8
0
 10
4202.5705140884092543
 20
153.7176096823729097
 30
0.0
 40
0.9983971413467024
 50
268.1051810056752061
 51
270.002387814999679
  0
ARC
  5
A26F
  8
0
 10
4202.5704857398222885
 20
152.0457263079798054
 30
0.0
 40
0.8447771100577773
 50
89.9952552666078844
 51
92.3731467233936456
  0
ARC
  5
A270
  8
0
 10
4202.565177115780898
 20
152.1738211259441869
 30
0.0
 40
0.7165723368294107
 50
92.3731467233936456
 51
103.5370204952185986
  0
ARC
  5
A271
  8
0
 10
4202.454031810532797
 20
152.6354604053935873
 30
0.0
 40
0.2417417320772878
 50
103.5370204952185986
 51
123.0382425281270002
  0
ARC
  5
A272
  8
0
 10
4202.3576313890926031
 20
152.7836873466548013
 30
0.0
 40
0.0649246871707317
 50
123.0382425281282934
 51
146.7361774419302094
  0
LINE
  5
A273
  8
0
 10
4202.5608175633442443
 20
153.1506043229034901
 30
0.0
 11
4202.5621725310866168
 21
152.890462513098413
 31
0.0
  0
ARC
  5
A274
  8
0
 10
4202.358671539520401
 20
152.8188881537585928
 30
0.0
 40
0.0739234312832163
 50
221.5446616033233056
 51
232.1197557986427
  0
LINE
  5
A275
  8
0
 10
4202.6788235801468545
 20
154.0458611082275127
 30
0.0
 11
4202.4622880571469068
 21
154.0458611082275127
 31
0.0
  0
ARC
  5
A276
  8
0
 10
4202.4622880571469068
 20
154.0360177683550091
 30
0.0
 40
0.0098433398725177
 50
90.0
 51
180.7904305597905079
  0
LINE
  5
A277
  8
0
 10
4202.4524456539465973
 20
154.035881977727513
 30
0.0
 11
4202.4524472080938722
 21
153.8586783329307934
 31
0.0
  0
ARC
  5
A278
  8
0
 10
4202.4622881736522686
 20
153.8588532358294003
 30
0.0
 40
0.0098425197042987
 50
181.0182072985095942
 51
270.0012823967816189
  0
LINE
  5
A279
  8
0
 10
4202.4622883939473468
 20
153.8490107161275091
 30
0.0
 11
4202.6788235298881773
 21
153.8490107161277933
 31
0.0
  0
LINE
  5
A27A
  8
0
 10
4202.472130693347026
 20
153.8490107161275091
 30
0.0
 11
4202.472130693347026
 21
154.0458611081274967
 31
0.0
  0
LINE
  5
A27B
  8
0
 10
4202.472130693347026
 20
154.0281316351274938
 30
0.0
 11
4202.6689810870484507
 21
154.0281316351274938
 31
0.0
  0
LINE
  5
A27C
  8
0
 10
4202.6689810870484507
 20
153.9802006181274976
 30
0.0
 11
4202.472130693347026
 21
153.9802006181274976
 31
0.0
  0
LINE
  5
A27D
  8
0
 10
4202.6689810870484507
 20
153.8709384647274874
 30
0.0
 11
4202.472130693347026
 21
153.8709384647274874
 31
0.0
  0
LINE
  5
A27E
  8
0
 10
4201.6094458315683369
 20
154.15609739312751
 30
0.0
 11
4201.615595875748113
 21
153.1559637634275077
 31
0.0
  0
ARC
  5
A27F
  8
0
 10
4205.8075568333597403
 20
153.1619928310649925
 30
0.0
 40
4.1919652932496687
 50
180.0824053218373137
 51
186.9099969978447007
  0
LINE
  5
A280
  8
0
 10
4203.5316655620708843
 20
154.15609739312751
 30
0.0
 11
4203.5255157121437151
 21
153.1559637634275077
 31
0.0
  0
ARC
  5
A281
  8
0
 10
4199.3335547545311783
 20
153.1619928310649925
 30
0.0
 40
4.1919652932496687
 50
353.090002634641678
 51
359.9175946781626863
  0
ARC
  5
A282
  8
0
 10
4202.6788235307440118
 20
154.0360177683548955
 30
0.0
 40
0.0098433398727189
 50
359.2095694406784787
 51
89.9997124319021111
  0
LINE
  5
A283
  8
0
 10
4202.6886659339443213
 20
154.035881977727513
 30
0.0
 11
4202.6886643797970464
 21
153.8586783329307934
 31
0.0
  0
ARC
  5
A284
  8
0
 10
4202.6788234142431975
 20
153.8588532358278087
 30
0.0
 40
0.0098425197006734
 50
270.0006731969244811
 51
358.9817927100900192
  0
LINE
  5
A285
  8
0
 10
4202.6689808945438926
 20
153.8490107161275091
 30
0.0
 11
4202.6689808945438926
 21
154.0458611081274967
 31
0.0
  0
LINE
  5
A286
  8
0
 10
4203.5316655620708843
 20
154.15609739312751
 30
0.0
 11
4201.6094458315683369
 21
154.15609739312751
 31
0.0
  0
ARC
  5
A287
  8
0
 10
4202.2926901915379858
 20
165.3364151510548083
 30
0.0
 40
15.2629085497546804
 50
271.0431432668895013
 51
272.6575811581990934
  0
ARC
  5
A288
  8
0
 10
4202.6132227783400594
 20
157.4627987616408973
 30
0.0
 40
7.383034769325211
 50
273.005930583873976
 51
278.5911287047975975
  0
ARC
  5
A289
  8
0
 10
4203.0149603746740468
 20
154.8036480886237882
 30
0.0
 40
4.6937085715359634
 50
278.5911287047975975
 51
288.3836182366683829
  0
ARC
  5
A28A
  8
0
 10
4203.9581304395351253
 20
151.965665375541704
 30
0.0
 40
1.7031040087420231
 50
288.3836182366683829
 51
305.4006636775591232
  0
ARC
  5
A28B
  8
0
 10
4204.6476575658771253
 20
150.9954302534571013
 30
0.0
 40
0.5128083101490591
 50
305.4006636775591232
 51
327.4302912997334829
  0
ARC
  5
A28C
  8
0
 10
4204.8135176983605561
 20
150.8900846986446993
 30
0.0
 40
0.3163220486987805
 50
327.3382586005963049
 51
357.4269377352550237
  0
ARC
  5
A28D
  8
0
 10
4184.6218150841277748
 20
150.8558594054071875
 30
0.0
 40
20.5077155192785696
 50
0.055945883461549
 51
1.9660620969541081
  0
ARC
  5
A28E
  8
0
 10
4204.2453993711533258
 20
151.5216634286610997
 30
0.0
 40
0.8728761553720829
 50
2.4796705120299389
 51
41.8317660149134909
  0
ARC
  5
A28F
  8
0
 10
4203.6807158758483638
 20
150.7878900324170104
 30
0.0
 40
1.791110295108489
 50
47.2821385105295704
 51
75.6913636366208067
  0
ARC
  5
A290
  8
0
 10
4202.8732494124596997
 20
148.209063894507608
 30
0.0
 40
4.4918420456912811
 50
73.8405543927615753
 51
82.1385230944321592
  0
ARC
  5
A291
  8
0
 10
4201.4429960377783573
 20
138.0738856374667023
 30
0.0
 40
14.7274259867265904
 50
82.0197235578703356
 51
82.3603712878607155
  0
ARC
  5
A292
  8
0
 10
4203.4403879525079901
 20
152.7394268497353096
 30
0.0
 40
0.0793657888759777
 50
183.4129704751611882
 51
240.1528296601084946
  0
ARC
  5
A293
  8
0
 10
4188.8952857880685769
 20
152.459593543101505
 30
0.0
 40
14.4684928765589707
 50
1.0895056315343929
 51
1.556823856118186
  0
ARC
  5
A294
  8
0
 10
4202.5712392255418308
 20
155.1159789510572011
 30
0.0
 40
2.4999256135747712
 50
269.984334209826784
 51
274.2251317341454069
  0
ARC
  5
A295
  8
0
 10
4202.5983125750180989
 20
154.749510879176114
 30
0.0
 40
2.132458861391509
 50
274.2251317341454069
 51
280.287055634746423
  0
ARC
  5
A296
  8
0
 10
4202.7596588195510776
 20
153.860538249588501
 30
0.0
 40
1.228962903027065
 50
280.287055634746423
 51
291.2614999520457104
  0
ARC
  5
A297
  8
0
 10
4203.0654002284427406
 20
153.0747924339848112
 30
0.0
 40
0.38582928618446
 50
291.2614999520457104
 51
312.7068048226913106
  0
ARC
  5
A298
  8
0
 10
4203.2593134929511507
 20
152.8647007124930042
 30
0.0
 40
0.0999256562822194
 50
312.7068048226909127
 51
351.2808282945301812
  0
ARC
  5
A299
  8
0
 10
4203.2966162766560956
 20
152.8589798096789991
 30
0.0
 40
0.0621867320640816
 50
351.280828294530977
 51
3.2504772608943391
  0
ARC
  5
A29A
  8
0
 10
4203.2589526260635466
 20
152.856840797866198
 30
0.0
 40
0.0999110736413588
 50
3.2504772608975911
 51
27.6681329564811804
  0
ARC
  5
A29B
  8
0
 10
4203.1544103682463174
 20
152.7809356079453096
 30
0.0
 40
0.2285105879628201
 50
32.3574710280685096
 51
64.6451733980670156
  0
ARC
  5
A29C
  8
0
 10
4203.1087070302382926
 20
152.7236328260981963
 30
0.0
 40
0.2985173028040781
 50
49.8346368477928721
 51
60.874404091007392
  0
ARC
  5
A29D
  8
0
 10
4203.198955777572337
 20
152.830558845272094
 30
0.0
 40
0.1585958606588731
 50
28.2702330501506403
 51
49.8346368477928721
  0
ARC
  5
A29E
  8
0
 10
4203.2714039836337179
 20
152.8695196471011002
 30
0.0
 40
0.0763359880560511
 50
319.2127249800000754
 51
28.2702330501520684
  0
ARC
  5
A29F
  8
0
 10
4203.081355271108805
 20
153.0334916524533924
 30
0.0
 40
0.3273446167354156
 50
286.0914456198970015
 51
319.2127249800000754
  0
ARC
  5
A2A0
  8
0
 10
4202.7355149300919948
 20
153.9399613004968046
 30
0.0
 40
1.2966913427572411
 50
278.3580586569461843
 51
289.6747678994938155
  0
ARC
  5
A2A1
  8
0
 10
4202.5833309950794501
 20
154.8730052716823025
 30
0.0
 40
2.2419965227668772
 50
271.8855218403894014
 51
278.7398996516022862
  0
ARC
  5
A2A2
  8
0
 10
4202.5703507031639674
 20
155.1684860598365105
 30
0.0
 40
2.5377464946657491
 50
270.0046282292972251
 51
271.9589249145334975
  0
ARC
  5
A2A3
  8
0
 10
4203.2069062096688867
 20
152.8663291986096056
 30
0.0
 40
0.0919419965540288
 50
0.8439831310457643
 51
50.0151652188150777
  0
ARC
  5
A2A4
  8
0
 10
4203.1895262528123567
 20
152.8829444822034986
 30
0.0
 40
0.1103721289233976
 50
308.996076048894281
 51
352.0523294847844227
  0
ARC
  5
A2A5
  8
0
 10
4202.8641154908364115
 20
153.3711165964253951
 30
0.0
 40
0.6966626675205017
 50
278.9079300702234718
 51
304.5269727001386855
  0
ARC
  5
A2A6
  8
0
 10
4202.5587082485662904
 20
154.953644345897402
 30
0.0
 40
2.3080900003706648
 50
270.2941010814914193
 51
280.3149329672824024
  0
ARC
  5
A2A7
  8
0
 10
4203.1415327982631425
 20
152.8985986292663029
 30
0.0
 40
0.1487272379159768
 50
300.5525463257508818
 51
335.7712685075711079
  0
ARC
  5
A2A8
  8
0
 10
4203.1415327982631425
 20
152.8985986292663029
 30
0.0
 40
0.1487272379159768
 50
300.2822062162603061
 51
300.8031488580471091
  0
ARC
  5
A2A9
  8
0
 10
4203.2091637329331206
 20
152.8531961929676868
 30
0.0
 40
0.0697693915813043
 50
347.0525821346853945
 51
35.467935943598917
  0
ARC
  5
A2AA
  8
0
 10
4202.5863517800717091
 20
152.9921500591815118
 30
0.0
 40
0.0082316117137733
 50
212.9618023900777075
 51
251.523486924561297
  0
ARC
  5
A2AB
  8
0
 10
4202.5968457596773078
 20
153.0234480677603131
 30
0.0
 40
0.041242045143808
 50
251.4759507177444107
 51
269.5425076476590789
  0
ARC
  5
A2AC
  8
0
 10
4202.5913068649906563
 20
152.3297784522806069
 30
0.0
 40
0.6524496837921314
 50
82.8467652139596851
 51
89.5425076476591357
  0
ARC
  5
A2AD
  8
0
 10
4202.5542035601001771
 20
152.0341351324460959
 30
0.0
 40
0.9504121441737137
 50
78.3711456060340765
 51
82.8467652139596851
  0
ARC
  5
A2AE
  8
0
 10
4202.6571242844056542
 20
152.5613713143804091
 30
0.0
 40
0.4132883964808398
 50
69.7755663271915125
 51
77.6131457502469004
  0
ARC
  5
A2AF
  8
0
 10
4202.7231762120591156
 20
152.7406592249903099
 30
0.0
 40
0.2222203142756973
 50
61.0882192231025911
 51
69.7755663271915125
  0
ARC
  5
A2B0
  8
0
 10
4202.78303805028645
 20
152.8490460788472092
 30
0.0
 40
0.0984012940693126
 50
35.4296757466617933
 51
61.0882192231025911
  0
ARC
  5
A2B1
  8
0
 10
4202.8448321860087162
 20
152.8930090728474056
 30
0.0
 40
0.0225642315524011
 50
345.8070958517124041
 51
35.4296757466617933
  0
ARC
  5
A2B2
  8
0
 10
4202.8349769916403602
 20
152.9003771218486065
 30
0.0
 40
0.0342528623941686
 50
310.0919018196889283
 51
337.8751656389737832
  0
ARC
  5
A2B3
  8
0
 10
4202.7986917519701819
 20
152.9389501977942984
 30
0.0
 40
0.0871788172418007
 50
303.5969376300593012
 51
312.0093746179194909
  0
ARC
  5
A2B4
  8
0
 10
4202.8573506917027771
 20
152.8497523526374948
 30
0.0
 40
0.0195836673183439
 50
122.1416855745383003
 51
179.9489952629162985
  0
ARC
  5
A2B5
  8
0
 10
4202.8467250784397038
 20
152.8555392894637919
 30
0.0
 40
0.0106552223502382
 50
212.7838934246805138
 51
270.9950803269762218
  0
ARC
  5
A2B6
  8
0
 10
-354.8445989555547726
 20
-266864.8565067431773059
 30
0.0
 40
267056.595890799886547
 50
89.0220906921188515
 51
89.0221205168418379
  0
ARC
  5
A2B7
  8
0
 10
4202.3888960123649667
 20
115.1318140272362029
 30
0.0
 40
37.7154245412977929
 50
88.8263999696097244
 51
89.0930119877213968
  0
ARC
  5
A2B8
  8
0
 10
4203.1703077297270283
 20
152.8924914872312968
 30
0.0
 40
0.0539099829502767
 50
260.4611843663140007
 51
278.7648329726870884
  0
ARC
  5
A2B9
  8
0
 10
4203.1743797078052012
 20
152.8660808975749035
 30
0.0
 40
0.0271873286760357
 50
278.7648329726870884
 51
295.4836104904439935
  0
ARC
  5
A2BA
  8
0
 10
4203.0868939649963067
 20
153.0225632192353942
 30
0.0
 40
0.2064151993631319
 50
298.7182741179340155
 51
322.0884388433005938
  0
ARC
  5
A2BB
  8
0
 10
4203.1821426512860853
 20
152.9454017143467013
 30
0.0
 40
0.0838893163979382
 50
323.6952714826596775
 51
354.8319416314981254
  0
ARC
  5
A2BC
  8
0
 10
4203.1932224918609791
 20
152.9443995975695998
 30
0.0
 40
0.0727642498720498
 50
354.8319416314996033
 51
33.4769751908483997
  0
ARC
  5
A2BD
  8
0
 10
4203.1248470283762799
 20
152.9128859232328921
 30
0.0
 40
0.1476229201328665
 50
29.0361979034802111
 51
51.3664426201084865
  0
ARC
  5
A2BE
  8
0
 10
4203.0131599740780075
 20
152.7775218991822896
 30
0.0
 40
0.3231051319673305
 50
50.8819580385974604
 51
64.1210167724157145
  0
ARC
  5
A2BF
  8
0
 10
4202.9495894588799274
 20
152.6615524308483884
 30
0.0
 40
0.4552392089446967
 50
63.2930733738233826
 51
68.610150746829774
  0
ARC
  5
A2C0
  8
0
 10
4202.7784362491565844
 20
152.2367351648294118
 30
0.0
 40
0.9132275875453528
 50
68.3323142678233637
 51
78.5810461941810559
  0
ARC
  5
A2C1
  8
0
 10
4202.5846769134941496
 20
151.277433881801187
 30
0.0
 40
1.891900991585787
 50
78.5810461941810559
 51
89.5670188398789975
  0
ARC
  5
A2C2
  8
0
 10
4202.5988342622431446
 20
153.150819991878592
 30
0.0
 40
0.0184613880877625
 50
89.5670188398789975
 51
136.3933786540823974
  0
ARC
  5
A2C3
  8
0
 10
4202.6009985384744141
 20
153.1493107196749861
 30
0.0
 40
0.021073267341589
 50
137.4806065268516022
 51
151.5899160302282951
  0
ARC
  5
A2C4
  8
0
 10
4202.5967054022939919
 20
153.151632986325609
 30
0.0
 40
0.0161922899124506
 50
151.5899160302267887
 51
166.2748937934686069
  0
ARC
  5
A2C5
  8
0
 10
4202.6047851008588623
 20
153.1496596169228042
 30
0.0
 40
0.0245094838932868
 50
166.2748937934821072
 51
177.7910152046937071
  0
LINE
  5
A2C6
  8
0
 10
4203.2659867417332862
 20
152.9443995975695998
 30
0.0
 11
4203.2659867417332862
 21
152.81716763238569
 31
0.0
  0
LINE
  5
A2C7
  8
0
 10
4203.1860771356514306
 20
152.8415385436057079
 30
0.0
 11
4203.1860771356514306
 21
152.7533143856938977
 31
0.0
  0
LINE
  5
A2C8
  8
0
 10
4202.8377670321378901
 20
152.8497697860377968
 30
0.0
 11
4202.8377670321378901
 21
152.7603693738236075
 31
0.0
  0
ARC
  5
A2C9
  8
0
 10
4203.1410919157597164
 20
152.7355495582237097
 30
0.0
 40
0.01948758490999
 50
14.3956307582048293
 51
58.4096902191013285
  0
ARC
  5
A2CA
  8
0
 10
4203.1409650499417694
 20
152.7353432626090068
 30
0.0
 40
0.0197297683459964
 50
58.4096902191009022
 51
89.3933995722242258
  0
ARC
  5
A2CB
  8
0
 10
4203.1452807064733861
 20
153.1429586466780108
 30
0.0
 40
0.3879084612412826
 50
268.6060486052713259
 51
269.3933995722243253
  0
ARC
  5
A2CC
  8
0
 10
4203.0983197737614319
 20
151.2130977019203897
 30
0.0
 40
1.542523768934642
 50
88.6060486052713401
 51
89.3933995721200176
  0
ARC
  5
A2CD
  8
0
 10
4203.2734318954881019
 20
167.7525035198736987
 30
0.0
 40
14.9978090289906607
 50
268.6060486052713259
 51
269.3933995721200176
  0
ARC
  5
A2CE
  8
0
 10
4202.7987005436471009
 20
148.2434043118886962
 30
0.0
 40
4.5170653432266539
 50
88.6060486052713543
 51
89.3933995287097787
  0
ARC
  5
A2CF
  8
0
 10
4202.8532691533682737
 20
153.397429673464103
 30
0.0
 40
0.6372488847701002
 50
268.6060489565459761
 51
269.3933995287097787
  0
ARC
  5
A2D0
  8
0
 10
4202.8207168132457809
 20
152.0596899381249898
 30
0.0
 40
0.7008868536184057
 50
88.6060489565459619
 51
89.4181040259559552
  0
ARC
  5
A2D1
  8
0
 10
4202.8276960731500367
 20
152.7468718500938962
 30
0.0
 40
0.0136695006608025
 50
89.4181040259559552
 51
113.720928472296805
  0
ARC
  5
A2D2
  8
0
 10
4202.6477736443912363
 20
153.1893936492398041
 30
0.0
 40
0.4640363005156148
 50
278.3480632958714978
 51
292.0789081366760911
  0
ARC
  5
A2D3
  8
0
 10
4202.5767745900320733
 20
153.6011555239288953
 30
0.0
 40
0.8818054689875247
 50
271.7438564005316266
 51
279.0280235187987046
  0
ARC
  5
A2D4
  8
0
 10
4202.5705973052772606
 20
153.7176096823729097
 30
0.0
 40
0.9983971413467024
 50
269.997612185000321
 51
271.8948189943247939
  0
ARC
  5
A2D5
  8
0
 10
4202.570625653866955
 20
152.0457263079798054
 30
0.0
 40
0.8447771100577773
 50
87.6268532766063544
 51
90.0047447334442268
  0
ARC
  5
A2D6
  8
0
 10
4202.5759342779074359
 20
152.1738211259441869
 30
0.0
 40
0.7165723368294107
 50
76.4629795047813445
 51
87.6268532766063544
  0
ARC
  5
A2D7
  8
0
 10
4202.6870795831564465
 20
152.6354604053935873
 30
0.0
 40
0.2417417320772878
 50
56.9617574718729998
 51
76.4629795047813445
  0
ARC
  5
A2D8
  8
0
 10
4202.7834800045957309
 20
152.7836873466548013
 30
0.0
 40
0.0649246871707317
 50
33.2638225580697622
 51
56.9617574718721187
  0
LINE
  5
A2D9
  8
0
 10
4202.5802938303440897
 20
153.1506043229034901
 30
0.0
 11
4202.5789388625998981
 21
152.890462513098413
 31
0.0
  0
ARC
  5
A2DA
  8
0
 10
4202.7824398541670234
 20
152.8188881537585928
 30
0.0
 40
0.0739234312832163
 50
307.8802442013574137
 51
318.4553383966767228
  0
LINE
  5
A2DB
  8
0
 10
4188.8103836505442814
 20
154.15609739312751
 30
0.0
 11
4191.5275781370428376
 21
154.15609739312751
 31
0.0
  0
LINE
  5
A2DC
  8
0
 10
4188.8103836505442814
 20
154.15609739312751
 30
0.0
 11
4188.8103836505442814
 21
153.8972326278741889
 31
0.0
  0
LINE
  5
A2DD
  8
0
 10
4188.8220047428039834
 20
153.869333379384102
 30
0.0
 11
4188.918329726326192
 21
153.7737691446374129
 31
0.0
  0
LINE
  5
A2DE
  8
0
 10
4188.9460086340659473
 20
153.7623683931275878
 30
0.0
 11
4191.3919531535220813
 21
153.7623683931275878
 31
0.0
  0
LINE
  5
A2DF
  8
0
 10
4189.4090844972452032
 20
153.5688065171733001
 30
0.0
 11
4189.4201430302637164
 21
152.9352635807229888
 31
0.0
  0
LINE
  5
A2E0
  8
0
 10
4189.4398400298578053
 20
152.9159073931274975
 30
0.0
 11
4190.8981217577302232
 21
152.9159073931274975
 31
0.0
  0
LINE
  5
A2E1
  8
0
 10
4189.5292171142436928
 20
152.9159073931274975
 30
0.0
 11
4189.5292171142436928
 21
152.5950300266275121
 31
0.0
  0
LINE
  5
A2E2
  8
0
 10
4189.5784297127438549
 20
152.5537351884275097
 30
0.0
 11
4189.5784297127438549
 21
152.1403493616275
 31
0.0
  0
LINE
  5
A2E3
  8
0
 10
4189.5292171142436928
 20
152.5950300266275121
 30
0.0
 11
4189.5784297127438549
 21
152.5537351884275097
 31
0.0
  0
LINE
  5
A2E4
  8
0
 10
4189.5784297127438549
 20
152.1403493616275
 30
0.0
 11
4190.7595320748441736
 21
152.1403493616275
 31
0.0
  0
LINE
  5
A2E5
  8
0
 10
4189.5784297127438549
 20
152.1600345154276113
 30
0.0
 11
4190.7595320748441736
 21
152.1600345154276113
 31
0.0
  0
LINE
  5
A2E6
  8
0
 10
4189.5681367993429376
 20
152.073420227827512
 30
0.0
 11
4196.6753367523451743
 21
152.073420227827512
 31
0.0
  0
ARC
  5
A2E7
  8
0
 10
4188.8496836505437386
 20
153.8972326278741889
 30
0.0
 40
0.0393
 50
180.0
 51
225.2271491130778998
  0
ARC
  5
A2E8
  8
0
 10
4188.9460086340659473
 20
153.8016683931276134
 30
0.0
 40
0.0393
 50
225.2271491130858863
 51
270.0
  0
ARC
  5
A2E9
  8
0
 10
4189.2121145012979468
 20
153.5653683931276134
 30
0.0
 40
0.197
 50
0.999999993476935
 51
90.0
  0
ARC
  5
A2EA
  8
0
 10
4189.4398400298578053
 20
152.9356073931276114
 30
0.0
 40
0.0197
 50
180.9999999935199924
 51
270.0
  0
LINE
  5
A2EB
  8
0
 10
4189.5287367993441876
 20
152.0340202278275115
 30
0.0
 11
4189.5287367993441876
 21
151.6236800703275094
 31
0.0
  0
ARC
  5
A2EC
  8
0
 10
4189.5681367993429376
 20
152.0340202278275115
 30
0.0
 40
0.0394
 50
90.0
 51
180.0000000000104876
  0
LINE
  5
A2ED
  8
0
 10
4189.7997374281439988
 20
152.1403493616275
 30
0.0
 11
4189.7997374281439988
 21
152.073420227827512
 31
0.0
  0
LINE
  5
A2EE
  8
0
 10
4189.0040868137011785
 20
151.423680070327606
 30
0.0
 11
4189.3287367993443695
 21
151.423680070327606
 31
0.0
  0
LINE
  5
A2EF
  8
0
 10
4188.8813067921646507
 20
151.3172200631487954
 30
0.0
 11
4188.9762268065233002
 21
151.412140077506308
 31
0.0
  0
LINE
  5
A2F0
  8
0
 10
4188.869766799343779
 20
151.2893600559700076
 30
0.0
 11
4188.869766799343779
 21
149.6385210002615054
 31
0.0
  0
ARC
  5
A2F1
  8
0
 10
4188.909166799344348
 20
151.2893600559700076
 30
0.0
 40
0.0394
 50
135.0000000000079865
 51
180.0
  0
ARC
  5
A2F2
  8
0
 10
4189.004086813702088
 20
151.3842800703274918
 30
0.0
 40
0.0394
 50
90.0
 51
134.999999999994202
  0
LINE
  5
A2F3
  8
0
 10
4189.003333275391924
 20
149.5019633512276016
 30
0.0
 11
4192.3161482953428276
 21
149.5019633512276016
 31
0.0
  0
LINE
  5
A2F4
  8
0
 10
4188.8808746845443238
 20
149.6110999091058886
 30
0.0
 11
4188.9750411605928093
 21
149.5139422600719001
 31
0.0
  0
ARC
  5
A2F5
  8
0
 10
4188.909166799344348
 20
149.6385210002615054
 30
0.0
 40
0.0394
 50
179.9999999999787974
 51
224.1043072764101112
  0
ARC
  5
A2F6
  8
0
 10
4189.003333275391924
 20
149.5413633512276022
 30
0.0
 40
0.0394
 50
224.1043072764680062
 51
270.0
  0
ARC
  5
A2F7
  8
0
 10
4189.3287367993443695
 20
151.6236800703275094
 30
0.0
 40
0.2
 50
270.0
 51
359.9999999999976126
  0
LINE
  5
A2F8
  8
0
 10
4191.5275781370428376
 20
154.15609739312751
 30
0.0
 11
4191.5275781370428376
 21
153.8972326278741889
 31
0.0
  0
LINE
  5
A2F9
  8
0
 10
4191.5159570447840451
 20
153.869333379384102
 30
0.0
 11
4191.419632061260927
 21
153.7737691446374129
 31
0.0
  0
LINE
  5
A2FA
  8
0
 10
4190.9288772903428253
 20
153.5688065171733001
 30
0.0
 11
4190.9178187573252217
 21
152.9352635807229888
 31
0.0
  0
LINE
  5
A2FB
  8
0
 10
4190.8087446733443358
 20
152.9159073931274975
 30
0.0
 11
4190.8087446733443358
 21
152.5950300266275121
 31
0.0
  0
LINE
  5
A2FC
  8
0
 10
4190.7595320748441736
 20
152.5537351884275097
 30
0.0
 11
4190.7595320748441736
 21
152.1403493616275
 31
0.0
  0
LINE
  5
A2FD
  8
0
 10
4190.8087446733443358
 20
152.5950300266275121
 30
0.0
 11
4190.7595320748441736
 21
152.5537351884275097
 31
0.0
  0
ARC
  5
A2FE
  8
0
 10
4191.4882781370442899
 20
153.8972326278741889
 30
0.0
 40
0.0393
 50
314.7728508869220718
 51
0.0
  0
ARC
  5
A2FF
  8
0
 10
4191.3919531535220813
 20
153.8016683931276134
 30
0.0
 40
0.0393
 50
270.0
 51
314.7728508869140001
  0
ARC
  5
A300
  8
0
 10
4191.1258472862891722
 20
153.5653683931276134
 30
0.0
 40
0.197
 50
90.0
 51
179.0000000065230097
  0
ARC
  5
A301
  8
0
 10
4190.8981217577302232
 20
152.9356073931276114
 30
0.0
 40
0.0197
 50
270.0
 51
359.0000000064799224
  0
LINE
  5
A302
  8
0
 10
4190.6422571131442965
 20
152.1403493616275
 30
0.0
 11
4190.6422571131442965
 21
152.073420227827512
 31
0.0
  0
LINE
  5
A303
  8
0
 10
4190.1687347691649848
 20
151.1919295863274897
 30
0.0
 11
4196.0747387825231272
 21
151.1919295863274897
 31
0.0
  0
ARC
  5
A304
  8
0
 10
4190.1921170656660252
 20
152.0200172830282099
 30
0.0
 40
0.8284177480092401
 50
240.4227284679523962
 51
268.3825976104786264
  0
ARC
  5
A305
  8
0
 10
4189.1593657590219664
 20
144.6785542087015131
 30
0.0
 40
6.6503210464871696
 50
84.6173389711992456
 51
85.8793796203388951
  0
ARC
  5
A306
  8
0
 10
4190.40793675283021
 20
153.9154956113700052
 30
0.0
 40
2.7154773484943151
 50
246.5826673623062959
 51
253.5117607386208078
  0
ARC
  5
A307
  8
0
 10
4193.121851709512157
 20
145.6278934162280052
 30
0.0
 40
0.0411907527028973
 50
259.3941491908167905
 51
269.8401286163817758
  0
ARC
  5
A308
  8
0
 10
4193.1260680332916309
 20
145.6504104261082944
 30
0.0
 40
0.0640991162447415
 50
253.5518923414406061
 51
259.3941491908167905
  0
ARC
  5
A309
  8
0
 10
4193.4281679157356848
 20
146.6736848764873002
 30
0.0
 40
1.1310362932945339
 50
217.0694057980572893
 51
253.5518923414406061
  0
ARC
  5
A30A
  8
0
 10
4193.1394925865843106
 20
148.9728258547943085
 30
0.0
 40
1.245456756759197
 50
253.5361214840733908
 51
269.1831386205672061
  0
ARC
  5
A30B
  8
0
 10
4192.8052819188251306
 20
147.8419319387766961
 30
0.0
 40
0.0662121596850199
 50
214.4647454062578902
 51
253.5361214840731918
  0
ARC
  5
A30C
  8
0
 10
4193.7250047269217248
 20
148.4733673621188927
 30
0.0
 40
1.1818289113544591
 50
181.3510960171261104
 51
214.4711537064980007
  0
ARC
  5
A30D
  8
0
 10
4192.6097713655535699
 20
148.4438271323560912
 30
0.0
 40
0.0662881180576828
 50
142.4753786493236873
 51
178.5529181198091067
  0
ARC
  5
A30E
  8
0
 10
4193.4950892352226219
 20
147.76359974631211
 30
0.0
 40
1.1827544292472689
 50
109.5570708665246968
 51
142.4640660514176034
  0
ARC
  5
A30F
  8
0
 10
4193.1220322980698256
 20
148.8137545400969941
 30
0.0
 40
0.068305431191952
 50
90.2478899390076066
 51
109.5570708665246968
  0
ARC
  5
A310
  8
0
 10
4192.9892575963249328
 20
148.484112835644197
 30
0.0
 40
0.3329761928312431
 50
96.1249169466822053
 51
154.0161437414348882
  0
ARC
  5
A311
  8
0
 10
4193.1217354848440664
 20
148.943063901927303
 30
0.0
 40
1.1264893947997461
 50
255.3008433720777077
 51
269.9999263892245267
  0
ARC
  5
A312
  8
0
 10
4192.8484674981173157
 20
147.9013658219759009
 30
0.0
 40
0.0495445111848377
 50
212.6933283060564008
 51
255.3008433720779067
  0
ARC
  5
A313
  8
0
 10
4193.7551666140207089
 20
148.4833072271904939
 30
0.0
 40
1.1269298117551201
 50
183.306708122762501
 51
212.6933283060564008
  0
ARC
  5
A314
  8
0
 10
4192.6795741694159005
 20
148.4211626084210991
 30
0.0
 40
0.0495435947766401
 50
140.6991171974474923
 51
183.3067081227681001
  0
ARC
  5
A315
  8
0
 10
4193.5129700744455477
 20
147.7390031197012092
 30
0.0
 40
1.1265256292460399
 50
111.3011851941897987
 51
140.6986684894235964
  0
ARC
  5
A316
  8
0
 10
4193.121804726370101
 20
148.7233547471043948
 30
0.0
 40
0.0676706662157412
 50
90.0575327421248915
 51
105.4859289297766054
  0
LINE
  5
A317
  8
0
 10
4192.6324546325413394
 20
148.436470025843704
 30
0.0
 11
4192.5467321762607753
 21
148.4643253081017065
 31
0.0
  0
LINE
  5
A318
  8
0
 10
4192.7663637930763798
 20
147.7883648819384064
 30
0.0
 11
4192.8193451023325906
 21
147.861284097307589
 31
0.0
  0
LINE
  5
A319
  8
0
 10
4191.5159570447840451
 20
153.869333379384102
 30
0.0
 11
4188.8220047428039834
 21
153.869333379384102
 31
0.0
  0
LINE
  5
A31A
  8
0
 10
4197.4330899011438305
 20
154.15609739312751
 30
0.0
 11
4194.7158954146452743
 21
154.15609739312751
 31
0.0
  0
LINE
  5
A31B
  8
0
 10
4197.4330899011438305
 20
154.15609739312751
 30
0.0
 11
4197.4330899011438305
 21
153.8972326278741889
 31
0.0
  0
LINE
  5
A31C
  8
0
 10
4197.4214688088841285
 20
153.869333379384102
 30
0.0
 11
4197.3251438253619199
 21
153.7737691446374129
 31
0.0
  0
LINE
  5
A31D
  8
0
 10
4197.2974649176221646
 20
153.7623683931275878
 30
0.0
 11
4194.8515203981660306
 21
153.7623683931275878
 31
0.0
  0
LINE
  5
A31E
  8
0
 10
4196.8343890544429087
 20
153.5688065171733001
 30
0.0
 11
4196.8233305214243956
 21
152.9352635807229888
 31
0.0
  0
LINE
  5
A31F
  8
0
 10
4196.8036335218303066
 20
152.9159073931274975
 30
0.0
 11
4195.3453517939578887
 21
152.9159073931274975
 31
0.0
  0
LINE
  5
A320
  8
0
 10
4196.7142564374444191
 20
152.9159073931274975
 30
0.0
 11
4196.7142564374444191
 21
152.5950300266275121
 31
0.0
  0
LINE
  5
A321
  8
0
 10
4196.665043838944257
 20
152.5537351884275097
 30
0.0
 11
4196.665043838944257
 21
152.1403493616275
 31
0.0
  0
LINE
  5
A322
  8
0
 10
4196.7142564374444191
 20
152.5950300266275121
 30
0.0
 11
4196.665043838944257
 21
152.5537351884275097
 31
0.0
  0
LINE
  5
A323
  8
0
 10
4196.665043838944257
 20
152.1403493616275
 30
0.0
 11
4195.4839414768439383
 21
152.1403493616275
 31
0.0
  0
LINE
  5
A324
  8
0
 10
4196.665043838944257
 20
152.1600345154276113
 30
0.0
 11
4195.4839414768439383
 21
152.1600345154276113
 31
0.0
  0
ARC
  5
A325
  8
0
 10
4197.3937899011443733
 20
153.8972326278741889
 30
0.0
 40
0.0393
 50
314.7728508869220718
 51
0.0
  0
ARC
  5
A326
  8
0
 10
4197.2974649176221646
 20
153.8016683931276134
 30
0.0
 40
0.0393
 50
270.0
 51
314.7728508869140001
  0
ARC
  5
A327
  8
0
 10
4197.0313590503892556
 20
153.5653683931276134
 30
0.0
 40
0.197
 50
90.0
 51
179.0000000065230097
  0
ARC
  5
A328
  8
0
 10
4196.8036335218303066
 20
152.9356073931276114
 30
0.0
 40
0.0197
 50
270.0
 51
359.0000000064799224
  0
LINE
  5
A329
  8
0
 10
4196.7147367523430148
 20
152.0340202278275115
 30
0.0
 11
4196.7147367523430148
 21
151.6236800703275094
 31
0.0
  0
ARC
  5
A32A
  8
0
 10
4196.6753367523451743
 20
152.0340202278275115
 30
0.0
 40
0.0394
 50
359.9999999999894271
 51
90.0
  0
LINE
  5
A32B
  8
0
 10
4196.490702383343887
 20
152.1403493616275
 30
0.0
 11
4196.490702383343887
 21
152.073420227827512
 31
0.0
  0
LINE
  5
A32C
  8
0
 10
4197.3343067993428122
 20
151.423680070327606
 30
0.0
 11
4196.9147367523437424
 21
151.423680070327606
 31
0.0
  0
LINE
  5
A32D
  8
0
 10
4197.3343067993428122
 20
149.5019633512276016
 30
0.0
 11
4193.9273252563443748
 21
149.5019633512276016
 31
0.0
  0
ARC
  5
A32E
  8
0
 10
4196.9147367523437424
 20
151.6236800703275094
 30
0.0
 40
0.2
 50
180.0000000000015916
 51
270.0
  0
LINE
  5
A32F
  8
0
 10
4194.7158954146452743
 20
154.15609739312751
 30
0.0
 11
4194.7158954146452743
 21
153.8972326278741889
 31
0.0
  0
LINE
  5
A330
  8
0
 10
4194.7275165069040668
 20
153.869333379384102
 30
0.0
 11
4194.8238414904262754
 21
153.7737691446374129
 31
0.0
  0
LINE
  5
A331
  8
0
 10
4195.3145962613452866
 20
153.5688065171733001
 30
0.0
 11
4195.3256547943637997
 21
152.9352635807229888
 31
0.0
  0
LINE
  5
A332
  8
0
 10
4195.4347288783437762
 20
152.9159073931274975
 30
0.0
 11
4195.4347288783437762
 21
152.5950300266275121
 31
0.0
  0
LINE
  5
A333
  8
0
 10
4195.4839414768439383
 20
152.5537351884275097
 30
0.0
 11
4195.4839414768439383
 21
152.1403493616275
 31
0.0
  0
LINE
  5
A334
  8
0
 10
4195.4347288783437762
 20
152.5950300266275121
 30
0.0
 11
4195.4839414768439383
 21
152.5537351884275097
 31
0.0
  0
ARC
  5
A335
  8
0
 10
4194.755195414643822
 20
153.8972326278741889
 30
0.0
 40
0.0393
 50
180.0
 51
225.2271491130778998
  0
ARC
  5
A336
  8
0
 10
4194.8515203981660306
 20
153.8016683931276134
 30
0.0
 40
0.0393
 50
225.2271491130858863
 51
270.0
  0
ARC
  5
A337
  8
0
 10
4195.1176262653989397
 20
153.5653683931276134
 30
0.0
 40
0.197
 50
0.999999993476935
 51
90.0
  0
ARC
  5
A338
  8
0
 10
4195.3453517939578887
 20
152.9356073931276114
 30
0.0
 40
0.0197
 50
180.9999999935199924
 51
270.0
  0
LINE
  5
A339
  8
0
 10
4195.6481826983435894
 20
152.1403493616275
 30
0.0
 11
4195.6481826983435894
 21
152.073420227827512
 31
0.0
  0
ARC
  5
A33A
  8
0
 10
4196.0513564860220868
 20
152.0200172830282099
 30
0.0
 40
0.8284177480092401
 50
271.6174023895213736
 51
299.5772715320475754
  0
ARC
  5
A33B
  8
0
 10
4197.0841077926661455
 20
144.6785542087015131
 30
0.0
 40
6.6503210464871696
 50
94.1206203796611334
 51
95.3826610288007544
  0
ARC
  5
A33C
  8
0
 10
4195.8355367988579019
 20
153.9154956113700052
 30
0.0
 40
2.7154773484943151
 50
286.4882392613791922
 51
293.4173326376936188
  0
ARC
  5
A33D
  8
0
 10
4193.121621842175955
 20
145.6278934162280052
 30
0.0
 40
0.0411907527028973
 50
270.1598713836182242
 51
280.6058508091832095
  0
ARC
  5
A33E
  8
0
 10
4193.1174055183955716
 20
145.6504104261082944
 30
0.0
 40
0.0640991162447415
 50
280.6058508091832095
 51
286.4481076585594224
  0
ARC
  5
A33F
  8
0
 10
4192.8153056359524271
 20
146.6736848764873002
 30
0.0
 40
1.1310362932945339
 50
286.4481076585594224
 51
322.9306031130565771
  0
ARC
  5
A340
  8
0
 10
4193.9273252563443748
 20
149.301963351227613
 30
0.0
 40
0.2
 50
90.0
 51
180.0493874361492885
  0
ARC
  5
A341
  8
0
 10
4193.1039809651038013
 20
148.9728258547943085
 30
0.0
 40
1.245456756759197
 50
270.8168613794327939
 51
286.4638785159265808
  0
ARC
  5
A342
  8
0
 10
4193.4381916328620719
 20
147.8419319387766961
 30
0.0
 40
0.0662121596850199
 50
286.4638785159268082
 51
325.5352545937420814
  0
ARC
  5
A343
  8
0
 10
4192.5184688247645681
 20
148.4733673621188927
 30
0.0
 40
1.1818289113544591
 50
325.5288462935018856
 51
358.6489039828738896
  0
ARC
  5
A344
  8
0
 10
4193.633702186132723
 20
148.4438271323560912
 30
0.0
 40
0.0662881180576828
 50
1.4470818801909351
 51
37.5246213506762771
  0
ARC
  5
A345
  8
0
 10
4192.7483843164645805
 20
147.76359974631211
 30
0.0
 40
1.1827544292472689
 50
37.5359339485823611
 51
70.4429291334752747
  0
ARC
  5
A346
  8
0
 10
4193.1214412536173768
 20
148.8137545400969941
 30
0.0
 40
0.068305431191952
 50
70.4429291334752747
 51
89.7521100609924076
  0
ARC
  5
A347
  8
0
 10
4193.2542159553640886
 20
148.484112835644197
 30
0.0
 40
0.3329761928312431
 50
25.9838562585650799
 51
83.8750830533178231
  0
ARC
  5
A348
  8
0
 10
4193.1217380668440455
 20
148.943063901927303
 30
0.0
 40
1.1264893947997461
 50
270.0000736107754733
 51
284.6991566279223207
  0
ARC
  5
A349
  8
0
 10
4193.3950060535698867
 20
147.9013658219759009
 30
0.0
 40
0.0495445111848377
 50
284.6991566279220933
 51
327.3066716939437129
  0
ARC
  5
A34A
  8
0
 10
4192.488306937667403
 20
148.4833072271904939
 30
0.0
 40
1.1269298117551201
 50
327.3066716939437129
 51
356.6932918772366747
  0
ARC
  5
A34B
  8
0
 10
4193.5638993822731209
 20
148.4211626084210991
 30
0.0
 40
0.0495435947766401
 50
356.6932918772318999
 51
39.3008828025525716
  0
ARC
  5
A34C
  8
0
 10
4192.7305034772416548
 20
147.7390031197012092
 30
0.0
 40
1.1265256292460399
 50
39.3013315105764107
 51
68.6988148058101302
  0
ARC
  5
A34D
  8
0
 10
4193.1216688253189204
 20
148.7233547471043948
 30
0.0
 40
0.0676706662157412
 50
74.5140710702233946
 51
89.9424672578751228
  0
LINE
  5
A34E
  8
0
 10
4193.611018919145863
 20
148.436470025843704
 30
0.0
 11
4193.6967413754264271
 21
148.4643253081017065
 31
0.0
  0
LINE
  5
A34F
  8
0
 10
4193.4771097586108226
 20
147.7883648819384064
 30
0.0
 11
4193.4241284493537023
 21
147.861284097307589
 31
0.0
  0
LINE
  5
A350
  8
0
 10
4194.7275165069040668
 20
153.869333379384102
 30
0.0
 11
4197.4214688088841285
 21
153.869333379384102
 31
0.0
  0
LINE
  5
A351
  8
0
 10
4192.5161483226438577
 20
146.0204281285485877
 30
0.0
 11
4192.5161483226438577
 21
149.3019633512274993
 31
0.0
  0
LINE
  5
A352
  8
0
 10
4193.7273253306439074
 20
146.0204282630367913
 30
0.0
 11
4193.7273253306439074
 21
149.3017909565749051
 31
0.0
  0
ARC
  5
A353
  8
0
 10
4192.5634483226431257
 20
146.0204281285485024
 30
0.0
 40
0.0473
 50
179.999999999947903
 51
217.0694057982285869
  0
ARC
  5
A354
  8
0
 10
4193.6800253306437298
 20
146.0204282630367061
 30
0.0
 40
0.0473
 50
322.9306031129034977
 51
0.0000000000602524
  0
ARC
  5
A355
  8
0
 10
4192.3161483226440396
 20
149.301963351227613
 30
0.0
 40
0.2
 50
359.9999999999976126
 51
90.0
  0
LINE
  5
A356
  8
0
 10
4188.9750411605928093
 20
149.5139422600719001
 30
0.0
 11
4188.9750411605928093
 21
151.4109544315761866
 31
0.0
  0
ARC
  5
A357
  8
0
 10
4193.121851709512157
 20
149.5142788023134131
 30
0.0
 40
0.0411907527028973
 50
90.1598713836182242
 51
100.6058508091831953
  0
ARC
  5
A358
  8
0
 10
4193.1260680332916309
 20
149.4917617924332944
 30
0.0
 40
0.0640991162447415
 50
100.6058508091831953
 51
106.4481076585592945
  0
ARC
  5
A359
  8
0
 10
4193.4281679157356848
 20
148.4684873420540896
 30
0.0
 40
1.1310362932945339
 50
106.4481076585592945
 51
142.9305942019427107
  0
ARC
  5
A35A
  8
0
 10
4193.121621842175955
 20
149.5142788023134131
 30
0.0
 40
0.0411907527028973
 50
79.3941491908168047
 51
89.84012861638179
  0
ARC
  5
A35B
  8
0
 10
4193.1174055183955716
 20
149.4917617924332944
 30
0.0
 40
0.0640991162447415
 50
73.5518923414406487
 51
79.3941491908168047
  0
ARC
  5
A35C
  8
0
 10
4192.8153056359524271
 20
148.4684873420540896
 30
0.0
 40
1.1310362932945339
 50
37.0693968869433803
 51
73.5518923414406487
  0
ARC
  5
A35D
  8
0
 10
4192.5634483226431257
 20
149.1217440899930011
 30
0.0
 40
0.0473
 50
142.9305942017714131
 51
180.0000000000513012
  0
ARC
  5
A35E
  8
0
 10
4193.6800253306437298
 20
149.1217439555047974
 30
0.0
 40
0.0473
 50
359.9999999999396891
 51
37.0693968870965023
  0
LINE
  5
A35F
  8
0
 10
4197.3737067993452001
 20
149.5413633512276022
 30
0.0
 11
4197.3737067993452001
 21
151.3842800703276055
 31
0.0
  0
ARC
  5
A360
  8
0
 10
4197.3343067993428122
 20
149.5413633512276022
 30
0.0
 40
0.0394
 50
270.0
 51
0.0000000000105849
  0
ARC
  5
A361
  8
0
 10
4197.3343067993428122
 20
151.3842800703276055
 30
0.0
 40
0.0394
 50
359.9999999999690772
 51
90.0
  0
LINE
  5
A362
  8
0
 10
4198.5303524686441961
 20
151.2893600559700076
 30
0.0
 11
4198.5303524686441961
 21
149.6385289288575109
 31
0.0
  0
LINE
  5
A363
  8
0
 10
4198.5188124758078629
 20
151.3172200631634041
 30
0.0
 11
4198.4238925414556434
 21
151.4121399974152951
 31
0.0
  0
LINE
  5
A364
  8
0
 10
4197.8183913729353662
 20
151.4236799902218991
 30
0.0
 11
4198.3960325342932265
 21
151.4236799902218991
 31
0.0
  0
ARC
  5
A365
  8
0
 10
4197.4598993802046607
 20
150.4986800690219866
 30
0.0
 40
0.8070866155683352
 50
64.0988625706004029
 51
86.286800299342886
  0
ARC
  5
A366
  8
0
 10
4197.519817167997644
 20
151.4219346781684976
 30
0.0
 40
0.1181102362443743
 50
222.0773621061939025
 51
266.2868002993428718
  0
ARC
  5
A367
  8
0
 10
4197.3737067993033634
 20
151.2900186529458892
 30
0.0
 40
0.0787401575855403
 50
42.0773621061933198
 51
89.9999999698281954
  0
ARC
  5
A368
  8
0
 10
4197.3737067993452001
 20
149.7073414876275024
 30
0.0
 40
0.0787401574999908
 50
270.0
 51
317.9226378344723116
  0
ARC
  5
A369
  8
0
 10
4197.5198171722704501
 20
149.5754254583119973
 30
0.0
 40
0.1181102422116945
 50
121.3591624156419044
 51
137.9226378344735053
  0
LINE
  5
A36A
  8
0
 10
4197.4583524686440796
 20
149.871577795820798
 30
0.0
 11
4197.4583524686440796
 21
149.5216633512276019
 31
0.0
  0
ARC
  5
A36B
  8
0
 10
4202.4122118829136525
 20
148.4551954865152936
 30
0.0
 40
5.5425971622705994
 50
149.1554482691896055
 51
149.3105972388522105
  0
ARC
  5
A36C
  8
0
 10
4197.6995189040444529
 20
151.269493304787801
 30
0.0
 40
0.0535401100047048
 50
137.2358579544223005
 51
149.1554482691923909
  0
ARC
  5
A36D
  8
0
 10
4198.1731228824892241
 20
150.7817419277646991
 30
0.0
 40
0.7333229560356269
 50
129.1300575248633891
 51
134.3815792617737941
  0
ARC
  5
A36E
  8
0
 10
4198.7112402162802027
 20
150.1641585128085126
 30
0.0
 40
1.5522353765037451
 50
126.5488240373883997
 51
130.1518164037601935
  0
ARC
  5
A36F
  8
0
 10
4197.8363749373502287
 20
151.3408809729330073
 30
0.0
 40
0.0859519149787885
 50
110.0033737965048033
 51
125.1650728908075934
  0
ARC
  5
A370
  8
0
 10
4197.825172393370849
 20
151.3524896379242932
 30
0.0
 40
0.0715125758059735
 50
95.4411191592215999
 51
104.7435850784297031
  0
ARC
  5
A371
  8
0
 10
4204.2273102654198738
 20
145.0881902833878883
 30
0.0
 40
8.9548044439787429
 50
135.7633901499781928
 51
136.4583189793058011
  0
ARC
  5
A372
  8
0
 10
4187.8468775032133635
 20
151.1948738274975028
 30
0.0
 40
9.9656177828318189
 50
359.5681254311684825
 51
0.8072023216047085
  0
ARC
  5
A373
  8
0
 10
4195.8599019846496958
 20
151.0164108330077113
 30
0.0
 40
1.955043637058907
 50
340.845896434185704
 51
3.0301530418095899
  0
ARC
  5
A374
  8
0
 10
4176.8896551880416155
 20
160.4677627177256056
 30
0.0
 40
23.1347132482154692
 50
332.7741634929569727
 51
334.1343068326718253
  0
ARC
  5
A375
  8
0
 10
4197.4847524686438192
 20
149.871577795820798
 30
0.0
 40
0.0264
 50
152.774163492938186
 51
179.9999999999845102
  0
LINE
  5
A376
  8
0
 10
4197.4780524686429999
 20
149.5019633512276016
 30
0.0
 11
4198.3967788407899207
 21
149.5019633512276016
 31
0.0
  0
ARC
  5
A377
  8
0
 10
4197.4780524686429999
 20
149.5216633512276019
 30
0.0
 40
0.0197
 50
179.9999999999787974
 51
270.0
  0
LINE
  5
A378
  8
0
 10
4198.5192446609589751
 20
149.6111079176799024
 30
0.0
 11
4198.4250710331052687
 21
149.5139423400499084
 31
0.0
  0
ARC
  5
A379
  8
0
 10
4198.4909524686436271
 20
151.2893600559700076
 30
0.0
 40
0.0394
 50
0.0000000000105849
 51
45.0000000301354817
  0
ARC
  5
A37A
  8
0
 10
4198.4909524686436271
 20
149.6385289288573972
 30
0.0
 40
0.0394
 50
315.8958546908452831
 51
0.0000000000203555
  0
ARC
  5
A37B
  8
0
 10
4198.3967788407899207
 20
149.5413633512276022
 30
0.0
 40
0.0394
 50
270.0
 51
315.8958546908328913
  0
ARC
  5
A37C
  8
0
 10
4198.3960325342932265
 20
151.3842799902218985
 30
0.0
 40
0.0394
 50
45.0000000301965173
 51
90.0
  0
LINE
  5
A37D
  8
0
 10
4197.7993361489443487
 20
148.6900250510745991
 30
0.0
 11
4197.7993361489443487
 21
149.5019633512276016
 31
0.0
  0
LINE
  5
A37E
  8
0
 10
4198.1891146132438735
 20
148.688365774815793
 30
0.0
 11
4198.1891146132438735
 21
149.5019633512276016
 31
0.0
  0
ARC
  5
A37F
  8
0
 10
4198.0144838836158669
 20
148.5204164355361058
 30
0.0
 40
0.0392334699038712
 50
272.5817427944385827
 51
287.5414834117809164
  0
ARC
  5
A380
  8
0
 10
4197.9945574282555754
 20
148.9623384536664901
 30
0.0
 40
0.4816045061750998
 50
267.4027727461545965
 51
272.5817427944385827
  0
ARC
  5
A381
  8
0
 10
4197.9745424614538933
 20
148.5211034623353896
 30
0.0
 40
0.0399157962548959
 50
250.9940412636589997
 51
267.4027727461545965
  0
ARC
  5
A382
  8
0
 10
4198.0085170672437016
 20
148.6197395569716946
 30
0.0
 40
0.1442391062275425
 50
220.7434336570647986
 51
250.9940412636589997
  0
ARC
  5
A383
  8
0
 10
4198.1468556620493473
 20
148.7886045288443881
 30
0.0
 40
0.3612308478327635
 50
195.8368375387111087
 51
226.7259000825158068
  0
ARC
  5
A384
  8
0
 10
4197.8164853675179984
 20
148.9940571913126064
 30
0.0
 40
0.5524470658340026
 50
292.3217365367611933
 51
295.3335677296971085
  0
ARC
  5
A385
  8
0
 10
4198.0293940267001744
 20
148.5443275772163076
 30
0.0
 40
0.0548660945842104
 50
295.3335677296973927
 51
315.2079519784206809
  0
ARC
  5
A386
  8
0
 10
4197.8303233945571264
 20
148.794299531303011
 30
0.0
 40
0.3741030598235457
 50
309.5096398500907071
 51
343.5506691161024264
  0
ARC
  5
A387
  8
0
 10
4197.9945151207848539
 20
149.0604605979195867
 30
0.0
 40
0.5703688077878246
 50
264.5404570707241874
 51
275.4202160769370948
  0
LINE
  5
A388
  8
0
 10
4197.9231261752429418
 20
149.5019633512276016
 30
0.0
 11
4197.9231261752429418
 21
148.5034927706562939
 31
0.0
  0
LINE
  5
A389
  8
0
 10
4198.0658598040454308
 20
149.5019633512276016
 30
0.0
 11
4198.0658598040454308
 21
148.5033332432464022
 31
0.0
  0
ARC
  5
A38A
  8
0
 10
4198.1314419720301885
 20
151.3126758062392128
 30
0.0
 40
0.1156500120478234
 50
189.9757838649238977
 51
233.8778340159238951
  0
ARC
  5
A38B
  8
0
 10
4198.1433515233011349
 20
151.3598703202632976
 30
0.0
 40
0.1618196407399039
 50
240.3361417138465868
 51
304.6574527423838958
  0
ARC
  5
A38C
  8
0
 10
4198.1695622070828904
 20
151.3021617046809979
 30
0.0
 40
0.1000803775577847
 50
311.1157604403380219
 51
355.3891527429133816
  0
ARC
  5
A38D
  8
0
 10
4198.244214327130976
 20
151.2961411128426903
 30
0.0
 40
0.0251858747304392
 50
355.3891527429141775
 51
76.0760741554134228
  0
ARC
  5
A38E
  8
0
 10
4198.1480898048339441
 20
151.2119937991107008
 30
0.0
 40
0.1491115659216106
 50
35.6563824824188202
 51
150.0952232118112875
  0
ARC
  5
A38F
  8
0
 10
4198.0470511408439052
 20
151.2930064890300059
 30
0.0
 40
0.0295129316256841
 50
88.192729121531201
 51
180.7085393960958868
  0
LINE
  5
A390
  8
0
 10
4198.4250710331052687
 20
149.5139423400499084
 30
0.0
 11
4198.4250710331052687
 21
151.410961505768114
 31
0.0
  0
ARC
  5
A391
  8
0
 10
1165.8240054404739112
 20
7185.9919077076092435
 30
0.0
 40
7661.4833646711385882
 50
293.2791408973354805
 51
293.3032465714405816
  0
ARC
  5
A392
  8
0
 10
1165.8240054404739112
 20
7185.9919077076092435
 30
0.0
 40
7661.4833646711385882
 50
293.3182490003626981
 51
293.3303132837673957
  0
ARC
  5
A393
  8
0
 10
5399.2158165833370731
 20
-2650.2340326789858409
 30
0.0
 40
3047.6331687981460163
 50
113.1714078841311988
 51
113.2019438467960981
  0
ARC
  5
A394
  8
0
 10
5399.2158165833370731
 20
-2650.2340326789858409
 30
0.0
 40
3047.6331687981460163
 50
113.2691654165033981
 51
113.3002230736347968
  0
LINE
  5
A395
  8
0
 10
4197.3737067993452001
 20
151.3105318242274961
 30
0.0
 11
4196.5905057986337852
 21
151.3105318242274961
 31
0.0
  0
LINE
  5
A396
  8
0
 10
4189.6529677530543267
 20
151.3105318242274961
 30
0.0
 11
4189.001956202517249
 21
151.3105318242274961
 31
0.0
  0
LINE
  5
A397
  8
0
 10
4188.869766799343779
 20
151.2120395233961005
 30
0.0
 11
4188.9766959522557954
 21
151.301368883554602
 31
0.0
  0
ARC
  5
A398
  8
0
 10
4189.001956202517249
 20
151.2711318242274956
 30
0.0
 40
0.0394
 50
90.0000000000521254
 51
129.8756175349491002
  0
LINE
  5
A399
  8
0
 10
4198.4066941426635822
 20
150.181793072727487
 30
0.0
 11
4197.6119568348021858
 21
150.181793072727487
 31
0.0
  0
LINE
  5
A39A
  8
0
 10
4197.3737067993452001
 20
150.181793072727487
 30
0.0
 11
4188.9934251834583847
 21
150.181793072727487
 31
0.0
  0
LINE
  5
A39B
  8
0
 10
4198.5303524686441961
 20
150.2192947960911056
 30
0.0
 11
4198.4186715613868728
 21
150.1836577368327141
 31
0.0
  0
ARC
  5
A39C
  8
0
 10
4198.4066941426635822
 20
150.2211930727279139
 30
0.0
 40
0.0394
 50
270.0000000000521254
 51
287.6977349219779967
  0
LINE
  5
A39D
  8
0
 10
4188.9814477639429242
 20
150.1836577370856958
 30
0.0
 11
4188.869766799343779
 21
150.219294817240808
 31
0.0
  0
ARC
  5
A39E
  8
0
 10
4188.9934251834583847
 20
150.2211930727276012
 30
0.0
 40
0.0394
 50
252.3022638677524867
 51
270.0
  0
LINE
  5
A39F
  8
0
 10
4196.970089354907941
 20
154.15609739312751
 30
0.0
 11
4196.970089354907941
 21
153.8972326278741889
 31
0.0
  0
LINE
  5
A3A0
  8
0
 10
4196.9584682626491485
 20
153.869333379384102
 30
0.0
 11
4196.8621432791269399
 21
153.7737691446374129
 31
0.0
  0
ARC
  5
A3A1
  8
0
 10
4196.9307893549075743
 20
153.8972326278741889
 30
0.0
 40
0.0393
 50
314.7728508869220718
 51
0.0
  0
ARC
  5
A3A2
  8
0
 10
4196.8344643713871847
 20
153.8016683931276134
 30
0.0
 40
0.0393
 50
270.0
 51
314.7728508869140001
  0
LINE
  5
A3A3
  8
0
 10
4195.2097365484787588
 20
154.15609739312751
 30
0.0
 11
4195.2097365484787588
 21
153.8972326278741889
 31
0.0
  0
LINE
  5
A3A4
  8
0
 10
4195.2213576407393703
 20
153.869333379384102
 30
0.0
 11
4195.3176826242597599
 21
153.7737691446374129
 31
0.0
  0
ARC
  5
A3A5
  8
0
 10
4195.2490365484791255
 20
153.8972326278741889
 30
0.0
 40
0.0393
 50
180.0
 51
225.2271491130778998
  0
ARC
  5
A3A6
  8
0
 10
4195.3453615320013341
 20
153.8016683931276134
 30
0.0
 40
0.0393
 50
225.2271491130858863
 51
270.0
  0
LINE
  5
A3A7
  8
0
 10
4191.0439299712479624
 20
154.15609739312751
 30
0.0
 11
4191.0439299712479624
 21
153.8972326278741889
 31
0.0
  0
LINE
  5
A3A8
  8
0
 10
4191.0323088789891699
 20
153.869333379384102
 30
0.0
 11
4190.9359838954660518
 21
153.7737691446374129
 31
0.0
  0
ARC
  5
A3A9
  8
0
 10
4191.0046299712494147
 20
153.8972326278741889
 30
0.0
 40
0.0393
 50
314.7728508869220718
 51
0.0
  0
ARC
  5
A3AA
  8
0
 10
4190.908304987727206
 20
153.8016683931276134
 30
0.0
 40
0.0393
 50
270.0
 51
314.7728508869140001
  0
LINE
  5
A3AB
  8
0
 10
4189.2953005847266468
 20
154.15609739312751
 30
0.0
 11
4189.2953005847266468
 21
153.8972326278741889
 31
0.0
  0
LINE
  5
A3AC
  8
0
 10
4189.3069216769872583
 20
153.869333379384102
 30
0.0
 11
4189.4032466605103764
 21
153.7737691446374129
 31
0.0
  0
ARC
  5
A3AD
  8
0
 10
4189.3346005847270135
 20
153.8972326278741889
 30
0.0
 40
0.0393
 50
180.0
 51
225.2271491130778998
  0
ARC
  5
A3AE
  8
0
 10
4189.4309255682492221
 20
153.8016683931276134
 30
0.0
 40
0.0393
 50
225.2271491130858863
 51
270.0
  0
LINE
  5
A3B0
  8
0
 10
4193.1217367758436012
 20
149.5554693946675968
 30
0.0
 11
4193.1217367758436012
 21
148.8820593320000967
 31
0.0
  0
LINE
  5
A3B1
  8
0
 10
4193.1217367758436012
 20
147.7274956720146122
 30
0.0
 11
4193.1217367758436012
 21
145.5867028238739067
 31
0.0
  0
ENDSEC
  0
EOF
