  0
SECTION
  2
HEADER
  9
$ACADVER
  1
AC1009
  9
$INSBASE
 10
4041.9044687682771837
 20
94.9100498652131819
 30
0.0
  9
$EXTMIN
 10
4035.5676746891049333
 20
80.4963913133532856
 30
-0.0000000000000058
  9
$EXTMAX
 10
4056.3032012385010603
 20
129.230396597921299
 30
0.0000000000000104
  9
$LIMMIN
 10
0.0
 20
0.0
  9
$LIMMAX
 10
11.6929133858000007
 20
8.2677165353999982
  9
$ORTHOMODE
 70
     0
  9
$REGENMODE
 70
     1
  9
$FILLMODE
 70
     1
  9
$QTEXTMODE
 70
     0
  9
$MIRRTEXT
 70
     0
  9
$DRAGMODE
 70
     2
  9
$LTSCALE
 40
0.6431102362
  9
$OSMODE
 70
  4095
  9
$ATTMODE
 70
     1
  9
$TEXTSIZE
 40
0.2
  9
$TRACEWID
 40
0.05
  9
$TEXTSTYLE
  7
STANDARD
  9
$CLAYER
  8
0
  9
$CELTYPE
  6
BYLAYER
  9
$CECOLOR
 62
   256
  9
$DIMSCALE
 40
1.0
  9
$DIMASZ
 40
0.1875
  9
$DIMEXO
 40
0.0625
  9
$DIMDLI
 40
0.4443307087
  9
$DIMRND
 40
0.0
  9
$DIMDLE
 40
0.0
  9
$DIMEXE
 40
0.125
  9
$DIMTP
 40
0.01
  9
$DIMTM
 40
0.01
  9
$DIMTXT
 40
2.0
  9
$DIMCEN
 40
0.1052362205
  9
$DIMTSZ
 40
0.0
  9
$DIMTOL
 70
     1
  9
$DIMLIM
 70
     0
  9
$DIMTIH
 70
     1
  9
$DIMTOH
 70
     1
  9
$DIMSE1
 70
     0
  9
$DIMSE2
 70
     0
  9
$DIMTAD
 70
     0
  9
$DIMZIN
 70
     0
  9
$DIMBLK
  1

  9
$DIMASO
 70
     1
  9
$DIMSHO
 70
     1
  9
$DIMPOST
  1
\X
  9
$DIMAPOST
  1

  9
$DIMALT
 70
     1
  9
$DIMALTD
 70
     2
  9
$DIMALTF
 40
25.3999999999999986
  9
$DIMLFAC
 40
1.0
  9
$DIMTOFL
 70
     0
  9
$DIMTVP
 40
0.0
  9
$DIMTIX
 70
     0
  9
$DIMSOXD
 70
     0
  9
$DIMSAH
 70
     0
  9
$DIMBLK1
  1

  9
$DIMBLK2
  1

  9
$DIMSTYLE
  2
STANDARD
  9
$DIMCLRD
 70
     0
  9
$DIMCLRE
 70
     0
  9
$DIMCLRT
 70
     0
  9
$DIMTFAC
 40
1.0
  9
$DIMGAP
 40
0.09
  9
$LUNITS
 70
     2
  9
$LUPREC
 70
     4
  9
$SKETCHINC
 40
0.1
  9
$FILLETRAD
 40
0.0
  9
$AUNITS
 70
     0
  9
$AUPREC
 70
     0
  9
$MENU
  1
.
  9
$ELEVATION
 40
0.0
  9
$PELEVATION
 40
0.0
  9
$THICKNESS
 40
0.0
  9
$LIMCHECK
 70
     0
  9
$BLIPMODE
 70
     0
  9
$CHAMFERA
 40
0.0
  9
$CHAMFERB
 40
0.0
  9
$SKPOLY
 70
     0
  9
$TDCREATE
 40
2458060.468368056230247
  9
$TDUPDATE
 40
2460281.7999537037685513
  9
$TDINDWG
 40
0.3658982639
  9
$TDUSRTIMER
 40
0.3658982639
  9
$USRTIMER
 70
     1
  9
$ANGBASE
 50
0.0
  9
$ANGDIR
 70
     0
  9
$PDMODE
 70
     0
  9
$PDSIZE
 40
0.3125
  9
$PLINEWID
 40
0.0
  9
$COORDS
 70
     1
  9
$SPLFRAME
 70
     0
  9
$SPLINETYPE
 70
     6
  9
$SPLINESEGS
 70
     8
  9
$ATTDIA
 70
     1
  9
$ATTREQ
 70
     1
  9
$HANDLING
 70
     1
  9
$HANDSEED
  5
13002
  9
$SURFTAB1
 70
     6
  9
$SURFTAB2
 70
     6
  9
$SURFTYPE
 70
     6
  9
$SURFU
 70
     6
  9
$SURFV
 70
     6
  9
$UCSNAME
  2

  9
$UCSORG
 10
0.0
 20
0.0
 30
0.0
  9
$UCSXDIR
 10
1.0
 20
0.0
 30
0.0
  9
$UCSYDIR
 10
0.0
 20
1.0
 30
0.0
  9
$PUCSNAME
  2

  9
$PUCSORG
 10
0.0
 20
0.0
 30
0.0
  9
$PUCSXDIR
 10
1.0
 20
0.0
 30
0.0
  9
$PUCSYDIR
 10
0.0
 20
1.0
 30
0.0
  9
$USERI1
 70
     0
  9
$USERI2
 70
     0
  9
$USERI3
 70
     0
  9
$USERI4
 70
     0
  9
$USERI5
 70
     0
  9
$USERR1
 40
0.0
  9
$USERR2
 40
0.0
  9
$USERR3
 40
0.0
  9
$USERR4
 40
0.0
  9
$USERR5
 40
0.0
  9
$WORLDVIEW
 70
     1
  9
$SHADEDGE
 70
     3
  9
$SHADEDIF
 70
    70
  9
$TILEMODE
 70
     1
  9
$MAXACTVP
 70
    64
  9
$PLIMCHECK
 70
     0
  9
$PEXTMIN
 10
1.0000000000000000E+20
 20
1.0000000000000000E+20
 30
1.0000000000000000E+20
  9
$PEXTMAX
 10
-1.0000000000000000E+20
 20
-1.0000000000000000E+20
 30
-1.0000000000000000E+20
  9
$PLIMMIN
 10
0.0
 20
0.0
  9
$PLIMMAX
 10
12.0
 20
9.0
  9
$UNITMODE
 70
     0
  9
$VISRETAIN
 70
     1
  9
$PLINEGEN
 70
     0
  9
$PSLTSCALE
 70
     1
  0
ENDSEC
  0
SECTION
  2
TABLES
  0
TABLE
  2
VPORT
 70
     1
  0
VPORT
  2
*ACTIVE
 70
     0
 10
0.0
 20
0.0
 11
1.0
 21
1.0
 12
-219.0709096924464916
 22
0.5593816570533364
 13
0.0
 23
0.0
 14
1.0
 24
1.0
 15
0.0
 25
0.0
 16
0.0
 26
0.0
 36
122.0237731519760018
 17
4265.00634765625
 27
104.3040122985839986
 37
0.0
 40
49.1212786110628912
 41
2.4474358974358972
 42
50.0
 43
0.0
 44
0.0
 50
0.0
 51
0.0
 71
     0
 72
   100
 73
     1
 74
     1
 75
     0
 76
     0
 77
     0
 78
     0
  0
ENDTAB
  0
TABLE
  2
LTYPE
 70
     2
  0
LTYPE
  2
CONTINUOUS
 70
     0
  3
Solid line
 72
    65
 73
     0
 40
0.0
  0
LTYPE
  2
PHANTOM2
 70
     0
  3
___ _ _ ___ _ _ ___ _ _ ___ _ _
 72
    65
 73
     6
 40
1.25
 49
0.625
 49
-0.125
 49
0.125
 49
-0.125
 49
0.125
 49
-0.125
  0
ENDTAB
  0
TABLE
  2
LAYER
 70
     2
  0
LAYER
  2
0
 70
     0
 62
   255
  6
CONTINUOUS
  0
LAYER
  2
DEFPOINTS
 70
     0
 62
     7
  6
CONTINUOUS
  0
ENDTAB
  0
TABLE
  2
STYLE
 70
     1
  0
STYLE
  2
STANDARD
 70
     0
 40
0.0
 41
0.8
 50
0.0
 71
     0
 42
0.2
  3
txt
  4

  0
ENDTAB
  0
TABLE
  2
VIEW
 70
     0
  0
ENDTAB
  0
TABLE
  2
UCS
 70
     0
  0
ENDTAB
  0
TABLE
  2
APPID
 70
     9
  0
APPID
  2
ACAD
 70
     0
  0
APPID
  2
ACAD_MLEADERVER
 70
     0
  0
APPID
  2
ACAD_EXEMPT_FROM_CAD_STANDARDS
 70
     0
  0
APPID
  2
ACAD_NAV_VCDISPLAY
 70
     0
  0
APPID
  2
ACAECLAYERSTANDARD
 70
     0
  0
APPID
  2
ACCMTRANSPARENCY
 70
     0
  0
APPID
  2
ACAD_DSTYLE_DIMJAG
 70
     0
  0
APPID
  2
ACAD_DSTYLE_DIMTALN
 70
     0
  0
APPID
  2
ACDBATTR
 70
     0
  0
ENDTAB
  0
TABLE
  2
DIMSTYLE
 70
     1
  0
DIMSTYLE
  2
STANDARD
 70
     0
  3

  4

  5

  6

  7

 40
1.0
 41
0.1875
 42
0.0625
 43
0.38
 44
0.125
 45
0.0
 46
0.0
 47
0.01
 48
0.01
140
0.15625
141
0.09
142
0.0
143
25.3999999999999986
144
1.0
145
0.0
146
1.0
147
0.09
 71
     1
 72
     0
 73
     1
 74
     1
 75
     0
 76
     0
 77
     0
 78
     4
170
     0
171
     2
172
     0
173
     0
174
     0
175
     0
176
     0
177
     0
178
     0
  0
ENDTAB
  0
ENDSEC
  0
SECTION
  2
BLOCKS
  0
BLOCK
  8
0
  2
$MODEL_SPACE
 70
     0
 10
0.0
 20
0.0
 30
0.0
  3
$MODEL_SPACE
  1

  0
ENDBLK
  5
21
  8
0
  0
BLOCK
 67
     1
  8
0
  2
$PAPER_SPACE
 70
     0
 10
0.0
 20
0.0
 30
0.0
  3
$PAPER_SPACE
  1

  0
ENDBLK
  5
1D
 67
     1
  8
0
  0
BLOCK
  8
0
  2
_FILLED
 70
     0
 10
0.0
 20
0.0
 30
0.0
  3
_FILLED
  1

  0
SOLID
  5
10294
  8
0
  6
BYBLOCK
 62
     0
 10
0.0
 20
0.0
 30
0.0
 11
-1.0
 21
0.1666666667
 31
0.0
 12
-1.0
 22
-0.1666666667
 32
0.0
 13
-1.0
 23
-0.1666666667
 33
0.0
  0
ENDBLK
  5
10295
  8
0
  6
BYBLOCK
 62
     0
  0
ENDSEC
  0
SECTION
  2
ENTITIES
  0
ATTDEF
  5
115F1
  8
DEFPOINTS
 10
4041.9027784616969257
 20
94.9141701977168566
 30
0.0
 40
0.001
  1
K-EX27028T-9
  3

  2
MODELNUMBER
 70
     0
1001
ACDBATTR
1070
     0
1070
     1
  0
ATTDEF
  5
115F2
  8
DEFPOINTS
 10
4041.9027784616969257
 20
94.9125035310501914
 30
0.0
 40
0.001
  1
OCCASION
  3

  2
TRADENAME
 70
     0
1001
ACDBATTR
1070
     0
1070
     1
  0
ATTDEF
  5
115F3
  8
DEFPOINTS
 10
4041.9027784616969257
 20
94.9108368643835263
 30
0.0
 40
0.001
  1
SHOWER FAUCET
  3

  2
PRODUCT
 70
     0
1001
ACDBATTR
1070
     0
1070
     1
  0
LINE
  5
12A24
  8
0
 10
4037.6054599200269877
 20
95.7461163112758982
 30
0.0
 11
4037.6054599200269877
 21
93.941771877475901
 31
0.0
  0
LINE
  5
12A25
  8
0
 10
4037.5857748806270138
 20
93.9207162581015069
 30
0.0
 11
4037.2056729142282165
 21
93.9207162581015069
 31
0.0
  0
ARC
  5
12A26
  8
0
 10
4037.2131176879979648
 20
93.9019723467986296
 30
0.0
 40
0.0201790905558687
 50
111.6539388352104964
 51
177.7015969259282997
  0
LINE
  5
12A27
  8
0
 10
4037.5857748806270138
 20
95.7671719307015223
 30
0.0
 11
4037.2056729139721938
 21
95.7671719307015223
 31
0.0
  0
ARC
  5
12A28
  8
0
 10
4037.2130162542011931
 20
95.7858970195951827
 30
0.0
 40
0.0201135178376238
 50
184.1246295810992137
 51
248.5865846871456881
  0
ARC
  5
12A29
  8
0
 10
4037.1481107975459963
 20
95.7806817882139541
 30
0.0
 40
0.0460399112261676
 50
13.0875487022751802
 51
57.9048035037592186
  0
LINE
  5
12A2A
  8
0
 10
4037.1725730711268625
 20
95.8196852572517628
 30
0.0
 11
4035.7693574197478483
 21
95.7841963359618944
 31
0.0
  0
ARC
  5
12A2B
  8
0
 10
4035.7699307781958851
 20
95.754295660927923
 30
0.0
 40
0.0299061717274958
 50
91.0985368589081048
 51
135.1712051623705975
  0
LINE
  5
12A2C
  8
0
 10
4035.7487208270767951
 20
95.775379234651524
 30
0.0
 11
4035.6457467165278103
 21
95.6724051240727249
 31
0.0
  0
ARC
  5
12A2D
  8
0
 10
4035.6853403077670919
 20
95.6440378073184263
 30
0.0
 40
0.0487068488732173
 50
144.3798282398890933
 51
173.3625505303392913
  0
LINE
  5
12A2E
  8
0
 10
4035.6369599200270386
 20
95.6496676571597959
 30
0.0
 11
4035.6369599200270386
 21
94.036696268281446
 31
0.0
  0
ARC
  5
12A2F
  8
0
 10
4035.671630025282866
 20
94.038630688887153
 30
0.0
 40
0.0347240288877716
 50
183.1935106096435959
 51
221.8064889703925928
  0
LINE
  5
12A30
  8
0
 10
4035.6457467165278103
 20
94.015483064601554
 30
0.0
 11
4035.7487208257070961
 21
93.9125089526761485
 31
0.0
  0
ARC
  5
12A31
  8
0
 10
4035.7699340252288494
 20
93.9337221516328214
 30
0.0
 40
0.0299999940656514
 50
224.9999992363981107
 51
268.9000100389022805
  0
LINE
  5
12A32
  8
0
 10
4035.7693581073272071
 20
93.9037276861015187
 30
0.0
 11
4037.1729569539947988
 21
93.8687253333398246
 31
0.0
  0
ARC
  5
12A33
  8
0
 10
4037.1494298870238708
 20
93.9069863996348744
 30
0.0
 40
0.0449158332248628
 50
301.5877248277946023
 51
345.7041076141819076
  0
ARC
  5
12A34
  8
0
 10
4037.175385170537993
 20
95.5303641882473471
 30
0.0
 40
0.0176665336556491
 50
261.5256935608032904
 51
353.9970897318088987
  0
LINE
  5
12A35
  8
0
 10
4037.1727817261757991
 20
95.5128905369730319
 30
0.0
 11
4037.0810282273560006
 21
95.5124782047958547
 31
0.0
  0
ARC
  5
12A36
  8
0
 10
4037.0800386750997859
 20
95.4970512499744331
 30
0.0
 40
0.0154594170814136
 50
86.2891339601193437
 51
169.7127702852041864
  0
LINE
  5
12A37
  8
0
 10
4037.0648277702271116
 20
95.4998120378015187
 30
0.0
 11
4037.0648276773267753
 21
95.2702533592015186
 31
0.0
  0
ARC
  5
12A38
  8
0
 10
4037.0798364370898526
 20
95.2708985257768859
 30
0.0
 40
0.015022750027317
 50
182.4788677286605036
 51
273.5541325620912971
  0
LINE
  5
12A39
  8
0
 10
4037.0807677205198161
 20
95.2559046693831419
 30
0.0
 11
4037.1727635671691132
 21
95.2555003823339916
 31
0.0
  0
ARC
  5
12A3A
  8
0
 10
4037.1730111992751517
 20
95.2324458662133111
 30
0.0
 40
0.0230558460096705
 50
30.1156842182896192
 51
90.6153991342581548
  0
LINE
  5
12A3B
  8
0
 10
4037.1929570200268245
 20
94.8439440943515137
 30
0.0
 11
4035.6369599200270386
 21
94.8439440943515137
 31
0.0
  0
LINE
  5
12A3C
  8
0
 10
4035.7693581073272071
 20
95.7841963491464981
 30
0.0
 11
4035.7693581073272071
 21
93.9037276861015187
 31
0.0
  0
LINE
  5
12A3D
  8
0
 10
4037.6527039891248023
 20
95.7797544958161353
 30
0.0
 11
4037.6527039891248023
 21
93.9118398347015386
 31
0.0
  0
ARC
  5
12A3E
  8
0
 10
4037.7259635477421398
 20
93.9172911907033665
 30
0.0
 40
0.0734621005072217
 50
184.2556237330630893
 51
205.9606569491791959
  0
ARC
  5
12A3F
  8
0
 10
4037.698412381081198
 20
93.920870483211857
 30
0.0
 40
0.05252894961905
 50
222.8703156280753888
 51
263.069646333329672
  0
LINE
  5
12A40
  8
0
 10
4037.6920740932278022
 20
93.8687253333398246
 30
0.0
 11
4041.4322330696268182
 21
93.8687253333397962
 31
0.0
  0
LINE
  5
12A41
  8
0
 10
4042.377114959327173
 20
93.8687253333398246
 30
0.0
 11
4046.1172739357270984
 21
93.8687253333398246
 31
0.0
  0
ARC
  5
12A42
  8
0
 10
4046.1118620766451386
 20
93.9220797406998855
 30
0.0
 40
0.0536281735981434
 50
275.7918325401731749
 51
308.3178244627486038
  0
ARC
  5
12A43
  8
0
 10
4046.1169649116231994
 20
93.9082058828555546
 30
0.0
 40
0.039845342052951
 50
314.9450428966283084
 51
5.2356034413475596
  0
LINE
  5
12A44
  8
0
 10
4046.1566440144270018
 20
93.9118418262014529
 30
0.0
 11
4046.1566440144270018
 21
95.7800369949015362
 31
0.0
  0
ARC
  5
12A45
  8
0
 10
4046.1168095317698317
 20
95.7798530172838838
 30
0.0
 40
0.0398349471180019
 50
0.2766816150402019
 51
89.3320189567327532
  0
LINE
  5
12A46
  8
0
 10
4046.1172739357270984
 20
95.8196852572517628
 30
0.0
 11
4037.6920740932278022
 21
95.8196852572517628
 31
0.0
  0
ARC
  5
12A47
  8
0
 10
4037.6928091416612006
 20
95.7793353751451662
 30
0.0
 40
0.0403565766910023
 50
91.0436341581771273
 51
150.9402238885483882
  0
ARC
  5
12A48
  8
0
 10
4037.7050281404558518
 20
95.7767821979998644
 30
0.0
 40
0.0524085047179409
 50
154.9922113456539989
 51
176.7487805999911927
  0
ARC
  5
12A49
  8
0
 10
4039.7669896517259076
 20
93.6561560771964139
 30
0.0
 40
2.7402583512172081
 50
108.7829585257992022
 51
127.8579460204388027
  0
ARC
  5
12A4A
  8
0
 10
4038.9519161964799423
 20
96.0653963846770296
 30
0.0
 40
0.1969233306914573
 50
70.0340495293517051
 51
109.9673286045770055
  0
ARC
  5
12A4B
  8
0
 10
4038.1358142768340258
 20
93.6541176824396757
 30
0.0
 40
2.742519456272511
 50
52.1506733064498107
 51
71.210510171907643
  0
ARC
  5
12A4C
  8
0
 10
4038.9519185385070159
 20
95.9605803508819122
 30
0.0
 40
0.1608817130017426
 50
69.0140808878123551
 51
110.9859174216881996
  0
ARC
  5
12A4D
  8
0
 10
4038.1259077741028705
 20
93.5963742484264003
 30
0.0
 40
2.6651620843663988
 50
56.5339070064016482
 51
70.6372506982693977
  0
ARC
  5
12A4E
  8
0
 10
4039.744347786110211
 20
93.6650458569102113
 30
0.0
 40
2.589256117539199
 50
109.1654931759697007
 51
123.680169532100507
  0
ARC
  5
12A4F
  8
0
 10
4040.6389784745319957
 20
95.4715633001564754
 30
0.0
 40
3.0947908866035831
 50
211.1924832732586026
 51
213.9167325779719135
  0
ARC
  5
12A50
  8
0
 10
4038.2332858113518341
 20
93.8539849266470867
 30
0.0
 40
0.1958398721627824
 50
213.9167325779719135
 51
254.0832673856253905
  0
ARC
  5
12A51
  8
0
 10
4038.9519246761251452
 20
96.3739928503272267
 30
0.0
 40
2.816313446418758
 50
254.0832673856253905
 51
285.9167326143746095
  0
ARC
  5
12A52
  8
0
 10
4039.6705761208691001
 20
93.8539408132170365
 30
0.0
 40
0.1957940000539651
 50
285.9167326143746095
 51
326.0897970522653964
  0
ARC
  5
12A53
  8
0
 10
4037.2923282211149854
 20
95.4526718925683326
 30
0.0
 40
3.061453459370473
 50
326.0897970522653964
 51
328.8430720294313119
  0
ARC
  5
12A54
  8
0
 10
4039.6083704473571743
 20
93.9395684313663537
 30
0.0
 40
0.1607108864067935
 50
284.9907108819718928
 51
333.8443737495658752
  0
ARC
  5
12A55
  8
0
 10
4038.9519181604650839
 20
96.3910714562655357
 30
0.0
 40
2.6985833587850778
 50
255.0092891180281924
 51
284.9907108819718928
  0
ARC
  5
12A56
  8
0
 10
4038.2954658245521387
 20
93.9395682483007022
 30
0.0
 40
0.1607106968915154
 50
206.1555867203123
 51
255.0092891180281924
  0
LINE
  5
12A57
  8
0
 10
4037.6054599200269877
 20
95.6529992125015269
 30
0.0
 11
4037.6527040144260354
 21
95.6529992125015269
 31
0.0
  0
LINE
  5
12A58
  8
0
 10
4037.6054599200269877
 20
94.0348889763015165
 30
0.0
 11
4037.6527040144260354
 21
94.0348889763015165
 31
0.0
  0
LINE
  5
12A59
  8
0
 10
4046.2038881090270479
 20
95.7993488186015156
 30
0.0
 11
4046.2038881090270479
 21
93.8885393701015261
 31
0.0
  0
ARC
  5
12A5A
  8
0
 10
4046.2237951107408662
 20
93.8886313099024505
 30
0.0
 40
0.0199072140235809
 50
180.264616700394896
 51
269.361147806763995
  0
ARC
  5
12A5B
  8
0
 10
4173.9618159342153376
 20
-6487.8485339263188507
 30
0.0
 40
6582.9567171223661717
 50
91.0960468891167778
 51
91.1118592878392235
  0
ARC
  5
12A5C
  8
0
 10
4048.0387805897839826
 20
93.9352107614997749
 30
0.0
 40
0.0315062933401618
 50
272.199771181898825
 51
313.9002288444729061
  0
LINE
  5
12A5D
  8
0
 10
4048.0606272018621894
 20
93.9125089540657427
 30
0.0
 11
4048.1636013124270903
 21
94.015483064730347
 31
0.0
  0
ARC
  5
12A5E
  8
0
 10
4048.12355122673398
 20
94.0440265462136153
 30
0.0
 40
0.0491806842827626
 50
324.5227313710864792
 51
353.2210265803291804
  0
ARC
  5
12A5F
  8
0
 10
4048.1423836446329005
 20
95.6511901073318853
 30
0.0
 40
0.0300044390372705
 50
0.0034627685031999
 51
44.9964203496478135
  0
LINE
  5
12A60
  8
0
 10
4048.1636013124661986
 20
95.6724051240342845
 30
0.0
 11
4048.0606272018771961
 21
95.775379234651524
 31
0.0
  0
ARC
  5
12A61
  8
0
 10
4048.0394139983968671
 20
95.7541660310615725
 30
0.0
 40
0.0300000001404911
 50
45.0000001405622001
 51
88.8999999478811844
  0
LINE
  5
12A62
  8
0
 10
4048.0399899216990889
 20
95.7841605025651575
 30
0.0
 11
4046.2239510508679814
 21
95.8196852572517628
 31
0.0
  0
ARC
  5
12A63
  8
0
 10
4046.2247099874261949
 20
95.7988719373328763
 30
0.0
 40
0.0208271522475815
 50
92.0883071421152835
 51
178.7105761707977933
  0
LINE
  5
12A64
  8
0
 10
4046.1566440144270018
 20
95.6529992125015269
 30
0.0
 11
4046.2038881090270479
 21
95.6529992125015269
 31
0.0
  0
LINE
  5
12A65
  8
0
 10
4046.1566440144270018
 20
94.0348889763015165
 30
0.0
 11
4046.2038881090270479
 21
94.0348889763015165
 31
0.0
  0
LINE
  5
12A66
  8
0
 10
4048.0399899216267841
 20
95.7841605025665359
 30
0.0
 11
4048.0399899216267841
 21
93.9037276861106278
 31
0.0
  0
LINE
  5
12A67
  8
0
 10
4037.6527040144260354
 20
94.8439440943515137
 30
0.0
 11
4046.1566440145261367
 21
94.8439440943515137
 31
0.0
  0
LINE
  5
12A68
  8
0
 10
4046.2038881090270479
 20
94.8439440943515137
 30
0.0
 11
4048.1723881089269526
 21
94.8439440943515137
 31
0.0
  0
LINE
  5
12A69
  8
0
 10
4038.9519185385070159
 20
96.2623197153545789
 30
0.0
 11
4038.9519185385070159
 21
96.121462063883655
 31
0.0
  0
LINE
  5
12A6A
  8
0
 10
4041.4514175192271068
 20
93.729676517200744
 30
0.0
 11
4041.510767117152227
 21
92.3129316475007471
 31
0.0
  0
LINE
  5
12A6B
  8
0
 10
4041.510767117152227
 20
92.3129316475007471
 30
0.0
 11
4042.2981704194021404
 21
92.3119644780007604
 31
0.0
  0
LINE
  5
12A6C
  8
0
 10
4042.2981704194021404
 20
92.3119644780007604
 30
0.0
 11
4042.3563969841070502
 21
93.7297708660007629
 31
0.0
  0
ARC
  5
12A6D
  8
0
 10
4053.7085355270392029
 20
126.7594595845529994
 30
0.0
 40
2.6340103585289301
 50
259.8097404379863065
 51
270.1556558700290793
  0
ARC
  5
12A6E
  8
0
 10
4053.7088340555537798
 20
126.7754214484690038
 30
0.0
 40
2.649774458015818
 50
258.456304959208012
 51
259.8644487858463776
  0
ARC
  5
12A6F
  8
0
 10
4053.7001566218868902
 20
126.7329363684438022
 30
0.0
 40
2.6064122638855571
 50
216.9676040653411064
 51
258.456304959208012
  0
ARC
  5
12A70
  8
0
 10
4053.7259273965519242
 20
126.6332830057484955
 30
0.0
 40
2.5688362143414212
 50
180.123725834654806
 51
214.8455854957767883
  0
ARC
  5
12A71
  8
0
 10
4053.553540632385193
 20
126.5390991718181937
 30
0.0
 40
2.398082090678451
 50
127.6672424439121016
 51
177.8817814079739037
  0
ARC
  5
12A72
  8
0
 10
4053.7183530580200568
 20
126.3263947602131054
 30
0.0
 40
2.6671658931819322
 50
97.2164424175074799
 51
127.6776141825268951
  0
ARC
  5
12A73
  8
0
 10
4053.7103857899078321
 20
126.3893169586344953
 30
0.0
 40
2.603741289002206
 50
89.8831118117576153
 51
97.2164424175074799
  0
ARC
  5
12A74
  8
0
 10
4053.7101612876849686
 20
126.2792715187610071
 30
0.0
 40
2.713786957877375
 50
70.2573929511706439
 51
89.8831118117576153
  0
ARC
  5
12A75
  8
0
 10
4053.7623470141620601
 20
126.4246797966945053
 30
0.0
 40
2.5592977435626358
 50
44.1328357432508795
 51
70.2573929511706439
  0
ARC
  5
12A76
  8
0
 10
4053.8810334121480992
 20
126.5383712396727987
 30
0.0
 40
2.3949473895816622
 50
2.6669391233256148
 51
44.1578300816675835
  0
ARC
  5
12A77
  8
0
 10
4053.7562431680439659
 20
126.5969802122611014
 30
0.0
 40
2.5200889324210651
 50
341.5657410646359722
 51
358.9882776296786915
  0
ARC
  5
12A78
  8
0
 10
4053.8208989288459634
 20
126.6213419619054008
 30
0.0
 40
2.466839000375264
 50
314.6731272618044954
 51
340.5540190063928776
  0
ARC
  5
12A79
  8
0
 10
4053.7835000506079268
 20
126.6591700148584039
 30
0.0
 40
2.5200333392073291
 50
289.186386801053402
 51
314.6731272618044954
  0
ARC
  5
12A7A
  8
0
 10
4053.6463457604718315
 20
127.0533249983558051
 30
0.0
 40
2.9373694750957471
 50
281.9127577411879884
 51
289.186386801053402
  0
ARC
  5
12A7B
  8
0
 10
4053.7438771327269933
 20
126.5910156704885026
 30
0.0
 40
2.4648842550020049
 50
272.6020341838303125
 51
281.9127577411879884
  0
ARC
  5
12A7C
  8
0
 10
4053.7232533221399535
 20
126.8505591805083981
 30
0.0
 40
2.7251107262891749
 50
269.8410085046090217
 51
272.7874691741034212
  0
ARC
  5
12A7D
  8
0
 10
4054.0534690070821853
 20
126.6300943760565048
 30
0.0
 40
2.8963727958063061
 50
157.1970953245736951
 51
180.0466570287674983
  0
ARC
  5
12A7E
  8
0
 10
4053.570375860556851
 20
126.7739834143949054
 30
0.0
 40
2.395892437477261
 50
128.4937850675308937
 51
155.8916148196620099
  0
ARC
  5
12A7F
  8
0
 10
4053.7451605607861893
 20
126.5542000007584988
 30
0.0
 40
2.6767027655347491
 50
105.2228691321625007
 51
128.4937850675308937
  0
ARC
  5
12A80
  8
0
 10
4053.7535612809610939
 20
126.2991982913367934
 30
0.0
 40
2.925554716785844
 50
90.7415645245766598
 51
104.0702198463193042
  0
ARC
  5
12A81
  8
0
 10
4053.6588288263910727
 20
126.2742145471682989
 30
0.0
 40
2.950841468442047
 50
70.9029933780940809
 51
88.8957236186605542
  0
ARC
  5
12A82
  8
0
 10
4053.7844896349329247
 20
126.7288790767517952
 30
0.0
 40
2.480268201825754
 50
44.0692676196522868
 51
70.2098017580310767
  0
ARC
  5
12A83
  8
0
 10
4053.7457415912758734
 20
126.6913698907740979
 30
0.0
 40
2.534197321232436
 50
21.2323634286301193
 51
44.0692676196522868
  0
ARC
  5
12A84
  8
0
 10
4053.9090483394588773
 20
126.7548185484333061
 30
0.0
 40
2.358997931504351
 50
2.5016659507817458
 51
21.2323634286301193
  0
ARC
  5
12A85
  8
0
 10
4041.3826001214879398
 20
126.2105917011126053
 30
0.0
 40
14.8972628172110593
 50
1.315050510766125
 51
2.489928927329514
  0
ARC
  5
12A86
  8
0
 10
4053.7142978285301069
 20
126.3341054882451999
 30
0.0
 40
2.503131961158596
 50
89.9679588661377352
 51
115.8506422723266951
  0
ARC
  5
12A87
  8
0
 10
4053.6600141621038347
 20
126.4461438215615061
 30
0.0
 40
2.3786357581123112
 50
115.8506423231090992
 51
142.5046564757614078
  0
ARC
  5
12A88
  8
0
 10
4053.5262890872891148
 20
126.5487374146177046
 30
0.0
 40
2.2100895004548011
 50
142.5046564757614078
 51
173.8584495842378885
  0
ARC
  5
12A89
  8
0
 10
4053.4848365860480044
 20
126.5531978157357997
 30
0.0
 40
2.1683977142456858
 50
173.8584495842378885
 51
206.8506765732533097
  0
ARC
  5
12A8A
  8
0
 10
4053.6236646882739478
 20
126.6234791263107979
 30
0.0
 40
2.3240020348278119
 50
206.8506765732533097
 51
238.9996534606530929
  0
ARC
  5
12A8B
  8
0
 10
4053.7177105621790361
 20
126.7799956003450035
 30
0.0
 40
2.5066000442437231
 50
238.9996534606530929
 51
258.0889752646506849
  0
ARC
  5
12A8C
  8
0
 10
4053.7123954064641111
 20
126.7547974098254997
 30
0.0
 40
2.4808473805809581
 50
258.0889752646506849
 51
272.2003596916736115
  0
ARC
  5
12A8D
  8
0
 10
4053.7106941813849517
 20
126.7990743041577986
 30
0.0
 40
2.525156945445485
 50
272.2003596916736115
 51
298.1983149156937998
  0
ARC
  5
12A8E
  8
0
 10
4053.800574620559928
 20
126.6314361551438026
 30
0.0
 40
2.3349437956605419
 50
298.1983149156937998
 51
324.2084392299270235
  0
ARC
  5
12A8F
  8
0
 10
4053.8937608446758531
 20
126.5642489936162036
 30
0.0
 40
2.220062173810005
 50
324.2084392299270235
 51
4.456145670770729
  0
ARC
  5
12A90
  8
0
 10
4053.9573210145331359
 20
126.5692023399696069
 30
0.0
 40
2.1563092849943968
 50
4.456145670770729
 51
38.0258784656158113
  0
ARC
  5
12A91
  8
0
 10
4053.7291206814138604
 20
126.3907466565050015
 30
0.0
 40
2.4460019203792278
 50
38.0258784656158113
 51
69.8621511458011497
  0
ARC
  5
12A92
  8
0
 10
4053.7262421602931681
 20
126.382896799451899
 30
0.0
 40
2.4543629095309312
 50
69.8621511458011497
 51
90.2461569449934444
  0
ARC
  5
12A93
  8
0
 10
4053.7143013312947915
 20
126.327871341696607
 30
0.0
 40
2.5913016714900632
 50
89.9692956458016084
 51
111.6212969698363935
  0
ARC
  5
12A94
  8
0
 10
4053.6747899179449632
 20
126.4275575071366973
 30
0.0
 40
2.4840706901225089
 50
111.6212969698363935
 51
143.4135059079762016
  0
ARC
  5
12A95
  8
0
 10
4053.49278442863897
 20
126.5626601581336956
 30
0.0
 40
2.257401935231508
 50
143.4135059079762016
 51
180.0230402811853878
  0
ARC
  5
12A96
  8
0
 10
4053.5011646618008854
 20
126.5626635280666932
 30
0.0
 40
2.2657821690707278
 50
180.0230402811853878
 51
213.0784892821324092
  0
ARC
  5
12A97
  8
0
 10
4053.6537512126910769
 20
126.6620518387284022
 30
0.0
 40
2.4478829428439082
 50
213.0784892821324092
 51
252.155609787830997
  0
ARC
  5
12A98
  8
0
 10
4053.7324261914191084
 20
126.906445011586996
 30
0.0
 40
2.7046275147783709
 50
252.155609787830997
 51
269.645614156158274
  0
ARC
  5
12A99
  8
0
 10
4053.7312925317310146
 20
126.7231614849372932
 30
0.0
 40
2.5213404821616781
 50
269.645614156158274
 51
294.1333819315324263
  0
ARC
  5
12A9A
  8
0
 10
4053.7321583341231417
 20
126.7212289809202019
 30
0.0
 40
2.519222892598211
 50
294.1333819315324263
 51
324.9100861164588991
  0
ARC
  5
12A9B
  8
0
 10
4053.9179239486011284
 20
126.566031686934906
 30
0.0
 40
2.2780926677618019
 50
325.4181604636114002
 51
359.8923723813277888
  0
ARC
  5
12A9C
  8
0
 10
4053.8818458905079751
 20
126.5455781538670976
 30
0.0
 40
2.3142232286447362
 50
0.4004467284723364
 51
49.9203814967964021
  0
ARC
  5
12A9D
  8
0
 10
4053.7191921444918989
 20
126.3522811053389034
 30
0.0
 40
2.5668494150604122
 50
49.9203814967964021
 51
80.6640510415126784
  0
ARC
  5
12A9E
  8
0
 10
4053.7186554393729239
 20
126.3490164875631052
 30
0.0
 40
2.570157856023469
 50
80.6640510415126784
 51
90.0659372591413785
  0
ARC
  5
12A9F
  8
0
 10
4053.71558787640015
 20
126.479442576833506
 30
0.0
 40
0.8916294812615623
 50
90.3373118472349148
 51
108.9949634716076048
  0
ARC
  5
12AA0
  8
0
 10
4053.7061261697940608
 20
126.506929216915907
 30
0.0
 40
0.8625599220126783
 50
108.9949634716076048
 51
132.8445821705720107
  0
ARC
  5
12AA1
  8
0
 10
4053.6655557383292035
 20
126.5506729725126007
 30
0.0
 40
0.8028985772159231
 50
132.8445821705720107
 51
162.2257337158503958
  0
ARC
  5
12AA2
  8
0
 10
4053.6309706811171054
 20
126.5617598873740945
 30
0.0
 40
0.7665799062114659
 50
162.2257337158503958
 51
195.400837071764613
  0
ARC
  5
12AA3
  8
0
 10
4053.6666465166058515
 20
126.5715872104207023
 30
0.0
 40
0.8035845210055725
 50
195.400837071764613
 51
236.7168817001775096
  0
ARC
  5
12AA4
  8
0
 10
4053.7196082002128605
 20
126.6522654609546947
 30
0.0
 40
0.9000931736733579
 50
236.7168817001775096
 51
269.7510690015515138
  0
ARC
  5
12AA5
  8
0
 10
4053.7194967529130736
 20
126.6266140965980043
 30
0.0
 40
0.8744415672156726
 50
269.7510690015515138
 51
304.9932869676874816
  0
ARC
  5
12AA6
  8
0
 10
4053.7511091314281657
 20
126.5814556811036056
 30
0.0
 40
0.8193178430545284
 50
304.9932869676874816
 51
344.6108745766700849
  0
ARC
  5
12AA7
  8
0
 10
4053.8193869485880896
 20
126.5626627783381934
 30
0.0
 40
0.7485009417491141
 50
344.6108745766700849
 51
19.9939538996368995
  0
ARC
  5
12AA8
  8
0
 10
4053.7438967121788664
 20
126.5351956003180049
 30
0.0
 40
0.8288328884552001
 50
19.9939538996368995
 51
56.3727201451637612
  0
ARC
  5
12AA9
  8
0
 10
4053.7220241248801358
 20
126.5023086914719954
 30
0.0
 40
0.8683292028223593
 50
56.3727201451637612
 51
85.3851031966838434
  0
ARC
  5
12AAA
  8
0
 10
4053.7116126043420081
 20
126.373325175970507
 30
0.0
 40
0.99773224386476
 50
85.3851031966838434
 51
90.0731550561860956
  0
ARC
  5
12AAB
  8
0
 10
4053.6226935694630811
 20
126.6103378729659994
 30
0.0
 40
0.774831369636333
 50
175.58454879507741
 51
201.0328341955728035
  0
ARC
  5
12AAC
  8
0
 10
4053.6487910905348144
 20
126.5951306182490015
 30
0.0
 40
0.8021300534438243
 50
142.4693053878092996
 51
174.6449992168471113
  0
ARC
  5
12AAD
  8
0
 10
4053.6997690339439941
 20
126.5541094097018942
 30
0.0
 40
0.8675477600636291
 50
107.3794436326221984
 51
142.3718344161943037
  0
ARC
  5
12AAE
  8
0
 10
4053.7155499775808494
 20
126.5143314266456969
 30
0.0
 40
0.9102290747948845
 50
88.3195259278601554
 51
107.5795438517628071
  0
ARC
  5
12AAF
  8
0
 10
4053.7165264347618177
 20
126.518804238041298
 30
0.0
 40
0.9057299459572137
 50
66.3161367127111276
 51
88.3729717199024947
  0
ARC
  5
12AB0
  8
0
 10
4053.737567052382019
 20
126.5613355350151039
 30
0.0
 40
0.8583317908580024
 50
35.1437863822739729
 51
66.4619307220016822
  0
ARC
  5
12AB1
  8
0
 10
4053.7850949220669463
 20
126.5959460880003036
 30
0.0
 40
0.7995454462006407
 50
3.8516681299166691
 51
35.0762167464901466
  0
ARC
  5
12AB2
  8
0
 10
4053.7945782395590868
 20
126.598238129151099
 30
0.0
 40
0.7899313067893253
 50
347.9081837605650094
 51
3.732001213041495
  0
ARC
  5
12AB3
  8
0
 10
4054.121683037791172
 20
126.4878280691613952
 30
0.0
 40
0.4486919971841496
 50
327.2323903851943214
 51
352.9508409231614792
  0
ARC
  5
12AB4
  8
0
 10
4053.274277403008
 20
126.5772667432317036
 30
0.0
 40
0.1002033027112655
 50
124.5419305103948062
 51
181.5063052829532921
  0
ARC
  5
12AB5
  8
0
 10
4053.2809711760241953
 20
126.5505751133434984
 30
0.0
 40
0.1263517351656761
 50
55.0059141488700334
 51
120.1750940493406006
  0
ARC
  5
12AB6
  8
0
 10
4053.2917549707967737
 20
126.5788914717829954
 30
0.0
 40
0.0972525622231571
 50
348.4672101682692187
 51
50.6390776878054183
  0
ARC
  5
12AB7
  8
0
 10
4053.2852123867751288
 20
126.580226475245297
 30
0.0
 40
0.1039299599148467
 50
286.3214645845666837
 51
348.4672101682692187
  0
ARC
  5
12AB8
  8
0
 10
4053.2820607344660857
 20
126.5909893163487965
 30
0.0
 40
0.1151447564306994
 50
235.0224312196178005
 51
286.3214645845666837
  0
ARC
  5
12AB9
  8
0
 10
4053.2719372068149823
 20
126.5765193667554058
 30
0.0
 40
0.0974850493737464
 50
198.5927093719228935
 51
235.0224312196178005
  0
ARC
  5
12ABA
  8
0
 10
4053.2799824946851004
 20
126.5792257656364939
 30
0.0
 40
0.105973350252981
 50
182.484073162977694
 51
198.5927093719228935
  0
ARC
  5
12ABB
  8
0
 10
4053.2777023488879422
 20
126.5564006476359964
 30
0.0
 40
0.1195560771582622
 50
120.951083824789194
 51
144.8567241156079035
  0
ARC
  5
12ABC
  8
0
 10
4053.2661100028199144
 20
126.5645609725012974
 30
0.0
 40
0.1053795687990776
 50
144.8567241156079035
 51
180.7810472396618877
  0
ARC
  5
12ABD
  8
0
 10
4053.2759616937960345
 20
126.564695277554307
 30
0.0
 40
0.1152321752025376
 50
180.7810472396618877
 51
216.9818127922474957
  0
ARC
  5
12ABE
  8
0
 10
4053.2776361176188402
 20
126.5659562132872935
 30
0.0
 40
0.1173282796991973
 50
216.9818127922474957
 51
253.637929378402589
  0
ARC
  5
12ABF
  8
0
 10
4053.283403615394036
 20
126.585600492733505
 30
0.0
 40
0.1378017197021016
 50
253.637929378402589
 51
272.7510568763784136
  0
ARC
  5
12AC0
  8
0
 10
4053.2843243908569093
 20
126.566438402805602
 30
0.0
 40
0.1186175200091823
 50
272.7510568763784136
 51
303.197599834927928
  0
ARC
  5
12AC1
  8
0
 10
4053.2833435247771376
 20
126.5679374603426055
 30
0.0
 40
0.1204089640541783
 50
303.197599834927928
 51
338.807142733529588
  0
ARC
  5
12AC2
  8
0
 10
4053.2993680867239163
 20
126.561724240512703
 30
0.0
 40
0.1032220304626262
 50
338.807142733529588
 51
18.8354960175049513
  0
ARC
  5
12AC3
  8
0
 10
4053.2757300257840143
 20
126.5536608432721977
 30
0.0
 40
0.128197544473104
 50
18.8354960175049513
 51
37.4732365337117983
  0
ARC
  5
12AC4
  8
0
 10
4053.2989309783370118
 20
126.5714463481035068
 30
0.0
 40
0.0989638587407726
 50
37.4732365337117983
 51
56.4378119062654804
  0
ARC
  5
12AC5
  8
0
 10
4053.2765786168638442
 20
126.5720463789198931
 30
0.0
 40
0.1112216634211518
 50
155.5582731829861132
 51
195.6610501986158965
  0
ARC
  5
12AC6
  8
0
 10
4053.272108265614861
 20
126.5707930982909062
 30
0.0
 40
0.1065789537992331
 50
195.6610501986158965
 51
239.0575269514392005
  0
ARC
  5
12AC7
  8
0
 10
4053.2857639585167817
 20
126.5935717616307983
 30
0.0
 40
0.1331372943385255
 50
239.0575269514392005
 51
259.4184630893321923
  0
ARC
  5
12AC8
  8
0
 10
4053.2798812611181347
 20
126.5620817282606936
 30
0.0
 40
0.1011024955981498
 50
259.4184630893321923
 51
272.1792325898640001
  0
ARC
  5
12AC9
  8
0
 10
4053.2787168861359532
 20
126.5926803890248067
 30
0.0
 40
0.131723302407511
 50
272.1792325898640001
 51
297.0879449099014096
  0
ARC
  5
12ACA
  8
0
 10
4053.2899748227027885
 20
126.5706690331063982
 30
0.0
 40
0.1070000153058211
 50
297.0879449099014096
 51
333.7030459464834848
  0
ARC
  5
12ACB
  8
0
 10
4053.2856561018879802
 20
126.5728031922143941
 30
0.0
 40
0.1118172743380207
 50
333.7030459464834848
 51
2.5594129952701419
  0
ARC
  5
12ACC
  8
0
 10
4053.3012928751318213
 20
126.5735021547183976
 30
0.0
 40
0.0961648871056914
 50
2.5594129952701419
 51
22.2854267372891108
  0
ARC
  5
12ACD
  8
0
 10
4053.2118303189390645
 20
126.5368374661195929
 30
0.0
 40
0.1928491585800036
 50
22.2854267372891108
 51
24.4383160638130015
  0
ARC
  5
12ACE
  8
0
 10
4053.2281748264417729
 20
126.6043973363355946
 30
0.0
 40
0.0293934443056747
 50
177.1090770527715961
 51
236.8810901364687993
  0
ARC
  5
12ACF
  8
0
 10
4053.2303528675370217
 20
126.6077360354777994
 30
0.0
 40
0.0333797677975816
 50
236.8810901364687993
 51
290.5199771733105081
  0
ARC
  5
12AD0
  8
0
 10
4053.2313054032861146
 20
126.6051059308759932
 30
0.0
 40
0.03058266170877
 50
290.5758882875585982
 51
349.7261774160098753
  0
ARC
  5
12AD1
  8
0
 10
4053.2339534553930207
 20
126.6046259479485059
 30
0.0
 40
0.0278914605698114
 50
349.7261774160082837
 51
46.9708779320894578
  0
ARC
  5
12AD2
  8
0
 10
4053.2300307020768741
 20
126.6004235944084968
 30
0.0
 40
0.0336401794577519
 50
46.9708779320894578
 51
111.9381399135375972
  0
ARC
  5
12AD3
  8
0
 10
4053.2286206052817761
 20
126.6039245844280003
 30
0.0
 40
0.029865884280092
 50
111.9381399135375972
 51
176.2463861921652892
  0
ARC
  5
12AD4
  8
0
 10
4053.3302482342901385
 20
126.6043973363355946
 30
0.0
 40
0.0293934443056747
 50
177.1090770527715961
 51
236.8810901364687993
  0
ARC
  5
12AD5
  8
0
 10
4053.3324262753872063
 20
126.6077360354777994
 30
0.0
 40
0.0333797677975816
 50
236.8810901364687993
 51
290.5199771733105081
  0
ARC
  5
12AD6
  8
0
 10
4053.3333788111358444
 20
126.6051059308759932
 30
0.0
 40
0.03058266170877
 50
290.5758882875585982
 51
349.7261774160098753
  0
ARC
  5
12AD7
  8
0
 10
4053.3360268632432053
 20
126.6046259479485059
 30
0.0
 40
0.0278914605698114
 50
349.7261774160082837
 51
46.9708779320894578
  0
ARC
  5
12AD8
  8
0
 10
4053.3321041099261492
 20
126.6004235944084968
 30
0.0
 40
0.0336401794577519
 50
46.9708779320894578
 51
111.9381399135375972
  0
ARC
  5
12AD9
  8
0
 10
4053.3306940131319607
 20
126.6039245844280003
 30
0.0
 40
0.029865884280092
 50
111.9381399135375972
 51
176.2463861921652892
  0
ARC
  5
12ADA
  8
0
 10
4053.2793739725411797
 20
126.5201626845894936
 30
0.0
 40
0.0293934443056747
 50
177.1090770527715961
 51
236.8810901364687993
  0
ARC
  5
12ADB
  8
0
 10
4053.2815520136377927
 20
126.5235013837316984
 30
0.0
 40
0.0333797677975816
 50
236.8810901364687993
 51
290.5199771733105081
  0
ARC
  5
12ADC
  8
0
 10
4053.2825045493868856
 20
126.5208712791299064
 30
0.0
 40
0.03058266170877
 50
290.5758882875585982
 51
349.7261774160098753
  0
ARC
  5
12ADD
  8
0
 10
4053.2851526014928822
 20
126.5203912962024049
 30
0.0
 40
0.0278914605698114
 50
349.7261774160082837
 51
46.9708779320894578
  0
ARC
  5
12ADE
  8
0
 10
4053.2812298481771904
 20
126.5161889426624953
 30
0.0
 40
0.0336401794577519
 50
46.9708779320894578
 51
111.9381399135375972
  0
ARC
  5
12ADF
  8
0
 10
4053.2798197513830019
 20
126.5196899326819988
 30
0.0
 40
0.029865884280092
 50
111.9381399135375972
 51
176.2463861921652892
  0
ARC
  5
12AE0
  8
0
 10
4053.7077346697042231
 20
126.9912763240427012
 30
0.0
 40
0.1002033027112655
 50
124.5419305103948062
 51
181.5063052829532921
  0
ARC
  5
12AE1
  8
0
 10
4053.7144284427208731
 20
126.964584694154496
 30
0.0
 40
0.1263517351656761
 50
55.0059141488700334
 51
120.1750940493406006
  0
ARC
  5
12AE2
  8
0
 10
4053.7252122374939063
 20
126.992901052593993
 30
0.0
 40
0.0972525622231571
 50
348.4672101682692187
 51
50.6390776878054183
  0
ARC
  5
12AE3
  8
0
 10
4053.7186696534718067
 20
126.9942360560562946
 30
0.0
 40
0.1039299599148467
 50
286.3214645845666837
 51
348.4672101682692187
  0
ARC
  5
12AE4
  8
0
 10
4053.7155180011641278
 20
127.0049988971597941
 30
0.0
 40
0.1151447564306994
 50
235.0224312196178005
 51
286.3214645845666837
  0
ARC
  5
12AE5
  8
0
 10
4053.7053944735121149
 20
126.9905289475664034
 30
0.0
 40
0.0974850493737464
 50
198.5927093719228935
 51
235.0224312196178005
  0
ARC
  5
12AE6
  8
0
 10
4053.7134397613817782
 20
126.9932353464475057
 30
0.0
 40
0.105973350252981
 50
182.484073162977694
 51
198.5927093719228935
  0
ARC
  5
12AE7
  8
0
 10
4053.7111596155841653
 20
126.9704102284468945
 30
0.0
 40
0.1195560771582622
 50
120.951083824789194
 51
144.8567241156079035
  0
ARC
  5
12AE8
  8
0
 10
4053.699567269517047
 20
126.978570553312295
 30
0.0
 40
0.1053795687990776
 50
144.8567241156079035
 51
180.7810472396618877
  0
ARC
  5
12AE9
  8
0
 10
4053.7094189604931671
 20
126.9787048583653046
 30
0.0
 40
0.1152321752025376
 50
180.7810472396618877
 51
216.9818127922474957
  0
ARC
  5
12AEA
  8
0
 10
4053.7110933843168823
 20
126.9799657940982058
 30
0.0
 40
0.1173282796991973
 50
216.9818127922474957
 51
253.637929378402589
  0
ARC
  5
12AEB
  8
0
 10
4053.7168608820920781
 20
126.9996100735445026
 30
0.0
 40
0.1378017197021016
 50
253.637929378402589
 51
272.7510568763784136
  0
ARC
  5
12AEC
  8
0
 10
4053.7177816575531324
 20
126.9804479836165996
 30
0.0
 40
0.1186175200091823
 50
272.7510568763784136
 51
303.197599834927928
  0
ARC
  5
12AED
  8
0
 10
4053.716800791472906
 20
126.9819470411535036
 30
0.0
 40
0.1204089640541783
 50
303.197599834927928
 51
338.807142733529588
  0
ARC
  5
12AEE
  8
0
 10
4053.7328253534210489
 20
126.9757338213237006
 30
0.0
 40
0.1032220304626262
 50
338.807142733529588
 51
18.8354960175049513
  0
ARC
  5
12AEF
  8
0
 10
4053.7091872924797826
 20
126.9676704240831953
 30
0.0
 40
0.128197544473104
 50
18.8354960175049513
 51
37.4732365337117983
  0
ARC
  5
12AF0
  8
0
 10
4053.7323882450341443
 20
126.9854559289145044
 30
0.0
 40
0.0989638587407726
 50
37.4732365337117983
 51
56.4378119062654804
  0
ARC
  5
12AF1
  8
0
 10
4053.7100358835609768
 20
126.9860559597309049
 30
0.0
 40
0.1112216634211518
 50
155.5582731829861132
 51
195.6610501986158965
  0
ARC
  5
12AF2
  8
0
 10
4053.7055655323110841
 20
126.9848026791019038
 30
0.0
 40
0.1065789537992331
 50
195.6610501986158965
 51
239.0575269514392005
  0
ARC
  5
12AF3
  8
0
 10
4053.7192212252139143
 20
127.0075813424417959
 30
0.0
 40
0.1331372943385255
 50
239.0575269514392005
 51
259.4184630893321923
  0
ARC
  5
12AF4
  8
0
 10
4053.7133385278148126
 20
126.9760913090717054
 30
0.0
 40
0.1011024955981498
 50
259.4184630893321923
 51
272.1792325898640001
  0
ARC
  5
12AF5
  8
0
 10
4053.7121741528339953
 20
127.0066899698358043
 30
0.0
 40
0.131723302407511
 50
272.1792325898640001
 51
297.0879449099014096
  0
ARC
  5
12AF6
  8
0
 10
4053.7234320894008306
 20
126.9846786139173958
 30
0.0
 40
0.1070000153058211
 50
297.0879449099014096
 51
333.7030459464834848
  0
ARC
  5
12AF7
  8
0
 10
4053.7191133685842033
 20
126.9868127730253065
 30
0.0
 40
0.1118172743380207
 50
333.7030459464834848
 51
2.5594129952701419
  0
ARC
  5
12AF8
  8
0
 10
4053.7347501418289539
 20
126.9875117355293952
 30
0.0
 40
0.0961648871056914
 50
2.5594129952701419
 51
22.2854267372891108
  0
ARC
  5
12AF9
  8
0
 10
4053.645287585636197
 20
126.9508470469306047
 30
0.0
 40
0.1928491585800036
 50
22.2854267372891108
 51
24.4383160638130015
  0
ARC
  5
12AFA
  8
0
 10
4053.6835789530477996
 20
127.0547775165044015
 30
0.0
 40
0.0293934443056747
 50
177.1090770527715961
 51
236.8810901364687993
  0
ARC
  5
12AFB
  8
0
 10
4053.6857569941457768
 20
127.0581162156466064
 30
0.0
 40
0.0333797677975816
 50
236.8810901364687993
 51
290.5199771733105081
  0
ARC
  5
12AFC
  8
0
 10
4053.6867095298939603
 20
127.0554861110448002
 30
0.0
 40
0.03058266170877
 50
290.5758882875585982
 51
349.7261774160098753
  0
ARC
  5
12AFD
  8
0
 10
4053.6893575819999569
 20
127.0550061281172987
 30
0.0
 40
0.0278914605698114
 50
349.7261774160082837
 51
46.9708779320894578
  0
ARC
  5
12AFE
  8
0
 10
4053.6854348286851746
 20
127.0508037745773038
 30
0.0
 40
0.0336401794577519
 50
46.9708779320894578
 51
111.9381399135375972
  0
ARC
  5
12AFF
  8
0
 10
4053.684024731889167
 20
127.0543047645967931
 30
0.0
 40
0.029865884280092
 50
111.9381399135375972
 51
176.2463861921652892
  0
ARC
  5
12B00
  8
0
 10
4053.6839401009829089
 20
126.9537430438487036
 30
0.0
 40
0.0293934443056747
 50
177.1090770527715961
 51
236.8810901364687993
  0
ARC
  5
12B01
  8
0
 10
4053.6861181420799767
 20
126.9570817429907947
 30
0.0
 40
0.0333797677975816
 50
236.8810901364687993
 51
290.5199771733105081
  0
ARC
  5
12B02
  8
0
 10
4053.6870706778281601
 20
126.9544516383891022
 30
0.0
 40
0.03058266170877
 50
290.5758882875585982
 51
349.7261774160098753
  0
ARC
  5
12B03
  8
0
 10
4053.6897187299350662
 20
126.9539716554616007
 30
0.0
 40
0.0278914605698114
 50
349.7261774160082837
 51
46.9708779320894578
  0
ARC
  5
12B04
  8
0
 10
4053.6857959766180102
 20
126.9497693019216058
 30
0.0
 40
0.0336401794577519
 50
46.9708779320894578
 51
111.9381399135375972
  0
ARC
  5
12B05
  8
0
 10
4053.6843858798238216
 20
126.9532702919410951
 30
0.0
 40
0.029865884280092
 50
111.9381399135375972
 51
176.2463861921652892
  0
ARC
  5
12B06
  8
0
 10
4053.7727827934882043
 20
127.0035386083600031
 30
0.0
 40
0.0293934443056747
 50
177.1090770527715961
 51
236.8810901364687993
  0
ARC
  5
12B07
  8
0
 10
4053.7749608345848173
 20
127.0068773075020943
 30
0.0
 40
0.0333797677975816
 50
236.8810901364687993
 51
290.5199771733105081
  0
ARC
  5
12B08
  8
0
 10
4053.7759133703330008
 20
127.0042472029004017
 30
0.0
 40
0.03058266170877
 50
290.5758882875585982
 51
349.7261774160098753
  0
ARC
  5
12B09
  8
0
 10
4053.7785614224399069
 20
127.0037672199729002
 30
0.0
 40
0.0278914605698114
 50
349.7261774160082837
 51
46.9708779320894578
  0
ARC
  5
12B0A
  8
0
 10
4053.7746386691242151
 20
126.9995648664329053
 30
0.0
 40
0.0336401794577519
 50
46.9708779320894578
 51
111.9381399135375972
  0
ARC
  5
12B0B
  8
0
 10
4053.773228572329117
 20
127.0030658564523947
 30
0.0
 40
0.029865884280092
 50
111.9381399135375972
 51
176.2463861921652892
  0
ARC
  5
12B0C
  8
0
 10
4054.1530264290931882
 20
126.5772667432317036
 30
0.0
 40
0.1002033027112655
 50
358.4936947170465942
 51
55.4580694896051725
  0
ARC
  5
12B0D
  8
0
 10
4054.1463326560769929
 20
126.5505751133434984
 30
0.0
 40
0.1263517351656761
 50
59.8249059506593923
 51
124.994085851129995
  0
ARC
  5
12B0E
  8
0
 10
4054.1355488613039597
 20
126.5788914717829954
 30
0.0
 40
0.0972525622231571
 50
129.3609223121945035
 51
191.5327898317306961
  0
ARC
  5
12B0F
  8
0
 10
4054.1420914453260593
 20
126.580226475245297
 30
0.0
 40
0.1039299599148467
 50
191.5327898317306961
 51
253.6785354154332879
  0
ARC
  5
12B10
  8
0
 10
4054.1452430976351025
 20
126.5909893163487965
 30
0.0
 40
0.1151447564306994
 50
253.6785354154332879
 51
304.9775687803817164
  0
ARC
  5
12B11
  8
0
 10
4054.1553666252862058
 20
126.5765193667554058
 30
0.0
 40
0.0974850493737464
 50
304.9775687803817164
 51
341.4072906280754864
  0
ARC
  5
12B12
  8
0
 10
4054.1473213374151783
 20
126.5792257656364939
 30
0.0
 40
0.105973350252981
 50
341.4072906280754864
 51
357.5159268370222776
  0
ARC
  5
12B13
  8
0
 10
4054.1496014832127912
 20
126.5564006476359964
 30
0.0
 40
0.1195560771582622
 50
35.1432758843920823
 51
59.0489161752107705
  0
ARC
  5
12B14
  8
0
 10
4054.161193829280819
 20
126.5645609725012974
 30
0.0
 40
0.1053795687990776
 50
359.218952760338027
 51
35.1432758843920823
  0
ARC
  5
12B15
  8
0
 10
4054.1513421383051536
 20
126.564695277554307
 30
0.0
 40
0.1152321752025376
 50
323.0181872077524758
 51
359.218952760338027
  0
ARC
  5
12B16
  8
0
 10
4054.1496677144818932
 20
126.5659562132872935
 30
0.0
 40
0.1173282796991973
 50
286.362070621597411
 51
323.0181872077524758
  0
ARC
  5
12B17
  8
0
 10
4054.1439002167071521
 20
126.585600492733505
 30
0.0
 40
0.1378017197021016
 50
267.2489431236217001
 51
286.362070621597411
  0
ARC
  5
12B18
  8
0
 10
4054.1429794412438241
 20
126.566438402805602
 30
0.0
 40
0.1186175200091823
 50
236.8024001650721004
 51
267.2489431236217001
  0
ARC
  5
12B19
  8
0
 10
4054.1439603073240505
 20
126.5679374603426055
 30
0.0
 40
0.1204089640541783
 50
201.192857266470412
 51
236.8024001650721004
  0
ARC
  5
12B1A
  8
0
 10
4054.1279357453759076
 20
126.561724240512703
 30
0.0
 40
0.1032220304626262
 50
161.1645039824950061
 51
201.192857266470412
  0
ARC
  5
12B1B
  8
0
 10
4054.1515738063180834
 20
126.5536608432721977
 30
0.0
 40
0.128197544473104
 50
142.5267634662882017
 51
161.1645039824950061
  0
ARC
  5
12B1C
  8
0
 10
4054.1283728537628122
 20
126.5714463481035068
 30
0.0
 40
0.0989638587407726
 50
123.5621880937345054
 51
142.5267634662882017
  0
ARC
  5
12B1D
  8
0
 10
4054.1507252152359797
 20
126.5720463789198931
 30
0.0
 40
0.1112216634211518
 50
344.3389498013825119
 51
24.4417268170138584
  0
ARC
  5
12B1E
  8
0
 10
4054.1551955664858724
 20
126.5707930982909062
 30
0.0
 40
0.1065789537992331
 50
300.9424730485608279
 51
344.3389498013825119
  0
ARC
  5
12B1F
  8
0
 10
4054.1415398735839517
 20
126.5935717616307983
 30
0.0
 40
0.1331372943385255
 50
280.5815369106678077
 51
300.9424730485608279
  0
ARC
  5
12B20
  8
0
 10
4054.1474225709830534
 20
126.5620817282606936
 30
0.0
 40
0.1011024955981498
 50
267.8207674101359999
 51
280.5815369106678077
  0
ARC
  5
12B21
  8
0
 10
4054.1485869459638707
 20
126.5926803890248067
 30
0.0
 40
0.131723302407511
 50
242.9120550900987041
 51
267.8207674101359999
  0
ARC
  5
12B22
  8
0
 10
4054.1373290093979449
 20
126.5706690331063982
 30
0.0
 40
0.1070000153058211
 50
206.2969540535158046
 51
242.9120550900987041
  0
ARC
  5
12B23
  8
0
 10
4054.141647730213208
 20
126.5728031922143941
 30
0.0
 40
0.1118172743380207
 50
177.4405870047297924
 51
206.2969540535158046
  0
ARC
  5
12B24
  8
0
 10
4054.1260109569689121
 20
126.5735021547183976
 30
0.0
 40
0.0961648871056914
 50
157.7145732627108998
 51
177.4405870047297924
  0
ARC
  5
12B25
  8
0
 10
4054.2154735131621237
 20
126.5368374661195929
 30
0.0
 40
0.1928491585800036
 50
155.561683936186995
 51
157.7145732627108998
  0
ARC
  5
12B26
  8
0
 10
4054.19912900565987
 20
126.6043973363355946
 30
0.0
 40
0.0293934443056747
 50
303.118909863531087
 51
2.890922947228395
  0
ARC
  5
12B27
  8
0
 10
4054.1969509645628023
 20
126.6077360354777994
 30
0.0
 40
0.0333797677975816
 50
249.4800228266894919
 51
303.118909863531087
  0
ARC
  5
12B28
  8
0
 10
4054.1959984288141641
 20
126.6051059308759932
 30
0.0
 40
0.03058266170877
 50
190.273822583990011
 51
249.424111712441487
  0
ARC
  5
12B29
  8
0
 10
4054.1933503767068032
 20
126.6046259479485059
 30
0.0
 40
0.0278914605698114
 50
133.0291220679104924
 51
190.273822583990011
  0
ARC
  5
12B2A
  8
0
 10
4054.1972731300238593
 20
126.6004235944084968
 30
0.0
 40
0.0336401794577519
 50
68.0618600864624455
 51
133.0291220679104924
  0
ARC
  5
12B2B
  8
0
 10
4054.1986832268189573
 20
126.6039245844280003
 30
0.0
 40
0.029865884280092
 50
3.7536138078346339
 51
68.0618600864624455
  0
ARC
  5
12B2C
  8
0
 10
4054.0970555978110497
 20
126.6043973363355946
 30
0.0
 40
0.0293934443056747
 50
303.118909863531087
 51
2.890922947228395
  0
ARC
  5
12B2D
  8
0
 10
4054.0948775567130724
 20
126.6077360354777994
 30
0.0
 40
0.0333797677975816
 50
249.4800228266894919
 51
303.118909863531087
  0
ARC
  5
12B2E
  8
0
 10
4054.093925020964889
 20
126.6051059308759932
 30
0.0
 40
0.03058266170877
 50
190.273822583990011
 51
249.424111712441487
  0
ARC
  5
12B2F
  8
0
 10
4054.0912769688579829
 20
126.6046259479485059
 30
0.0
 40
0.0278914605698114
 50
133.0291220679104924
 51
190.273822583990011
  0
ARC
  5
12B30
  8
0
 10
4054.0951997221750389
 20
126.6004235944084968
 30
0.0
 40
0.0336401794577519
 50
68.0618600864624455
 51
133.0291220679104924
  0
ARC
  5
12B31
  8
0
 10
4054.0966098189687727
 20
126.6039245844280003
 30
0.0
 40
0.029865884280092
 50
3.7536138078346339
 51
68.0618600864624455
  0
ARC
  5
12B32
  8
0
 10
4054.1479298595600085
 20
126.5201626845894936
 30
0.0
 40
0.0293934443056747
 50
303.118909863531087
 51
2.890922947228395
  0
ARC
  5
12B33
  8
0
 10
4054.1457518184620312
 20
126.5235013837316984
 30
0.0
 40
0.0333797677975816
 50
249.4800228266894919
 51
303.118909863531087
  0
ARC
  5
12B34
  8
0
 10
4054.1447992827138478
 20
126.5208712791299064
 30
0.0
 40
0.03058266170877
 50
190.273822583990011
 51
249.424111712441487
  0
ARC
  5
12B35
  8
0
 10
4054.1421512306078512
 20
126.5203912962024049
 30
0.0
 40
0.0278914605698114
 50
133.0291220679104924
 51
190.273822583990011
  0
ARC
  5
12B36
  8
0
 10
4054.1460739839239977
 20
126.5161889426624953
 30
0.0
 40
0.0336401794577519
 50
68.0618600864624455
 51
133.0291220679104924
  0
ARC
  5
12B37
  8
0
 10
4054.1474840807190958
 20
126.5196899326819988
 30
0.0
 40
0.029865884280092
 50
3.7536138078346339
 51
68.0618600864624455
  0
CIRCLE
  5
12B38
  8
0
 10
4052.8210573697961081
 20
125.903016858361994
 30
0.0
 40
0.0205304792644862
  0
ARC
  5
12B39
  8
0
 10
4052.8213504121699771
 20
125.8989294020593945
 30
0.0
 40
0.0539231983359853
 50
89.809418099895197
 51
140.8410034747134887
  0
ARC
  5
12B3A
  8
0
 10
4052.8163202396840461
 20
125.9030259198110997
 30
0.0
 40
0.0474359729714951
 50
140.8410034747134887
 51
197.6113948932863877
  0
ARC
  5
12B3B
  8
0
 10
4052.8196043874968382
 20
125.9040684317798053
 30
0.0
 40
0.0508816163172491
 50
197.6113948932863877
 51
260.2544862279569884
  0
ARC
  5
12B3C
  8
0
 10
4052.820556523678988
 20
125.909612138645997
 30
0.0
 40
0.0565064940159941
 50
260.2544862279569884
 51
319.3278696965934955
  0
ARC
  5
12B3D
  8
0
 10
4052.8289936429118825
 20
125.9023622084661014
 30
0.0
 40
0.0453823550121126
 50
319.3278696965934955
 51
21.8530125248928684
  0
ARC
  5
12B3E
  8
0
 10
4052.8210416712181541
 20
125.899173109002902
 30
0.0
 40
0.0539499806587942
 50
21.8530125248928684
 51
66.6332104919497823
  0
ARC
  5
12B3F
  8
0
 10
4052.8223212992020308
 20
125.9021348636429991
 30
0.0
 40
0.050723614541077
 50
66.6332104919497823
 51
90.8941161585597257
  0
ARC
  5
12B40
  8
0
 10
4052.8380274893938804
 20
125.9251143887358069
 30
0.0
 40
0.0972815164838136
 50
139.7839921420751921
 51
196.4084227874645876
  0
ARC
  5
12B41
  8
0
 10
4052.8275475342979917
 20
125.9339756575951981
 30
0.0
 40
0.0835573937579416
 50
74.4903225434968732
 51
139.7839921420751921
  0
ARC
  5
12B42
  8
0
 10
4052.8241307135131137
 20
125.9216630759154043
 30
0.0
 40
0.0963352782426742
 50
21.2684604533372514
 51
74.4903225434968732
  0
ARC
  5
12B43
  8
0
 10
4052.8367151743100294
 20
125.9265615734885984
 30
0.0
 40
0.0828310591957271
 50
328.6357032221387158
 51
21.2684604533372514
  0
ARC
  5
12B44
  8
0
 10
4052.8268795854141899
 20
125.9325568332644991
 30
0.0
 40
0.0943498242658056
 50
273.5338924804140106
 51
328.6357032221387158
  0
ARC
  5
12B45
  8
0
 10
4052.8272064298421355
 20
125.9272643537550067
 30
0.0
 40
0.0890472619947315
 50
222.1684652373633071
 51
273.5338924804140106
  0
ARC
  5
12B46
  8
0
 10
4052.8158500786321383
 20
125.9169784269382006
 30
0.0
 40
0.073725153677034
 50
195.2116168102359097
 51
222.1684652373633071
  0
CIRCLE
  5
12B47
  8
0
 10
4052.6191219362158336
 20
126.2386985144050016
 30
0.0
 40
0.0205304792644862
  0
ARC
  5
12B48
  8
0
 10
4052.6194149785901573
 20
126.2346110581024021
 30
0.0
 40
0.0539231983359853
 50
89.809418099895197
 51
140.8410034747134887
  0
ARC
  5
12B49
  8
0
 10
4052.6143848061042263
 20
126.2387075758540931
 30
0.0
 40
0.0474359729714951
 50
140.8410034747134887
 51
197.6113948932863877
  0
ARC
  5
12B4A
  8
0
 10
4052.6176689539170184
 20
126.2397500878226992
 30
0.0
 40
0.0508816163172491
 50
197.6113948932863877
 51
260.2544862279569884
  0
ARC
  5
12B4B
  8
0
 10
4052.6186210901000777
 20
126.2452937946890046
 30
0.0
 40
0.0565064940159941
 50
260.2544862279569884
 51
319.3278696965934955
  0
ARC
  5
12B4C
  8
0
 10
4052.6270582093329722
 20
126.2380438645090948
 30
0.0
 40
0.0453823550121126
 50
319.3278696965934955
 51
21.8530125248928684
  0
ARC
  5
12B4D
  8
0
 10
4052.6191062376378795
 20
126.2348547650458954
 30
0.0
 40
0.0539499806587942
 50
21.8530125248928684
 51
66.6332104919497823
  0
ARC
  5
12B4E
  8
0
 10
4052.620385865622211
 20
126.2378165196860067
 30
0.0
 40
0.050723614541077
 50
66.6332104919497823
 51
90.8941161585597257
  0
ARC
  5
12B4F
  8
0
 10
4052.6360920558140606
 20
126.2607960447788003
 30
0.0
 40
0.0972815164838136
 50
139.7839921420751921
 51
196.4084227874645876
  0
ARC
  5
12B50
  8
0
 10
4052.6256121007190814
 20
126.2696573136381062
 30
0.0
 40
0.0835573937579416
 50
74.4903225434968732
 51
139.7839921420751921
  0
ARC
  5
12B51
  8
0
 10
4052.6221952799328392
 20
126.2573447319582982
 30
0.0
 40
0.0963352782426742
 50
21.2684604533372514
 51
74.4903225434968732
  0
ARC
  5
12B52
  8
0
 10
4052.6347797407311191
 20
126.2622432295315065
 30
0.0
 40
0.0828310591957271
 50
328.6357032221387158
 51
21.2684604533372514
  0
ARC
  5
12B53
  8
0
 10
4052.6249441518330059
 20
126.268238489307393
 30
0.0
 40
0.0943498242658056
 50
273.5338924804140106
 51
328.6357032221387158
  0
ARC
  5
12B54
  8
0
 10
4052.625270996261861
 20
126.2629460097980001
 30
0.0
 40
0.0890472619947315
 50
222.1684652373633071
 51
273.5338924804140106
  0
ARC
  5
12B55
  8
0
 10
4052.6139146450518638
 20
126.252660082981194
 30
0.0
 40
0.073725153677034
 50
195.2116168102359097
 51
222.1684652373633071
  0
CIRCLE
  5
12B56
  8
0
 10
4052.6170446074747815
 20
126.9972371607569954
 30
0.0
 40
0.0205304792644862
  0
ARC
  5
12B57
  8
0
 10
4052.6173376498491052
 20
126.993149704454396
 30
0.0
 40
0.0539231983359853
 50
89.809418099895197
 51
140.8410034747134887
  0
ARC
  5
12B58
  8
0
 10
4052.6123074773631743
 20
126.9972462222061012
 30
0.0
 40
0.0474359729714951
 50
140.8410034747134887
 51
197.6113948932863877
  0
ARC
  5
12B59
  8
0
 10
4052.6155916251759663
 20
126.9982887341748068
 30
0.0
 40
0.0508816163172491
 50
197.6113948932863877
 51
260.2544862279569884
  0
ARC
  5
12B5A
  8
0
 10
4052.6165437613581162
 20
127.0038324410409984
 30
0.0
 40
0.0565064940159941
 50
260.2544862279569884
 51
319.3278696965934955
  0
ARC
  5
12B5B
  8
0
 10
4052.6249808805910106
 20
126.9965825108611028
 30
0.0
 40
0.0453823550121126
 50
319.3278696965934955
 51
21.8530125248928684
  0
ARC
  5
12B5C
  8
0
 10
4052.6170289088968275
 20
126.9933934113979035
 30
0.0
 40
0.0539499806587942
 50
21.8530125248928684
 51
66.6332104919497823
  0
ARC
  5
12B5D
  8
0
 10
4052.6183085368811589
 20
126.9963551660380006
 30
0.0
 40
0.050723614541077
 50
66.6332104919497823
 51
90.8941161585597257
  0
ARC
  5
12B5E
  8
0
 10
4052.6340147270730085
 20
127.0193346911307941
 30
0.0
 40
0.0972815164838136
 50
139.7839921420751921
 51
196.4084227874645876
  0
ARC
  5
12B5F
  8
0
 10
4052.6235347719771198
 20
127.0281959599901995
 30
0.0
 40
0.0835573937579416
 50
74.4903225434968732
 51
139.7839921420751921
  0
ARC
  5
12B60
  8
0
 10
4052.6201179511917871
 20
127.0158833783104058
 30
0.0
 40
0.0963352782426742
 50
21.2684604533372514
 51
74.4903225434968732
  0
ARC
  5
12B61
  8
0
 10
4052.6327024119891576
 20
127.0207818758835998
 30
0.0
 40
0.0828310591957271
 50
328.6357032221387158
 51
21.2684604533372514
  0
ARC
  5
12B62
  8
0
 10
4052.6228668230919538
 20
127.0267771356595006
 30
0.0
 40
0.0943498242658056
 50
273.5338924804140106
 51
328.6357032221387158
  0
ARC
  5
12B63
  8
0
 10
4052.623193667520809
 20
127.021484656149994
 30
0.0
 40
0.0890472619947315
 50
222.1684652373633071
 51
273.5338924804140106
  0
ARC
  5
12B64
  8
0
 10
4052.6118373163108117
 20
127.0111987293333016
 30
0.0
 40
0.073725153677034
 50
195.2116168102359097
 51
222.1684652373633071
  0
CIRCLE
  5
12B65
  8
0
 10
4052.8167344867079009
 20
127.3322442018321965
 30
0.0
 40
0.0205304792644862
  0
ARC
  5
12B66
  8
0
 10
4052.8170275290822246
 20
127.3281567455294976
 30
0.0
 40
0.0539231983359853
 50
89.809418099895197
 51
140.8410034747134887
  0
ARC
  5
12B67
  8
0
 10
4052.8119973565949294
 20
127.3322532632812027
 30
0.0
 40
0.0474359729714951
 50
140.8410034747134887
 51
197.6113948932863877
  0
ARC
  5
12B68
  8
0
 10
4052.8152815044090858
 20
127.3332957752499937
 30
0.0
 40
0.0508816163172491
 50
197.6113948932863877
 51
260.2544862279569884
  0
ARC
  5
12B69
  8
0
 10
4052.8162336405898714
 20
127.3388394821161
 30
0.0
 40
0.0565064940159941
 50
260.2544862279569884
 51
319.3278696965934955
  0
ARC
  5
12B6A
  8
0
 10
4052.8246707598241301
 20
127.3315895519363039
 30
0.0
 40
0.0453823550121126
 50
319.3278696965934955
 51
21.8530125248928684
  0
ARC
  5
12B6B
  8
0
 10
4052.8167187881290374
 20
127.3284004524731046
 30
0.0
 40
0.0539499806587942
 50
21.8530125248928684
 51
66.6332104919497823
  0
ARC
  5
12B6C
  8
0
 10
4052.8179984161129141
 20
127.3313622071131022
 30
0.0
 40
0.050723614541077
 50
66.6332104919497823
 51
90.8941161585597257
  0
ARC
  5
12B6D
  8
0
 10
4052.833704606306128
 20
127.3543417322059952
 30
0.0
 40
0.0972815164838136
 50
139.7839921420751921
 51
196.4084227874645876
  0
ARC
  5
12B6E
  8
0
 10
4052.8232246512097845
 20
127.3632030010653011
 30
0.0
 40
0.0835573937579416
 50
74.4903225434968732
 51
139.7839921420751921
  0
ARC
  5
12B6F
  8
0
 10
4052.8198078304239971
 20
127.3508904193854931
 30
0.0
 40
0.0963352782426742
 50
21.2684604533372514
 51
74.4903225434968732
  0
ARC
  5
12B70
  8
0
 10
4052.8323922912231865
 20
127.3557889169587014
 30
0.0
 40
0.0828310591957271
 50
328.6357032221387158
 51
21.2684604533372514
  0
ARC
  5
12B71
  8
0
 10
4052.8225567023250733
 20
127.3617841767346022
 30
0.0
 40
0.0943498242658056
 50
273.5338924804140106
 51
328.6357032221387158
  0
ARC
  5
12B72
  8
0
 10
4052.8228835467530189
 20
127.3564916972250955
 30
0.0
 40
0.0890472619947315
 50
222.1684652373633071
 51
273.5338924804140106
  0
ARC
  5
12B73
  8
0
 10
4052.8115271955430217
 20
127.3462057704084032
 30
0.0
 40
0.073725153677034
 50
195.2116168102359097
 51
222.1684652373633071
  0
CIRCLE
  5
12B74
  8
0
 10
4053.5123923527207808
 20
127.7105520240236984
 30
0.0
 40
0.0205304792644862
  0
ARC
  5
12B75
  8
0
 10
4053.512685395094195
 20
127.706464567721099
 30
0.0
 40
0.0539231983359853
 50
89.809418099895197
 51
140.8410034747134887
  0
ARC
  5
12B76
  8
0
 10
4053.5076552226091735
 20
127.7105610854727047
 30
0.0
 40
0.0474359729714951
 50
140.8410034747134887
 51
197.6113948932863877
  0
ARC
  5
12B77
  8
0
 10
4053.5109393704210561
 20
127.7116035974413961
 30
0.0
 40
0.0508816163172491
 50
197.6113948932863877
 51
260.2544862279569884
  0
ARC
  5
12B78
  8
0
 10
4053.5118915066032059
 20
127.717147304307602
 30
0.0
 40
0.0565064940159941
 50
260.2544862279569884
 51
319.3278696965934955
  0
ARC
  5
12B79
  8
0
 10
4053.5203286258370099
 20
127.7098973741278058
 30
0.0
 40
0.0453823550121126
 50
319.3278696965934955
 51
21.8530125248928684
  0
ARC
  5
12B7A
  8
0
 10
4053.5123766541419172
 20
127.7067082746646065
 30
0.0
 40
0.0539499806587942
 50
21.8530125248928684
 51
66.6332104919497823
  0
ARC
  5
12B7B
  8
0
 10
4053.5136562821271582
 20
127.7096700293046041
 30
0.0
 40
0.050723614541077
 50
66.6332104919497823
 51
90.8941161585597257
  0
ARC
  5
12B7C
  8
0
 10
4053.5293624723180983
 20
127.7326495543974971
 30
0.0
 40
0.0972815164838136
 50
139.7839921420751921
 51
196.4084227874645876
  0
ARC
  5
12B7D
  8
0
 10
4053.5188825172231191
 20
127.7415108232568031
 30
0.0
 40
0.0835573937579416
 50
74.4903225434968732
 51
139.7839921420751921
  0
ARC
  5
12B7E
  8
0
 10
4053.5154656964368769
 20
127.7291982415769951
 30
0.0
 40
0.0963352782426742
 50
21.2684604533372514
 51
74.4903225434968732
  0
ARC
  5
12B7F
  8
0
 10
4053.5280501572351568
 20
127.7340967391502033
 30
0.0
 40
0.0828310591957271
 50
328.6357032221387158
 51
21.2684604533372514
  0
ARC
  5
12B80
  8
0
 10
4053.5182145683379531
 20
127.7400919989261041
 30
0.0
 40
0.0943498242658056
 50
273.5338924804140106
 51
328.6357032221387158
  0
ARC
  5
12B81
  8
0
 10
4053.5185414127658987
 20
127.7347995194165975
 30
0.0
 40
0.0890472619947315
 50
222.1684652373633071
 51
273.5338924804140106
  0
ARC
  5
12B82
  8
0
 10
4053.5071850615559015
 20
127.7245135925999051
 30
0.0
 40
0.073725153677034
 50
195.2116168102359097
 51
222.1684652373633071
  0
CIRCLE
  5
12B83
  8
0
 10
4053.9198476479491546
 20
125.5243268920080055
 30
0.0
 40
0.0205304792644862
  0
ARC
  5
12B84
  8
0
 10
4053.9201406903221141
 20
125.5202394357054061
 30
0.0
 40
0.0539231983359853
 50
89.809418099895197
 51
140.8410034747134887
  0
ARC
  5
12B85
  8
0
 10
4053.9151105178370926
 20
125.5243359534569976
 30
0.0
 40
0.0474359729714951
 50
140.8410034747134887
 51
197.6113948932863877
  0
ARC
  5
12B86
  8
0
 10
4053.9183946656498847
 20
125.5253784654257032
 30
0.0
 40
0.0508816163172491
 50
197.6113948932863877
 51
260.2544862279569884
  0
ARC
  5
12B87
  8
0
 10
4053.919346801831125
 20
125.5309221722918949
 30
0.0
 40
0.0565064940159941
 50
260.2544862279569884
 51
319.3278696965934955
  0
ARC
  5
12B88
  8
0
 10
4053.9277839210640195
 20
125.5236722421120987
 30
0.0
 40
0.0453823550121126
 50
319.3278696965934955
 51
21.8530125248928684
  0
ARC
  5
12B89
  8
0
 10
4053.9198319493712006
 20
125.5204831426488994
 30
0.0
 40
0.0539499806587942
 50
21.8530125248928684
 51
66.6332104919497823
  0
ARC
  5
12B8A
  8
0
 10
4053.9211115773541678
 20
125.523444897288897
 30
0.0
 40
0.050723614541077
 50
66.6332104919497823
 51
90.8941161585597257
  0
ARC
  5
12B8B
  8
0
 10
4053.9368177675460174
 20
125.5464244223818042
 30
0.0
 40
0.0972815164838136
 50
139.7839921420751921
 51
196.4084227874645876
  0
ARC
  5
12B8C
  8
0
 10
4053.9263378124510382
 20
125.5552856912410959
 30
0.0
 40
0.0835573937579416
 50
74.4903225434968732
 51
139.7839921420751921
  0
ARC
  5
12B8D
  8
0
 10
4053.9229209916661603
 20
125.5429731095613022
 30
0.0
 40
0.0963352782426742
 50
21.2684604533372514
 51
74.4903225434968732
  0
ARC
  5
12B8E
  8
0
 10
4053.9355054524630759
 20
125.5478716071344962
 30
0.0
 40
0.0828310591957271
 50
328.6357032221387158
 51
21.2684604533372514
  0
ARC
  5
12B8F
  8
0
 10
4053.9256698635649627
 20
125.553866866910397
 30
0.0
 40
0.0943498242658056
 50
273.5338924804140106
 51
328.6357032221387158
  0
ARC
  5
12B90
  8
0
 10
4053.9259967079938178
 20
125.5485743874009046
 30
0.0
 40
0.0890472619947315
 50
222.1684652373633071
 51
273.5338924804140106
  0
ARC
  5
12B91
  8
0
 10
4053.9146403567838206
 20
125.538288460584198
 30
0.0
 40
0.073725153677034
 50
195.2116168102359097
 51
222.1684652373633071
  0
CIRCLE
  5
12B92
  8
0
 10
4053.5118928776569192
 20
125.5232595071374959
 30
0.0
 40
0.0205304792644862
  0
ARC
  5
12B93
  8
0
 10
4053.5121859200298786
 20
125.5191720508348965
 30
0.0
 40
0.0539231983359853
 50
89.809418099895197
 51
140.8410034747134887
  0
ARC
  5
12B94
  8
0
 10
4053.5071557475448571
 20
125.5232685685866016
 30
0.0
 40
0.0474359729714951
 50
140.8410034747134887
 51
197.6113948932863877
  0
ARC
  5
12B95
  8
0
 10
4053.510439895358104
 20
125.5243110805552931
 30
0.0
 40
0.0508816163172491
 50
197.6113948932863877
 51
260.2544862279569884
  0
ARC
  5
12B96
  8
0
 10
4053.5113920315388896
 20
125.5298547874214989
 30
0.0
 40
0.0565064940159941
 50
260.2544862279569884
 51
319.3278696965934955
  0
ARC
  5
12B97
  8
0
 10
4053.5198291507731483
 20
125.5226048572416033
 30
0.0
 40
0.0453823550121126
 50
319.3278696965934955
 51
21.8530125248928684
  0
ARC
  5
12B98
  8
0
 10
4053.5118771790789651
 20
125.5194157577785035
 30
0.0
 40
0.0539499806587942
 50
21.8530125248928684
 51
66.6332104919497823
  0
ARC
  5
12B99
  8
0
 10
4053.5131568070628418
 20
125.5223775124185011
 30
0.0
 40
0.050723614541077
 50
66.6332104919497823
 51
90.8941161585597257
  0
ARC
  5
12B9A
  8
0
 10
4053.5288629972551462
 20
125.5453570375112946
 30
0.0
 40
0.0972815164838136
 50
139.7839921420751921
 51
196.4084227874645876
  0
ARC
  5
12B9B
  8
0
 10
4053.5183830421588027
 20
125.5542183063707
 30
0.0
 40
0.0835573937579416
 50
74.4903225434968732
 51
139.7839921420751921
  0
ARC
  5
12B9C
  8
0
 10
4053.5149662213730153
 20
125.5419057246909063
 30
0.0
 40
0.0963352782426742
 50
21.2684604533372514
 51
74.4903225434968732
  0
ARC
  5
12B9D
  8
0
 10
4053.5275506821708404
 20
125.5468042222641003
 30
0.0
 40
0.0828310591957271
 50
328.6357032221387158
 51
21.2684604533372514
  0
ARC
  5
12B9E
  8
0
 10
4053.5177150932740915
 20
125.5527994820400011
 30
0.0
 40
0.0943498242658056
 50
273.5338924804140106
 51
328.6357032221387158
  0
ARC
  5
12B9F
  8
0
 10
4053.5180419377020371
 20
125.5475070025304944
 30
0.0
 40
0.0890472619947315
 50
222.1684652373633071
 51
273.5338924804140106
  0
ARC
  5
12BA0
  8
0
 10
4053.5066855864920399
 20
125.5372210757138021
 30
0.0
 40
0.073725153677034
 50
195.2116168102359097
 51
222.1684652373633071
  0
CIRCLE
  5
12BA1
  8
0
 10
4054.6144637966131086
 20
125.903019876359096
 30
0.0
 40
0.0205304792644862
  0
ARC
  5
12BA2
  8
0
 10
4054.614756838986068
 20
125.8989324200563971
 30
0.0
 40
0.0539231983359853
 50
89.809418099895197
 51
140.8410034747134887
  0
ARC
  5
12BA3
  8
0
 10
4054.6097266665010466
 20
125.9030289378081022
 30
0.0
 40
0.0474359729714951
 50
140.8410034747134887
 51
197.6113948932863877
  0
ARC
  5
12BA4
  8
0
 10
4054.6130108143138386
 20
125.9040714497767937
 30
0.0
 40
0.0508816163172491
 50
197.6113948932863877
 51
260.2544862279569884
  0
ARC
  5
12BA5
  8
0
 10
4054.6139629504959885
 20
125.9096151566429995
 30
0.0
 40
0.0565064940159941
 50
260.2544862279569884
 51
319.3278696965934955
  0
ARC
  5
12BA6
  8
0
 10
4054.6224000697297924
 20
125.9023652264632034
 30
0.0
 40
0.0453823550121126
 50
319.3278696965934955
 51
21.8530125248928684
  0
ARC
  5
12BA7
  8
0
 10
4054.6144480980351545
 20
125.899176127000004
 30
0.0
 40
0.0539499806587942
 50
21.8530125248928684
 51
66.6332104919497823
  0
ARC
  5
12BA8
  8
0
 10
4054.6157277260190313
 20
125.9021378816400016
 30
0.0
 40
0.050723614541077
 50
66.6332104919497823
 51
90.8941161585597257
  0
ARC
  5
12BA9
  8
0
 10
4054.6314339162108809
 20
125.9251174067328947
 30
0.0
 40
0.0972815164838136
 50
139.7839921420751921
 51
196.4084227874645876
  0
ARC
  5
12BAA
  8
0
 10
4054.6209539611159016
 20
125.9339786755922006
 30
0.0
 40
0.0835573937579416
 50
74.4903225434968732
 51
139.7839921420751921
  0
ARC
  5
12BAB
  8
0
 10
4054.6175371403292047
 20
125.9216660939124068
 30
0.0
 40
0.0963352782426742
 50
21.2684604533372514
 51
74.4903225434968732
  0
ARC
  5
12BAC
  8
0
 10
4054.6301216011279394
 20
125.9265645914856009
 30
0.0
 40
0.0828310591957271
 50
328.6357032221387158
 51
21.2684604533372514
  0
ARC
  5
12BAD
  8
0
 10
4054.6202860122298262
 20
125.9325598512615016
 30
0.0
 40
0.0943498242658056
 50
273.5338924804140106
 51
328.6357032221387158
  0
ARC
  5
12BAE
  8
0
 10
4054.620612856659136
 20
125.927267371751995
 30
0.0
 40
0.0890472619947315
 50
222.1684652373633071
 51
273.5338924804140106
  0
ARC
  5
12BAF
  8
0
 10
4054.6092565054491388
 20
125.9169814449353026
 30
0.0
 40
0.073725153677034
 50
195.2116168102359097
 51
222.1684652373633071
  0
CIRCLE
  5
12BB0
  8
0
 10
4054.8133490053878631
 20
126.2362125992156052
 30
0.0
 40
0.0205304792644862
  0
ARC
  5
12BB1
  8
0
 10
4054.8136420477599131
 20
126.2321251429130058
 30
0.0
 40
0.0539231983359853
 50
89.809418099895197
 51
140.8410034747134887
  0
ARC
  5
12BB2
  8
0
 10
4054.8086118752748916
 20
126.2362216606646967
 30
0.0
 40
0.0474359729714951
 50
140.8410034747134887
 51
197.6113948932863877
  0
ARC
  5
12BB3
  8
0
 10
4054.8118960230881385
 20
126.2372641726334024
 30
0.0
 40
0.0508816163172491
 50
197.6113948932863877
 51
260.2544862279569884
  0
ARC
  5
12BB4
  8
0
 10
4054.8128481592698336
 20
126.242807879499594
 30
0.0
 40
0.0565064940159941
 50
260.2544862279569884
 51
319.3278696965934955
  0
ARC
  5
12BB5
  8
0
 10
4054.8212852785031828
 20
126.2355579493196984
 30
0.0
 40
0.0453823550121126
 50
319.3278696965934955
 51
21.8530125248928684
  0
ARC
  5
12BB6
  8
0
 10
4054.8133333068089996
 20
126.2323688498564991
 30
0.0
 40
0.0539499806587942
 50
21.8530125248928684
 51
66.6332104919497823
  0
ARC
  5
12BB7
  8
0
 10
4054.8146129347928763
 20
126.2353306044965962
 30
0.0
 40
0.050723614541077
 50
66.6332104919497823
 51
90.8941161585597257
  0
ARC
  5
12BB8
  8
0
 10
4054.8303191249851807
 20
126.2583101295894039
 30
0.0
 40
0.0972815164838136
 50
139.7839921420751921
 51
196.4084227874645876
  0
ARC
  5
12BB9
  8
0
 10
4054.8198391698902014
 20
126.2671713984486956
 30
0.0
 40
0.0835573937579416
 50
74.4903225434968732
 51
139.7839921420751921
  0
ARC
  5
12BBA
  8
0
 10
4054.8164223491030498
 20
126.2548588167690014
 30
0.0
 40
0.0963352782426742
 50
21.2684604533372514
 51
74.4903225434968732
  0
ARC
  5
12BBB
  8
0
 10
4054.8290068099017844
 20
126.2597573143421954
 30
0.0
 40
0.0828310591957271
 50
328.6357032221387158
 51
21.2684604533372514
  0
ARC
  5
12BBC
  8
0
 10
4054.819171221004126
 20
126.2657525741180962
 30
0.0
 40
0.0943498242658056
 50
273.5338924804140106
 51
328.6357032221387158
  0
ARC
  5
12BBD
  8
0
 10
4054.8194980654329811
 20
126.2604600946086038
 30
0.0
 40
0.0890472619947315
 50
222.1684652373633071
 51
273.5338924804140106
  0
ARC
  5
12BBE
  8
0
 10
4054.8081417142220744
 20
126.2501741677917977
 30
0.0
 40
0.073725153677034
 50
195.2116168102359097
 51
222.1684652373633071
  0
CIRCLE
  5
12BBF
  8
0
 10
4054.8122684898971784
 20
126.9974367310398975
 30
0.0
 40
0.0205304792644862
  0
ARC
  5
12BC0
  8
0
 10
4054.8125615322719568
 20
126.9933492747372981
 30
0.0
 40
0.0539231983359853
 50
89.809418099895197
 51
140.8410034747134887
  0
ARC
  5
12BC1
  8
0
 10
4054.8075313597842069
 20
126.9974457924889037
 30
0.0
 40
0.0474359729714951
 50
140.8410034747134887
 51
197.6113948932863877
  0
ARC
  5
12BC2
  8
0
 10
4054.8108155075988179
 20
126.9984883044575952
 30
0.0
 40
0.0508816163172491
 50
197.6113948932863877
 51
260.2544862279569884
  0
ARC
  5
12BC3
  8
0
 10
4054.8117676437800583
 20
127.004032011323801
 30
0.0
 40
0.0565064940159941
 50
260.2544862279569884
 51
319.3278696965934955
  0
ARC
  5
12BC4
  8
0
 10
4054.8202047630129528
 20
126.9967820811439054
 30
0.0
 40
0.0453823550121126
 50
319.3278696965934955
 51
21.8530125248928684
  0
ARC
  5
12BC5
  8
0
 10
4054.8122527913178601
 20
126.9935929816808056
 30
0.0
 40
0.0539499806587942
 50
21.8530125248928684
 51
66.6332104919497823
  0
ARC
  5
12BC6
  8
0
 10
4054.8135324193031011
 20
126.9965547363208032
 30
0.0
 40
0.050723614541077
 50
66.6332104919497823
 51
90.8941161585597257
  0
ARC
  5
12BC7
  8
0
 10
4054.8292386094949507
 20
127.0195342614136962
 30
0.0
 40
0.0972815164838136
 50
139.7839921420751921
 51
196.4084227874645876
  0
ARC
  5
12BC8
  8
0
 10
4054.8187586543999714
 20
127.0283955302730021
 30
0.0
 40
0.0835573937579416
 50
74.4903225434968732
 51
139.7839921420751921
  0
ARC
  5
12BC9
  8
0
 10
4054.8153418336128198
 20
127.0160829485931941
 30
0.0
 40
0.0963352782426742
 50
21.2684604533372514
 51
74.4903225434968732
  0
ARC
  5
12BCA
  8
0
 10
4054.8279262944129187
 20
127.0209814461664024
 30
0.0
 40
0.0828310591957271
 50
328.6357032221387158
 51
21.2684604533372514
  0
ARC
  5
12BCB
  8
0
 10
4054.8180907055161697
 20
127.0269767059423032
 30
0.0
 40
0.0943498242658056
 50
273.5338924804140106
 51
328.6357032221387158
  0
ARC
  5
12BCC
  8
0
 10
4054.8184175499432058
 20
127.0216842264327965
 30
0.0
 40
0.0890472619947315
 50
222.1684652373633071
 51
273.5338924804140106
  0
ARC
  5
12BCD
  8
0
 10
4054.8070611987318443
 20
127.0113982996161042
 30
0.0
 40
0.073725153677034
 50
195.2116168102359097
 51
222.1684652373633071
  0
CIRCLE
  5
12BCE
  8
0
 10
4054.6112323172051219
 20
127.3282121458475018
 30
0.0
 40
0.0205304792644862
  0
ARC
  5
12BCF
  8
0
 10
4054.6115253595789909
 20
127.3241246895449024
 30
0.0
 40
0.0539231983359853
 50
89.809418099895197
 51
140.8410034747134887
  0
ARC
  5
12BD0
  8
0
 10
4054.6064951870930599
 20
127.3282212072964938
 30
0.0
 40
0.0474359729714951
 50
140.8410034747134887
 51
197.6113948932863877
  0
ARC
  5
12BD1
  8
0
 10
4054.609779334905852
 20
127.3292637192651995
 30
0.0
 40
0.0508816163172491
 50
197.6113948932863877
 51
260.2544862279569884
  0
ARC
  5
12BD2
  8
0
 10
4054.6107314710880019
 20
127.3348074261314054
 30
0.0
 40
0.0565064940159941
 50
260.2544862279569884
 51
319.3278696965934955
  0
ARC
  5
12BD3
  8
0
 10
4054.6191685903208963
 20
127.327557495951595
 30
0.0
 40
0.0453823550121126
 50
319.3278696965934955
 51
21.8530125248928684
  0
ARC
  5
12BD4
  8
0
 10
4054.6112166186271679
 20
127.3243683964882962
 30
0.0
 40
0.0539499806587942
 50
21.8530125248928684
 51
66.6332104919497823
  0
ARC
  5
12BD5
  8
0
 10
4054.6124962466110446
 20
127.3273301511283933
 30
0.0
 40
0.050723614541077
 50
66.6332104919497823
 51
90.8941161585597257
  0
ARC
  5
12BD6
  8
0
 10
4054.6282024368028942
 20
127.3503096762213005
 30
0.0
 40
0.0972815164838136
 50
139.7839921420751921
 51
196.4084227874645876
  0
ARC
  5
12BD7
  8
0
 10
4054.6177224817070055
 20
127.3591709450806064
 30
0.0
 40
0.0835573937579416
 50
74.4903225434968732
 51
139.7839921420751921
  0
ARC
  5
12BD8
  8
0
 10
4054.6143056609221276
 20
127.3468583634007985
 30
0.0
 40
0.0963352782426742
 50
21.2684604533372514
 51
74.4903225434968732
  0
ARC
  5
12BD9
  8
0
 10
4054.6268901217199527
 20
127.3517568609740067
 30
0.0
 40
0.0828310591957271
 50
328.6357032221387158
 51
21.2684604533372514
  0
ARC
  5
12BDA
  8
0
 10
4054.6170545328232038
 20
127.3577521207498933
 30
0.0
 40
0.0943498242658056
 50
273.5338924804140106
 51
328.6357032221387158
  0
ARC
  5
12BDB
  8
0
 10
4054.6173813772511494
 20
127.3524596412404009
 30
0.0
 40
0.0890472619947315
 50
222.1684652373633071
 51
273.5338924804140106
  0
ARC
  5
12BDC
  8
0
 10
4054.6060250260411522
 20
127.3421737144236943
 30
0.0
 40
0.073725153677034
 50
195.2116168102359097
 51
222.1684652373633071
  0
CIRCLE
  5
12BDD
  8
0
 10
4053.9185495667870782
 20
127.7116358853649984
 30
0.0
 40
0.0205304792644862
  0
ARC
  5
12BDE
  8
0
 10
4053.9188426091618567
 20
127.707548429062399
 30
0.0
 40
0.0539231983359853
 50
89.809418099895197
 51
140.8410034747134887
  0
ARC
  5
12BDF
  8
0
 10
4053.9138124366750162
 20
127.7116449468141042
 30
0.0
 40
0.0474359729714951
 50
140.8410034747134887
 51
197.6113948932863877
  0
ARC
  5
12BE0
  8
0
 10
4053.9170965844891725
 20
127.7126874587827956
 30
0.0
 40
0.0508816163172491
 50
197.6113948932863877
 51
260.2544862279569884
  0
ARC
  5
12BE1
  8
0
 10
4053.9180487206699581
 20
127.7182311656490015
 30
0.0
 40
0.0565064940159941
 50
260.2544862279569884
 51
319.3278696965934955
  0
ARC
  5
12BE2
  8
0
 10
4053.9264858399042168
 20
127.7109812354691059
 30
0.0
 40
0.0453823550121126
 50
319.3278696965934955
 51
21.8530125248928684
  0
ARC
  5
12BE3
  8
0
 10
4053.9185338682091242
 20
127.7077921360059065
 30
0.0
 40
0.0539499806587942
 50
21.8530125248928684
 51
66.6332104919497823
  0
ARC
  5
12BE4
  8
0
 10
4053.9198134961930009
 20
127.7107538906460036
 30
0.0
 40
0.050723614541077
 50
66.6332104919497823
 51
90.8941161585597257
  0
ARC
  5
12BE5
  8
0
 10
4053.9355196863848505
 20
127.7337334157387971
 30
0.0
 40
0.0972815164838136
 50
139.7839921420751921
 51
196.4084227874645876
  0
ARC
  5
12BE6
  8
0
 10
4053.9250397312898713
 20
127.7425946845982025
 30
0.0
 40
0.0835573937579416
 50
74.4903225434968732
 51
139.7839921420751921
  0
ARC
  5
12BE7
  8
0
 10
4053.9216229105040838
 20
127.7302821029183946
 30
0.0
 40
0.0963352782426742
 50
21.2684604533372514
 51
74.4903225434968732
  0
ARC
  5
12BE8
  8
0
 10
4053.9342073713028185
 20
127.7351806004915034
 30
0.0
 40
0.0828310591957271
 50
328.6357032221387158
 51
21.2684604533372514
  0
ARC
  5
12BE9
  8
0
 10
4053.9243717824060695
 20
127.7411758602675036
 30
0.0
 40
0.0943498242658056
 50
273.5338924804140106
 51
328.6357032221387158
  0
ARC
  5
12BEA
  8
0
 10
4053.9246986268340152
 20
127.735883380757997
 30
0.0
 40
0.0890472619947315
 50
222.1684652373633071
 51
273.5338924804140106
  0
ARC
  5
12BEB
  8
0
 10
4053.9133422756231084
 20
127.7255974539412051
 30
0.0
 40
0.073725153677034
 50
195.2116168102359097
 51
222.1684652373633071
  0
ARC
  5
12BEC
  8
0
 10
4053.4138647693939674
 20
128.5385572059983872
 30
0.0
 40
0.0205254987755425
 50
95.1802509417619262
 51
198.4656917578070079
  0
ARC
  5
12BED
  8
0
 10
4053.4141178326681256
 20
128.5357658493689996
 30
0.0
 40
0.0233283032376547
 50
16.1825436951305797
 51
95.1802509417619262
  0
ARC
  5
12BEE
  8
0
 10
4053.4196034953301933
 20
128.5373577694738003
 30
0.0
 40
0.0176163242059638
 50
299.6496699581381904
 51
16.1825436951274604
  0
ARC
  5
12BEF
  8
0
 10
4053.4151853257740186
 20
128.5400276750465025
 30
0.0
 40
0.0222652392835257
 50
200.9793303175044059
 51
306.1455154983657962
  0
ARC
  5
12BF0
  8
0
 10
4053.4099602958199284
 20
128.5398480108987087
 30
0.0
 40
0.0542207425891386
 50
137.4293591885137005
 51
209.4768689281071943
  0
ARC
  5
12BF1
  8
0
 10
4053.4150827385751654
 20
128.5351425253134039
 30
0.0
 40
0.0611763888112017
 50
40.6956337502769685
 51
137.4293591885137005
  0
ARC
  5
12BF2
  8
0
 10
4053.4203582445570646
 20
128.5396794769104076
 30
0.0
 40
0.0542183076698685
 50
308.8075088532232826
 51
40.6956337502769685
  0
ARC
  5
12BF3
  8
0
 10
4053.4154952296930787
 20
128.545726224640589
 30
0.0
 40
0.06197795145601
 50
211.6903023509399873
 51
308.8075088532228278
  0
ARC
  5
12BF4
  8
0
 10
4053.4169805239280322
 20
128.5369613280331862
 30
0.0
 40
0.1347312038520274
 50
61.837941763104098
 51
148.5609699788778926
  0
ARC
  5
12BF5
  8
0
 10
4053.424121670203931
 20
128.5503007128133959
 30
0.0
 40
0.1196006005446139
 50
358.5027518535500235
 51
61.837941763104098
  0
ARC
  5
12BF6
  8
0
 10
4053.4465118697598882
 20
128.5497154809166886
 30
0.0
 40
0.097202753939292
 50
289.0336043742692027
 51
358.502751853548375
  0
ARC
  5
12BF7
  8
0
 10
4053.4158719161578119
 20
128.579183060685807
 30
0.0
 40
0.136431499735677
 50
215.3826183276970028
 51
297.189337739912105
  0
ARC
  5
12BF8
  8
0
 10
4053.3911113272888542
 20
128.5558506714224904
 30
0.0
 40
0.1028406664190445
 50
150.0225778082156012
 51
212.7711300227155107
  0
ARC
  5
12BF9
  8
0
 10
4052.8389105205578744
 20
128.3789972170254998
 30
0.0
 40
0.0205254987755425
 50
95.1802509417619262
 51
198.4656917578070079
  0
ARC
  5
12BFA
  8
0
 10
4052.8391635838320326
 20
128.3762058603961123
 30
0.0
 40
0.0233283032376547
 50
16.1825436951305797
 51
95.1802509417619262
  0
ARC
  5
12BFB
  8
0
 10
4052.8446492464941002
 20
128.3777977805009129
 30
0.0
 40
0.0176163242059638
 50
299.6496699581381904
 51
16.1825436951274604
  0
ARC
  5
12BFC
  8
0
 10
4052.8402310769379255
 20
128.3804676860735867
 30
0.0
 40
0.0222652392835257
 50
200.9793303175044059
 51
306.1455154983657962
  0
ARC
  5
12BFD
  8
0
 10
4052.8350060469851996
 20
128.3802880219257929
 30
0.0
 40
0.0542207425891386
 50
137.4293591885137005
 51
209.4768689281071943
  0
ARC
  5
12BFE
  8
0
 10
4052.8401284897399819
 20
128.3755825363406018
 30
0.0
 40
0.0611763888112017
 50
40.6956337502769685
 51
137.4293591885137005
  0
ARC
  5
12BFF
  8
0
 10
4052.8454039957227906
 20
128.3801194879374918
 30
0.0
 40
0.0542183076698685
 50
308.8075088532232826
 51
40.6956337502769685
  0
ARC
  5
12C00
  8
0
 10
4052.8405409808578952
 20
128.3861662356677016
 30
0.0
 40
0.06197795145601
 50
211.6903023509399873
 51
308.8075088532228278
  0
ARC
  5
12C01
  8
0
 10
4052.8420262750928487
 20
128.3774013390602988
 30
0.0
 40
0.1347312038520274
 50
61.837941763104098
 51
148.5609699788778926
  0
ARC
  5
12C02
  8
0
 10
4052.8491674213692022
 20
128.3907407238405085
 30
0.0
 40
0.1196006005446139
 50
358.5027518535500235
 51
61.837941763104098
  0
ARC
  5
12C03
  8
0
 10
4052.8715576209251594
 20
128.3901554919438013
 30
0.0
 40
0.097202753939292
 50
289.0336043742692027
 51
358.502751853548375
  0
ARC
  5
12C04
  8
0
 10
4052.8409176673230832
 20
128.4196230717128913
 30
0.0
 40
0.136431499735677
 50
215.3826183276970028
 51
297.189337739912105
  0
ARC
  5
12C05
  8
0
 10
4052.8161570784541254
 20
128.3962906824496031
 30
0.0
 40
0.1028406664190445
 50
150.0225778082156012
 51
212.7711300227155107
  0
ARC
  5
12C06
  8
0
 10
4052.332432139564844
 20
128.0690814461283082
 30
0.0
 40
0.0205254987755425
 50
95.1802509417619262
 51
198.4656917578070079
  0
ARC
  5
12C07
  8
0
 10
4052.3326852028380927
 20
128.0662900894988923
 30
0.0
 40
0.0233283032376547
 50
16.1825436951305797
 51
95.1802509417619262
  0
ARC
  5
12C08
  8
0
 10
4052.3381708655010698
 20
128.0678820096036929
 30
0.0
 40
0.0176163242059638
 50
299.6496699581381904
 51
16.1825436951274604
  0
ARC
  5
12C09
  8
0
 10
4052.3337526959448951
 20
128.0705519151763951
 30
0.0
 40
0.0222652392835257
 50
200.9793303175044059
 51
306.1455154983657962
  0
ARC
  5
12C0A
  8
0
 10
4052.328527665990805
 20
128.0703722510286013
 30
0.0
 40
0.0542207425891386
 50
137.4293591885137005
 51
209.4768689281071943
  0
ARC
  5
12C0B
  8
0
 10
4052.333650108746042
 20
128.0656667654434102
 30
0.0
 40
0.0611763888112017
 50
40.6956337502769685
 51
137.4293591885137005
  0
ARC
  5
12C0C
  8
0
 10
4052.3389256147288506
 20
128.0702037170403003
 30
0.0
 40
0.0542183076698685
 50
308.8075088532232826
 51
40.6956337502769685
  0
ARC
  5
12C0D
  8
0
 10
4052.3340625998639553
 20
128.0762504647705953
 30
0.0
 40
0.06197795145601
 50
211.6903023509399873
 51
308.8075088532228278
  0
ARC
  5
12C0E
  8
0
 10
4052.3355478940989087
 20
128.0674855681631072
 30
0.0
 40
0.1347312038520274
 50
61.837941763104098
 51
148.5609699788778926
  0
ARC
  5
12C0F
  8
0
 10
4052.3426890403748075
 20
128.0808249529432885
 30
0.0
 40
0.1196006005446139
 50
358.5027518535500235
 51
61.837941763104098
  0
ARC
  5
12C10
  8
0
 10
4052.3650792399312195
 20
128.080239721046695
 30
0.0
 40
0.097202753939292
 50
289.0336043742692027
 51
358.502751853548375
  0
ARC
  5
12C11
  8
0
 10
4052.3344392863291432
 20
128.1097073008156997
 30
0.0
 40
0.136431499735677
 50
215.3826183276970028
 51
297.189337739912105
  0
ARC
  5
12C12
  8
0
 10
4052.309678697461095
 20
128.0863749115524115
 30
0.0
 40
0.1028406664190445
 50
150.0225778082156012
 51
212.7711300227155107
  0
ARC
  5
12C13
  8
0
 10
4051.9361407564838373
 20
127.6352846113479984
 30
0.0
 40
0.0205254987755425
 50
95.1802509417619262
 51
198.4656917578070079
  0
ARC
  5
12C14
  8
0
 10
4051.936393819757086
 20
127.6324932547185966
 30
0.0
 40
0.0233283032376547
 50
16.1825436951305797
 51
95.1802509417619262
  0
ARC
  5
12C15
  8
0
 10
4051.9418794824191536
 20
127.6340851748233973
 30
0.0
 40
0.0176163242059638
 50
299.6496699581381904
 51
16.1825436951274604
  0
ARC
  5
12C16
  8
0
 10
4051.937461312862979
 20
127.6367550803960995
 30
0.0
 40
0.0222652392835257
 50
200.9793303175044059
 51
306.1455154983657962
  0
ARC
  5
12C17
  8
0
 10
4051.9322362829097983
 20
127.6365754162483057
 30
0.0
 40
0.0542207425891386
 50
137.4293591885137005
 51
209.4768689281071943
  0
ARC
  5
12C18
  8
0
 10
4051.9373587256641258
 20
127.6318699306630009
 30
0.0
 40
0.0611763888112017
 50
40.6956337502769685
 51
137.4293591885137005
  0
ARC
  5
12C19
  8
0
 10
4051.9426342316469345
 20
127.6364068822600046
 30
0.0
 40
0.0542183076698685
 50
308.8075088532232826
 51
40.6956337502769685
  0
ARC
  5
12C1A
  8
0
 10
4051.9377712167829486
 20
127.6424536299902002
 30
0.0
 40
0.06197795145601
 50
211.6903023509399873
 51
308.8075088532228278
  0
ARC
  5
12C1B
  8
0
 10
4051.9392565110169926
 20
127.6336887333827974
 30
0.0
 40
0.1347312038520274
 50
61.837941763104098
 51
148.5609699788778926
  0
ARC
  5
12C1C
  8
0
 10
4051.9463976572928914
 20
127.6470281181630071
 30
0.0
 40
0.1196006005446139
 50
358.5027518535500235
 51
61.837941763104098
  0
ARC
  5
12C1D
  8
0
 10
4051.9687878568488486
 20
127.6464428862662999
 30
0.0
 40
0.097202753939292
 50
289.0336043742692027
 51
358.502751853548375
  0
ARC
  5
12C1E
  8
0
 10
4051.9381479032472271
 20
127.6759104660354041
 30
0.0
 40
0.136431499735677
 50
215.3826183276970028
 51
297.189337739912105
  0
ARC
  5
12C1F
  8
0
 10
4051.9133873143778146
 20
127.6525780767721017
 30
0.0
 40
0.1028406664190445
 50
150.0225778082156012
 51
212.7711300227155107
  0
ARC
  5
12C20
  8
0
 10
4051.688753541675851
 20
127.1168467974593028
 30
0.0
 40
0.0205254987755425
 50
95.1802509417619262
 51
198.4656917578070079
  0
ARC
  5
12C21
  8
0
 10
4051.6890066049500092
 20
127.114055440829901
 30
0.0
 40
0.0233283032376547
 50
16.1825436951305797
 51
95.1802509417619262
  0
ARC
  5
12C22
  8
0
 10
4051.6944922676111673
 20
127.1156473609347017
 30
0.0
 40
0.0176163242059638
 50
299.6496699581381904
 51
16.1825436951274604
  0
ARC
  5
12C23
  8
0
 10
4051.6900740980559021
 20
127.1183172665074039
 30
0.0
 40
0.0222652392835257
 50
200.9793303175044059
 51
306.1455154983657962
  0
ARC
  5
12C24
  8
0
 10
4051.684849068101812
 20
127.1181376023595959
 30
0.0
 40
0.0542207425891386
 50
137.4293591885137005
 51
209.4768689281071943
  0
ARC
  5
12C25
  8
0
 10
4051.6899715108579585
 20
127.1134321167744048
 30
0.0
 40
0.0611763888112017
 50
40.6956337502769685
 51
137.4293591885137005
  0
ARC
  5
12C26
  8
0
 10
4051.6952470168398577
 20
127.1179690683712948
 30
0.0
 40
0.0542183076698685
 50
308.8075088532232826
 51
40.6956337502769685
  0
ARC
  5
12C27
  8
0
 10
4051.6903840019749623
 20
127.1240158161015046
 30
0.0
 40
0.06197795145601
 50
211.6903023509399873
 51
308.8075088532228278
  0
ARC
  5
12C28
  8
0
 10
4051.6918692962099158
 20
127.1152509194941018
 30
0.0
 40
0.1347312038520274
 50
61.837941763104098
 51
148.5609699788778926
  0
ARC
  5
12C29
  8
0
 10
4051.6990104424858146
 20
127.1285903042742973
 30
0.0
 40
0.1196006005446139
 50
358.5027518535500235
 51
61.837941763104098
  0
ARC
  5
12C2A
  8
0
 10
4051.7214006420422265
 20
127.1280050723776043
 30
0.0
 40
0.097202753939292
 50
289.0336043742692027
 51
358.502751853548375
  0
ARC
  5
12C2B
  8
0
 10
4051.6907606884401503
 20
127.1574726521465948
 30
0.0
 40
0.136431499735677
 50
215.3826183276970028
 51
297.189337739912105
  0
ARC
  5
12C2C
  8
0
 10
4051.6660000995711925
 20
127.1341402628834061
 30
0.0
 40
0.1028406664190445
 50
150.0225778082156012
 51
212.7711300227155107
  0
ARC
  5
12C2D
  8
0
 10
4051.6054094692572107
 20
126.5528885426059986
 30
0.0
 40
0.0205254987755425
 50
95.1802509417619262
 51
198.4656917578070079
  0
ARC
  5
12C2E
  8
0
 10
4051.6056625325309142
 20
126.5500971859765968
 30
0.0
 40
0.0233283032376547
 50
16.1825436951305797
 51
95.1802509417619262
  0
ARC
  5
12C2F
  8
0
 10
4051.6111481951920723
 20
126.5516891060813975
 30
0.0
 40
0.0176163242059638
 50
299.6496699581381904
 51
16.1825436951274604
  0
ARC
  5
12C30
  8
0
 10
4051.6067300256368071
 20
126.5543590116541992
 30
0.0
 40
0.0222652392835257
 50
200.9793303175044059
 51
306.1455154983657962
  0
ARC
  5
12C31
  8
0
 10
4051.6015049956840812
 20
126.5541793475063059
 30
0.0
 40
0.0542207425891386
 50
137.4293591885137005
 51
209.4768689281071943
  0
ARC
  5
12C32
  8
0
 10
4051.606627438437954
 20
126.5494738619211006
 30
0.0
 40
0.0611763888112017
 50
40.6956337502769685
 51
137.4293591885137005
  0
ARC
  5
12C33
  8
0
 10
4051.6119029444212174
 20
126.5540108135180049
 30
0.0
 40
0.0542183076698685
 50
308.8075088532232826
 51
40.6956337502769685
  0
ARC
  5
12C34
  8
0
 10
4051.6070399295567768
 20
126.5600575612482999
 30
0.0
 40
0.06197795145601
 50
211.6903023509399873
 51
308.8075088532228278
  0
ARC
  5
12C35
  8
0
 10
4051.6085252237908207
 20
126.5512926646407976
 30
0.0
 40
0.1347312038520274
 50
61.837941763104098
 51
148.5609699788778926
  0
ARC
  5
12C36
  8
0
 10
4051.6156663700671743
 20
126.5646320494211068
 30
0.0
 40
0.1196006005446139
 50
358.5027518535500235
 51
61.837941763104098
  0
ARC
  5
12C37
  8
0
 10
4051.638056569624041
 20
126.5640468175243996
 30
0.0
 40
0.097202753939292
 50
289.0336043742692027
 51
358.502751853548375
  0
ARC
  5
12C38
  8
0
 10
4051.6074166160210552
 20
126.5935143972934043
 30
0.0
 40
0.136431499735677
 50
215.3826183276970028
 51
297.189337739912105
  0
ARC
  5
12C39
  8
0
 10
4051.5826560271520975
 20
126.5701820080301019
 30
0.0
 40
0.1028406664190445
 50
150.0225778082156012
 51
212.7711300227155107
  0
ARC
  5
12C3A
  8
0
 10
4051.6883644599251966
 20
125.9846233166735061
 30
0.0
 40
0.0205254987755425
 50
95.1802509417619262
 51
198.4656917578070079
  0
ARC
  5
12C3B
  8
0
 10
4051.6886175231989
 20
125.9818319600441043
 30
0.0
 40
0.0233283032376547
 50
16.1825436951305797
 51
95.1802509417619262
  0
ARC
  5
12C3C
  8
0
 10
4051.6941031858609676
 20
125.983423880148905
 30
0.0
 40
0.0176163242059638
 50
299.6496699581381904
 51
16.1825436951274604
  0
ARC
  5
12C3D
  8
0
 10
4051.689685016304793
 20
125.986093785721593
 30
0.0
 40
0.0222652392835257
 50
200.9793303175044059
 51
306.1455154983657962
  0
ARC
  5
12C3E
  8
0
 10
4051.6844599863511576
 20
125.9859141215737992
 30
0.0
 40
0.0542207425891386
 50
137.4293591885137005
 51
209.4768689281071943
  0
ARC
  5
12C3F
  8
0
 10
4051.6895824291059398
 20
125.9812086359884944
 30
0.0
 40
0.0611763888112017
 50
40.6956337502769685
 51
137.4293591885137005
  0
ARC
  5
12C40
  8
0
 10
4051.6948579350892032
 20
125.9857455875854981
 30
0.0
 40
0.0542183076698685
 50
308.8075088532232826
 51
40.6956337502769685
  0
ARC
  5
12C41
  8
0
 10
4051.6899949202238531
 20
125.9917923353156937
 30
0.0
 40
0.06197795145601
 50
211.6903023509399873
 51
308.8075088532228278
  0
ARC
  5
12C42
  8
0
 10
4051.6914802144588066
 20
125.9830274387083051
 30
0.0
 40
0.1347312038520274
 50
61.837941763104098
 51
148.5609699788778926
  0
ARC
  5
12C43
  8
0
 10
4051.6986213607351601
 20
125.9963668234885006
 30
0.0
 40
0.1196006005446139
 50
358.5027518535500235
 51
61.837941763104098
  0
ARC
  5
12C44
  8
0
 10
4051.7210115602911173
 20
125.9957815915917934
 30
0.0
 40
0.097202753939292
 50
289.0336043742692027
 51
358.502751853548375
  0
ARC
  5
12C45
  8
0
 10
4051.6903716066890411
 20
126.0252491713607981
 30
0.0
 40
0.136431499735677
 50
215.3826183276970028
 51
297.189337739912105
  0
ARC
  5
12C46
  8
0
 10
4051.6656110178200834
 20
126.0019167820975952
 30
0.0
 40
0.1028406664190445
 50
150.0225778082156012
 51
212.7711300227155107
  0
ARC
  5
12C47
  8
0
 10
4051.9443239355668993
 20
125.4721334285541019
 30
0.0
 40
0.0205254987755425
 50
95.1802509417619262
 51
198.4656917578070079
  0
ARC
  5
12C48
  8
0
 10
4051.944576998841967
 20
125.4693420719247001
 30
0.0
 40
0.0233283032376547
 50
16.1825436951305797
 51
95.1802509417619262
  0
ARC
  5
12C49
  8
0
 10
4051.9500626615031251
 20
125.4709339920296003
 30
0.0
 40
0.0176163242059638
 50
299.6496699581381904
 51
16.1825436951274604
  0
ARC
  5
12C4A
  8
0
 10
4051.9456444919469504
 20
125.4736038976023025
 30
0.0
 40
0.0222652392835257
 50
200.9793303175044059
 51
306.1455154983657962
  0
ARC
  5
12C4B
  8
0
 10
4051.940419461995134
 20
125.473424233454395
 30
0.0
 40
0.0542207425891386
 50
137.4293591885137005
 51
209.4768689281071943
  0
ARC
  5
12C4C
  8
0
 10
4051.9455419047490068
 20
125.4687187478692039
 30
0.0
 40
0.0611763888112017
 50
40.6956337502769685
 51
137.4293591885137005
  0
ARC
  5
12C4D
  8
0
 10
4051.9508174107318155
 20
125.4732556994660939
 30
0.0
 40
0.0542183076698685
 50
308.8075088532232826
 51
40.6956337502769685
  0
ARC
  5
12C4E
  8
0
 10
4051.9459543958678296
 20
125.4793024471964031
 30
0.0
 40
0.06197795145601
 50
211.6903023509399873
 51
308.8075088532228278
  0
ARC
  5
12C4F
  8
0
 10
4051.9474396901018736
 20
125.4705375505889009
 30
0.0
 40
0.1347312038520274
 50
61.837941763104098
 51
148.5609699788778926
  0
ARC
  5
12C50
  8
0
 10
4051.9545808363782271
 20
125.4838769353691958
 30
0.0
 40
0.1196006005446139
 50
358.5027518535500235
 51
61.837941763104098
  0
ARC
  5
12C51
  8
0
 10
4051.9769710359350938
 20
125.4832917034725028
 30
0.0
 40
0.097202753939292
 50
289.0336043742692027
 51
358.502751853548375
  0
ARC
  5
12C52
  8
0
 10
4051.9463310823330175
 20
125.5127592832414933
 30
0.0
 40
0.136431499735677
 50
215.3826183276970028
 51
297.189337739912105
  0
ARC
  5
12C53
  8
0
 10
4051.9215704934631503
 20
125.4894268939782052
 30
0.0
 40
0.1028406664190445
 50
150.0225778082156012
 51
212.7711300227155107
  0
ARC
  5
12C54
  8
0
 10
4052.3308803218310459
 20
125.031825512059001
 30
0.0
 40
0.0205254987755425
 50
95.1802509417619262
 51
198.4656917578070079
  0
ARC
  5
12C55
  8
0
 10
4052.3311333851052041
 20
125.0290341554294997
 30
0.0
 40
0.0233283032376547
 50
16.1825436951305797
 51
95.1802509417619262
  0
ARC
  5
12C56
  8
0
 10
4052.3366190477668169
 20
125.0306260755343999
 30
0.0
 40
0.0176163242059638
 50
299.6496699581381904
 51
16.1825436951274604
  0
ARC
  5
12C57
  8
0
 10
4052.332200878211097
 20
125.0332959811071021
 30
0.0
 40
0.0222652392835257
 50
200.9793303175044059
 51
306.1455154983657962
  0
ARC
  5
12C58
  8
0
 10
4052.3269758482579164
 20
125.0331163169592941
 30
0.0
 40
0.0542207425891386
 50
137.4293591885137005
 51
209.4768689281071943
  0
ARC
  5
12C59
  8
0
 10
4052.3320982910131534
 20
125.0284108313740035
 30
0.0
 40
0.0611763888112017
 50
40.6956337502769685
 51
137.4293591885137005
  0
ARC
  5
12C5A
  8
0
 10
4052.3373737969950525
 20
125.032947782970993
 30
0.0
 40
0.0542183076698685
 50
308.8075088532232826
 51
40.6956337502769685
  0
ARC
  5
12C5B
  8
0
 10
4052.3325107821310667
 20
125.0389945307012027
 30
0.0
 40
0.06197795145601
 50
211.6903023509399873
 51
308.8075088532228278
  0
ARC
  5
12C5C
  8
0
 10
4052.3339960763660201
 20
125.0302296340938
 30
0.0
 40
0.1347312038520274
 50
61.837941763104098
 51
148.5609699788778926
  0
ARC
  5
12C5D
  8
0
 10
4052.3411372226410094
 20
125.0435690188739954
 30
0.0
 40
0.1196006005446139
 50
358.5027518535500235
 51
61.837941763104098
  0
ARC
  5
12C5E
  8
0
 10
4052.3635274221978761
 20
125.0429837869773024
 30
0.0
 40
0.097202753939292
 50
289.0336043742692027
 51
358.502751853548375
  0
ARC
  5
12C5F
  8
0
 10
4052.3328874685957999
 20
125.0724513667462929
 30
0.0
 40
0.136431499735677
 50
215.3826183276970028
 51
297.189337739912105
  0
ARC
  5
12C60
  8
0
 10
4052.3081268797259327
 20
125.0491189774830048
 30
0.0
 40
0.1028406664190445
 50
150.0225778082156012
 51
212.7711300227155107
  0
ARC
  5
12C61
  8
0
 10
4052.8325664148519536
 20
124.7205111245661016
 30
0.0
 40
0.0205254987755425
 50
95.1802509417619262
 51
198.4656917578070079
  0
ARC
  5
12C62
  8
0
 10
4052.8328194781252023
 20
124.7177197679366998
 30
0.0
 40
0.0233283032376547
 50
16.1825436951305797
 51
95.1802509417619262
  0
ARC
  5
12C63
  8
0
 10
4052.8383051407868152
 20
124.7193116880415005
 30
0.0
 40
0.0176163242059638
 50
299.6496699581381904
 51
16.1825436951274604
  0
ARC
  5
12C64
  8
0
 10
4052.8338869712310952
 20
124.7219815936142027
 30
0.0
 40
0.0222652392835257
 50
200.9793303175044059
 51
306.1455154983657962
  0
ARC
  5
12C65
  8
0
 10
4052.8286619412779146
 20
124.7218019294663947
 30
0.0
 40
0.0542207425891386
 50
137.4293591885137005
 51
209.4768689281071943
  0
ARC
  5
12C66
  8
0
 10
4052.8337843840331516
 20
124.7170964438811041
 30
0.0
 40
0.0611763888112017
 50
40.6956337502769685
 51
137.4293591885137005
  0
ARC
  5
12C67
  8
0
 10
4052.8390598900159603
 20
124.7216333954780936
 30
0.0
 40
0.0542183076698685
 50
308.8075088532232826
 51
40.6956337502769685
  0
ARC
  5
12C68
  8
0
 10
4052.8341968751519744
 20
124.7276801432083033
 30
0.0
 40
0.06197795145601
 50
211.6903023509399873
 51
308.8075088532228278
  0
ARC
  5
12C69
  8
0
 10
4052.8356821693860184
 20
124.7189152466009006
 30
0.0
 40
0.1347312038520274
 50
61.837941763104098
 51
148.5609699788778926
  0
ARC
  5
12C6A
  8
0
 10
4052.8428233156610077
 20
124.732254631381096
 30
0.0
 40
0.1196006005446139
 50
358.5027518535500235
 51
61.837941763104098
  0
ARC
  5
12C6B
  8
0
 10
4052.8652135152178744
 20
124.731669399484403
 30
0.0
 40
0.097202753939292
 50
289.0336043742692027
 51
358.502751853548375
  0
ARC
  5
12C6C
  8
0
 10
4052.8345735616157981
 20
124.761136979253493
 30
0.0
 40
0.136431499735677
 50
215.3826183276970028
 51
297.189337739912105
  0
ARC
  5
12C6D
  8
0
 10
4052.8098129727459309
 20
124.7378045899902048
 30
0.0
 40
0.1028406664190445
 50
150.0225778082156012
 51
212.7711300227155107
  0
ARC
  5
12C6E
  8
0
 10
4053.4126015487381665
 20
124.5611205773223986
 30
0.0
 40
0.0205254987755425
 50
95.1802509417619262
 51
198.4656917578070079
  0
ARC
  5
12C6F
  8
0
 10
4053.4128546120109604
 20
124.5583292206928974
 30
0.0
 40
0.0233283032376547
 50
16.1825436951305797
 51
95.1802509417619262
  0
ARC
  5
12C70
  8
0
 10
4053.418340274673028
 20
124.5599211407977975
 30
0.0
 40
0.0176163242059638
 50
299.6496699581381904
 51
16.1825436951274604
  0
ARC
  5
12C71
  8
0
 10
4053.4139221051168533
 20
124.5625910463704997
 30
0.0
 40
0.0222652392835257
 50
200.9793303175044059
 51
306.1455154983657962
  0
ARC
  5
12C72
  8
0
 10
4053.4086970751641275
 20
124.5624113822227059
 30
0.0
 40
0.0542207425891386
 50
137.4293591885137005
 51
209.4768689281071943
  0
ARC
  5
12C73
  8
0
 10
4053.4138195179189097
 20
124.5577058966374011
 30
0.0
 40
0.0611763888112017
 50
40.6956337502769685
 51
137.4293591885137005
  0
ARC
  5
12C74
  8
0
 10
4053.4190950239008089
 20
124.5622428482344048
 30
0.0
 40
0.0542183076698685
 50
308.8075088532232826
 51
40.6956337502769685
  0
ARC
  5
12C75
  8
0
 10
4053.4142320090359135
 20
124.5682895959646004
 30
0.0
 40
0.06197795145601
 50
211.6903023509399873
 51
308.8075088532228278
  0
ARC
  5
12C76
  8
0
 10
4053.4157173032717765
 20
124.5595246993571976
 30
0.0
 40
0.1347312038520274
 50
61.837941763104098
 51
148.5609699788778926
  0
ARC
  5
12C77
  8
0
 10
4053.4228584495472205
 20
124.5728640841373931
 30
0.0
 40
0.1196006005446139
 50
358.5027518535500235
 51
61.837941763104098
  0
ARC
  5
12C78
  8
0
 10
4053.4452486491031777
 20
124.5722788522407001
 30
0.0
 40
0.097202753939292
 50
289.0336043742692027
 51
358.502751853548375
  0
ARC
  5
12C79
  8
0
 10
4053.414608695502011
 20
124.6017464320097048
 30
0.0
 40
0.136431499735677
 50
215.3826183276970028
 51
297.189337739912105
  0
ARC
  5
12C7A
  8
0
 10
4053.3898481066321438
 20
124.5784140427464024
 30
0.0
 40
0.1028406664190445
 50
150.0225778082156012
 51
212.7711300227155107
  0
ARC
  5
12C7B
  8
0
 10
4054.0166429452137891
 20
124.5633208716556055
 30
0.0
 40
0.0205254987755425
 50
95.1802509417619262
 51
198.4656917578070079
  0
ARC
  5
12C7C
  8
0
 10
4054.0168960084870378
 20
124.5605295150262037
 30
0.0
 40
0.0233283032376547
 50
16.1825436951305797
 51
95.1802509417619262
  0
ARC
  5
12C7D
  8
0
 10
4054.0223816711491054
 20
124.5621214351310044
 30
0.0
 40
0.0176163242059638
 50
299.6496699581381904
 51
16.1825436951274604
  0
ARC
  5
12C7E
  8
0
 10
4054.0179635015938402
 20
124.5647913407037066
 30
0.0
 40
0.0222652392835257
 50
200.9793303175044059
 51
306.1455154983657962
  0
ARC
  5
12C7F
  8
0
 10
4054.0127384716402048
 20
124.5646116765558986
 30
0.0
 40
0.0542207425891386
 50
137.4293591885137005
 51
209.4768689281071943
  0
ARC
  5
12C80
  8
0
 10
4054.017860914394987
 20
124.5599061909706933
 30
0.0
 40
0.0611763888112017
 50
40.6956337502769685
 51
137.4293591885137005
  0
ARC
  5
12C81
  8
0
 10
4054.0231364203777957
 20
124.5644431425675975
 30
0.0
 40
0.0542183076698685
 50
308.8075088532232826
 51
40.6956337502769685
  0
ARC
  5
12C82
  8
0
 10
4054.0182734055129004
 20
124.5704898902977931
 30
0.0
 40
0.06197795145601
 50
211.6903023509399873
 51
308.8075088532228278
  0
ARC
  5
12C83
  8
0
 10
4054.0197586997478538
 20
124.5617249936904045
 30
0.0
 40
0.1347312038520274
 50
61.837941763104098
 51
148.5609699788778926
  0
ARC
  5
12C84
  8
0
 10
4054.0268998460242074
 20
124.5750643784706
 30
0.0
 40
0.1196006005446139
 50
358.5027518535500235
 51
61.837941763104098
  0
ARC
  5
12C85
  8
0
 10
4054.0492900455810741
 20
124.574479146573907
 30
0.0
 40
0.097202753939292
 50
289.0336043742692027
 51
358.502751853548375
  0
ARC
  5
12C86
  8
0
 10
4054.0186500919780883
 20
124.6039467263428975
 30
0.0
 40
0.136431499735677
 50
215.3826183276970028
 51
297.189337739912105
  0
ARC
  5
12C87
  8
0
 10
4053.9938895031091306
 20
124.5806143370796946
 30
0.0
 40
0.1028406664190445
 50
150.0225778082156012
 51
212.7711300227155107
  0
ARC
  5
12C88
  8
0
 10
4054.5958834158468562
 20
124.7270011825594054
 30
0.0
 40
0.0205254987755425
 50
95.1802509417619262
 51
198.4656917578070079
  0
ARC
  5
12C89
  8
0
 10
4054.5961364791210144
 20
124.7242098259300036
 30
0.0
 40
0.0233283032376547
 50
16.1825436951305797
 51
95.1802509417619262
  0
ARC
  5
12C8A
  8
0
 10
4054.601622141783082
 20
124.7258017460348043
 30
0.0
 40
0.0176163242059638
 50
299.6496699581381904
 51
16.1825436951274604
  0
ARC
  5
12C8B
  8
0
 10
4054.5972039722269074
 20
124.7284716516075065
 30
0.0
 40
0.0222652392835257
 50
200.9793303175044059
 51
306.1455154983657962
  0
ARC
  5
12C8C
  8
0
 10
4054.5919789422741815
 20
124.7282919874596985
 30
0.0
 40
0.0542207425891386
 50
137.4293591885137005
 51
209.4768689281071943
  0
ARC
  5
12C8D
  8
0
 10
4054.5971013850280542
 20
124.7235865018743937
 30
0.0
 40
0.0611763888112017
 50
40.6956337502769685
 51
137.4293591885137005
  0
ARC
  5
12C8E
  8
0
 10
4054.6023768910099534
 20
124.7281234534713974
 30
0.0
 40
0.0542183076698685
 50
308.8075088532232826
 51
40.6956337502769685
  0
ARC
  5
12C8F
  8
0
 10
4054.597513876146877
 20
124.7341702012015929
 30
0.0
 40
0.06197795145601
 50
211.6903023509399873
 51
308.8075088532228278
  0
ARC
  5
12C90
  8
0
 10
4054.598999170380921
 20
124.7254053045942044
 30
0.0
 40
0.1347312038520274
 50
61.837941763104098
 51
148.5609699788778926
  0
ARC
  5
12C91
  8
0
 10
4054.6061403166568198
 20
124.7387446893743999
 30
0.0
 40
0.1196006005446139
 50
358.5027518535500235
 51
61.837941763104098
  0
ARC
  5
12C92
  8
0
 10
4054.6285305162141412
 20
124.7381594574777068
 30
0.0
 40
0.097202753939292
 50
289.0336043742692027
 51
358.502751853548375
  0
ARC
  5
12C93
  8
0
 10
4054.5978905626111555
 20
124.7676270372466973
 30
0.0
 40
0.136431499735677
 50
215.3826183276970028
 51
297.189337739912105
  0
ARC
  5
12C94
  8
0
 10
4054.5731299737421978
 20
124.7442946479834944
 30
0.0
 40
0.1028406664190445
 50
150.0225778082156012
 51
212.7711300227155107
  0
ARC
  5
12C95
  8
0
 10
4055.0986528583648578
 20
125.0329395419283003
 30
0.0
 40
0.0205254987755425
 50
95.1802509417619262
 51
198.4656917578070079
  0
ARC
  5
12C96
  8
0
 10
4055.0989059216381065
 20
125.0301481852988985
 30
0.0
 40
0.0233283032376547
 50
16.1825436951305797
 51
95.1802509417619262
  0
ARC
  5
12C97
  8
0
 10
4055.1043915843010836
 20
125.0317401054036992
 30
0.0
 40
0.0176163242059638
 50
299.6496699581381904
 51
16.1825436951274604
  0
ARC
  5
12C98
  8
0
 10
4055.099973414744909
 20
125.0344100109765009
 30
0.0
 40
0.0222652392835257
 50
200.9793303175044059
 51
306.1455154983657962
  0
ARC
  5
12C99
  8
0
 10
4055.0947483847908188
 20
125.0342303468285934
 30
0.0
 40
0.0542207425891386
 50
137.4293591885137005
 51
209.4768689281071943
  0
ARC
  5
12C9A
  8
0
 10
4055.0998708275460558
 20
125.0295248612434023
 30
0.0
 40
0.0611763888112017
 50
40.6956337502769685
 51
137.4293591885137005
  0
ARC
  5
12C9B
  8
0
 10
4055.1051463335288645
 20
125.0340618128403065
 30
0.0
 40
0.0542183076698685
 50
308.8075088532232826
 51
40.6956337502769685
  0
ARC
  5
12C9C
  8
0
 10
4055.1002833186639691
 20
125.0401085605706015
 30
0.0
 40
0.06197795145601
 50
211.6903023509399873
 51
308.8075088532228278
  0
ARC
  5
12C9D
  8
0
 10
4055.1017686128989226
 20
125.0313436639630993
 30
0.0
 40
0.1347312038520274
 50
61.837941763104098
 51
148.5609699788778926
  0
ARC
  5
12C9E
  8
0
 10
4055.1089097591748214
 20
125.0446830487433942
 30
0.0
 40
0.1196006005446139
 50
358.5027518535500235
 51
61.837941763104098
  0
ARC
  5
12C9F
  8
0
 10
4055.1312999587307786
 20
125.0440978168467012
 30
0.0
 40
0.097202753939292
 50
289.0336043742692027
 51
358.502751853548375
  0
ARC
  5
12CA0
  8
0
 10
4055.1006600051300666
 20
125.0735653966157059
 30
0.0
 40
0.136431499735677
 50
215.3826183276970028
 51
297.189337739912105
  0
ARC
  5
12CA1
  8
0
 10
4055.0758994162601994
 20
125.0502330073524035
 30
0.0
 40
0.1028406664190445
 50
150.0225778082156012
 51
212.7711300227155107
  0
ARC
  5
12CA2
  8
0
 10
4055.4906897538821795
 20
125.4639488658988
 30
0.0
 40
0.0205254987755425
 50
95.1802509417619262
 51
198.4656917578070079
  0
ARC
  5
12CA3
  8
0
 10
4055.490942817154064
 20
125.4611575092693982
 30
0.0
 40
0.0233283032376547
 50
16.1825436951305797
 51
95.1802509417619262
  0
ARC
  5
12CA4
  8
0
 10
4055.4964284798170411
 20
125.4627494293741989
 30
0.0
 40
0.0176163242059638
 50
299.6496699581381904
 51
16.1825436951274604
  0
ARC
  5
12CA5
  8
0
 10
4055.4920103102617759
 20
125.4654193349469011
 30
0.0
 40
0.0222652392835257
 50
200.9793303175044059
 51
306.1455154983657962
  0
ARC
  5
12CA6
  8
0
 10
4055.4867852803081405
 20
125.4652396707990931
 30
0.0
 40
0.0542207425891386
 50
137.4293591885137005
 51
209.4768689281071943
  0
ARC
  5
12CA7
  8
0
 10
4055.4919077230620132
 20
125.460534185213902
 30
0.0
 40
0.0611763888112017
 50
40.6956337502769685
 51
137.4293591885137005
  0
ARC
  5
12CA8
  8
0
 10
4055.4971832290461862
 20
125.4650711368108063
 30
0.0
 40
0.0542183076698685
 50
308.8075088532232826
 51
40.6956337502769685
  0
ARC
  5
12CA9
  8
0
 10
4055.4923202141799266
 20
125.4711178845411013
 30
0.0
 40
0.06197795145601
 50
211.6903023509399873
 51
308.8075088532228278
  0
ARC
  5
12CAA
  8
0
 10
4055.49380550841488
 20
125.462352987933599
 30
0.0
 40
0.1347312038520274
 50
61.837941763104098
 51
148.5609699788778926
  0
ARC
  5
12CAB
  8
0
 10
4055.5009466546907788
 20
125.475692372713894
 30
0.0
 40
0.1196006005446139
 50
358.5027518535500235
 51
61.837941763104098
  0
ARC
  5
12CAC
  8
0
 10
4055.5233368542481003
 20
125.475107140817201
 30
0.0
 40
0.097202753939292
 50
289.0336043742692027
 51
358.502751853548375
  0
ARC
  5
12CAD
  8
0
 10
4055.4926969006451145
 20
125.5045747205862057
 30
0.0
 40
0.136431499735677
 50
215.3826183276970028
 51
297.189337739912105
  0
ARC
  5
12CAE
  8
0
 10
4055.4679363117761568
 20
125.4812423313229033
 30
0.0
 40
0.1028406664190445
 50
150.0225778082156012
 51
212.7711300227155107
  0
ARC
  5
12CAF
  8
0
 10
4055.7426390051859926
 20
125.9857377695923049
 30
0.0
 40
0.0205254987755425
 50
95.1802509417619262
 51
198.4656917578070079
  0
ARC
  5
12CB0
  8
0
 10
4055.7428920684601508
 20
125.9829464129629031
 30
0.0
 40
0.0233283032376547
 50
16.1825436951305797
 51
95.1802509417619262
  0
ARC
  5
12CB1
  8
0
 10
4055.7483777311222184
 20
125.9845383330678033
 30
0.0
 40
0.0176163242059638
 50
299.6496699581381904
 51
16.1825436951274604
  0
ARC
  5
12CB2
  8
0
 10
4055.7439595615660437
 20
125.9872082386405054
 30
0.0
 40
0.0222652392835257
 50
200.9793303175044059
 51
306.1455154983657962
  0
ARC
  5
12CB3
  8
0
 10
4055.7387345316128631
 20
125.9870285744926974
 30
0.0
 40
0.0542207425891386
 50
137.4293591885137005
 51
209.4768689281071943
  0
ARC
  5
12CB4
  8
0
 10
4055.7438569743671906
 20
125.9823230889074068
 30
0.0
 40
0.0611763888112017
 50
40.6956337502769685
 51
137.4293591885137005
  0
ARC
  5
12CB5
  8
0
 10
4055.7491324803499992
 20
125.9868600405043964
 30
0.0
 40
0.0542183076698685
 50
308.8075088532232826
 51
40.6956337502769685
  0
ARC
  5
12CB6
  8
0
 10
4055.7442694654860134
 20
125.9929067882346061
 30
0.0
 40
0.06197795145601
 50
211.6903023509399873
 51
308.8075088532228278
  0
ARC
  5
12CB7
  8
0
 10
4055.7457547597200573
 20
125.9841418916272033
 30
0.0
 40
0.1347312038520274
 50
61.837941763104098
 51
148.5609699788778926
  0
ARC
  5
12CB8
  8
0
 10
4055.7528959059950466
 20
125.9974812764073988
 30
0.0
 40
0.1196006005446139
 50
358.5027518535500235
 51
61.837941763104098
  0
ARC
  5
12CB9
  8
0
 10
4055.7752861055528228
 20
125.9968960445107058
 30
0.0
 40
0.097202753939292
 50
289.0336043742692027
 51
358.502751853548375
  0
ARC
  5
12CBA
  8
0
 10
4055.7446461519498371
 20
126.0263636242796963
 30
0.0
 40
0.136431499735677
 50
215.3826183276970028
 51
297.189337739912105
  0
ARC
  5
12CBB
  8
0
 10
4055.7198855630808794
 20
126.0030312350163939
 30
0.0
 40
0.1028406664190445
 50
150.0225778082156012
 51
212.7711300227155107
  0
ARC
  5
12CBC
  8
0
 10
4055.8302625194128268
 20
126.5537110905785028
 30
0.0
 40
0.0205254987755425
 50
95.1802509417619262
 51
198.4656917578070079
  0
ARC
  5
12CBD
  8
0
 10
4055.830515582686985
 20
126.5509197339492005
 30
0.0
 40
0.0233283032376547
 50
16.1825436951305797
 51
95.1802509417619262
  0
ARC
  5
12CBE
  8
0
 10
4055.8360012453481431
 20
126.5525116540540012
 30
0.0
 40
0.0176163242059638
 50
299.6496699581381904
 51
16.1825436951274604
  0
ARC
  5
12CBF
  8
0
 10
4055.8315830757928779
 20
126.5551815596267033
 30
0.0
 40
0.0222652392835257
 50
200.9793303175044059
 51
306.1455154983657962
  0
ARC
  5
12CC0
  8
0
 10
4055.826358045840152
 20
126.5550018954787959
 30
0.0
 40
0.0542207425891386
 50
137.4293591885137005
 51
209.4768689281071943
  0
ARC
  5
12CC1
  8
0
 10
4055.8314804885949343
 20
126.5502964098936047
 30
0.0
 40
0.0611763888112017
 50
40.6956337502769685
 51
137.4293591885137005
  0
ARC
  5
12CC2
  8
0
 10
4055.8367559945781977
 20
126.5548333614905943
 30
0.0
 40
0.0542183076698685
 50
308.8075088532232826
 51
40.6956337502769685
  0
ARC
  5
12CC3
  8
0
 10
4055.8318929797128476
 20
126.560880109220804
 30
0.0
 40
0.06197795145601
 50
211.6903023509399873
 51
308.8075088532228278
  0
ARC
  5
12CC4
  8
0
 10
4055.8333782739468916
 20
126.5521152126134012
 30
0.0
 40
0.1347312038520274
 50
61.837941763104098
 51
148.5609699788778926
  0
ARC
  5
12CC5
  8
0
 10
4055.8405194202227904
 20
126.5654545973935967
 30
0.0
 40
0.1196006005446139
 50
358.5027518535500235
 51
61.837941763104098
  0
ARC
  5
12CC6
  8
0
 10
4055.8629096197801118
 20
126.5648693654969037
 30
0.0
 40
0.097202753939292
 50
289.0336043742692027
 51
358.502751853548375
  0
ARC
  5
12CC7
  8
0
 10
4055.8322696661771261
 20
126.5943369452658942
 30
0.0
 40
0.136431499735677
 50
215.3826183276970028
 51
297.189337739912105
  0
ARC
  5
12CC8
  8
0
 10
4055.8075090773081683
 20
126.571004556002606
 30
0.0
 40
0.1028406664190445
 50
150.0225778082156012
 51
212.7711300227155107
  0
ARC
  5
12CC9
  8
0
 10
4055.7465459775157797
 20
127.1220949712923982
 30
0.0
 40
0.0205254987755425
 50
95.1802509417619262
 51
198.4656917578070079
  0
ARC
  5
12CCA
  8
0
 10
4055.7467990407899379
 20
127.1193036146629964
 30
0.0
 40
0.0233283032376547
 50
16.1825436951305797
 51
95.1802509417619262
  0
ARC
  5
12CCB
  8
0
 10
4055.752284703451096
 20
127.1208955347677971
 30
0.0
 40
0.0176163242059638
 50
299.6496699581381904
 51
16.1825436951274604
  0
ARC
  5
12CCC
  8
0
 10
4055.747866533897195
 20
127.1235654403405988
 30
0.0
 40
0.0222652392835257
 50
200.9793303175044059
 51
306.1455154983657962
  0
ARC
  5
12CCD
  8
0
 10
4055.7426415039421954
 20
127.1233857761927055
 30
0.0
 40
0.0542207425891386
 50
137.4293591885137005
 51
209.4768689281071943
  0
ARC
  5
12CCE
  8
0
 10
4055.7477639466978871
 20
127.1186802906075002
 30
0.0
 40
0.0611763888112017
 50
40.6956337502769685
 51
137.4293591885137005
  0
ARC
  5
12CCF
  8
0
 10
4055.7530394526811506
 20
127.1232172422044044
 30
0.0
 40
0.0542183076698685
 50
308.8075088532232826
 51
40.6956337502769685
  0
ARC
  5
12CD0
  8
0
 10
4055.748176437814891
 20
127.1292639899346995
 30
0.0
 40
0.06197795145601
 50
211.6903023509399873
 51
308.8075088532228278
  0
ARC
  5
12CD1
  8
0
 10
4055.7496617320498444
 20
127.1204990933271972
 30
0.0
 40
0.1347312038520274
 50
61.837941763104098
 51
148.5609699788778926
  0
ARC
  5
12CD2
  8
0
 10
4055.7568028783271075
 20
127.1338384781075064
 30
0.0
 40
0.1196006005446139
 50
358.5027518535500235
 51
61.837941763104098
  0
ARC
  5
12CD3
  8
0
 10
4055.7791930778830647
 20
127.1332532462107991
 30
0.0
 40
0.097202753939292
 50
289.0336043742692027
 51
358.502751853548375
  0
ARC
  5
12CD4
  8
0
 10
4055.7485531242800789
 20
127.1627208259798039
 30
0.0
 40
0.136431499735677
 50
215.3826183276970028
 51
297.189337739912105
  0
ARC
  5
12CD5
  8
0
 10
4055.7237925354111212
 20
127.1393884367165015
 30
0.0
 40
0.1028406664190445
 50
150.0225778082156012
 51
212.7711300227155107
  0
ARC
  5
12CD6
  8
0
 10
4055.4829843358079415
 20
127.6324919136789049
 30
0.0
 40
0.0205254987755425
 50
95.1802509417619262
 51
198.4656917578070079
  0
ARC
  5
12CD7
  8
0
 10
4055.4832373990820997
 20
127.6297005570495031
 30
0.0
 40
0.0233283032376547
 50
16.1825436951305797
 51
95.1802509417619262
  0
ARC
  5
12CD8
  8
0
 10
4055.4887230617441674
 20
127.6312924771543038
 30
0.0
 40
0.0176163242059638
 50
299.6496699581381904
 51
16.1825436951274604
  0
ARC
  5
12CD9
  8
0
 10
4055.4843048921879927
 20
127.633962382727006
 30
0.0
 40
0.0222652392835257
 50
200.9793303175044059
 51
306.1455154983657962
  0
ARC
  5
12CDA
  8
0
 10
4055.479079862234812
 20
127.633782718579198
 30
0.0
 40
0.0542207425891386
 50
137.4293591885137005
 51
209.4768689281071943
  0
ARC
  5
12CDB
  8
0
 10
4055.4842023049891395
 20
127.6290772329940069
 30
0.0
 40
0.0611763888112017
 50
40.6956337502769685
 51
137.4293591885137005
  0
ARC
  5
12CDC
  8
0
 10
4055.4894778109719482
 20
127.6336141845908969
 30
0.0
 40
0.0542183076698685
 50
308.8075088532232826
 51
40.6956337502769685
  0
ARC
  5
12CDD
  8
0
 10
4055.4846147961079623
 20
127.6396609323211067
 30
0.0
 40
0.06197795145601
 50
211.6903023509399873
 51
308.8075088532228278
  0
ARC
  5
12CDE
  8
0
 10
4055.4861000903420063
 20
127.6308960357137039
 30
0.0
 40
0.1347312038520274
 50
61.837941763104098
 51
148.5609699788778926
  0
ARC
  5
12CDF
  8
0
 10
4055.4932412366179051
 20
127.6442354204938994
 30
0.0
 40
0.1196006005446139
 50
358.5027518535500235
 51
61.837941763104098
  0
ARC
  5
12CE0
  8
0
 10
4055.5156314361752266
 20
127.6436501885972064
 30
0.0
 40
0.097202753939292
 50
289.0336043742692027
 51
358.502751853548375
  0
ARC
  5
12CE1
  8
0
 10
4055.484991482571786
 20
127.6731177683662963
 30
0.0
 40
0.136431499735677
 50
215.3826183276970028
 51
297.189337739912105
  0
ARC
  5
12CE2
  8
0
 10
4055.4602308937028283
 20
127.6497853791029939
 30
0.0
 40
0.1028406664190445
 50
150.0225778082156012
 51
212.7711300227155107
  0
ARC
  5
12CE3
  8
0
 10
4055.0916625709860455
 20
128.0652219809157089
 30
0.0
 40
0.0205254987755425
 50
95.1802509417619262
 51
198.4656917578070079
  0
ARC
  5
12CE4
  8
0
 10
4055.0919156342588394
 20
128.0624306242862929
 30
0.0
 40
0.0233283032376547
 50
16.1825436951305797
 51
95.1802509417619262
  0
ARC
  5
12CE5
  8
0
 10
4055.097401296920907
 20
128.0640225443912072
 30
0.0
 40
0.0176163242059638
 50
299.6496699581381904
 51
16.1825436951274604
  0
ARC
  5
12CE6
  8
0
 10
4055.0929831273651871
 20
128.0666924499639094
 30
0.0
 40
0.0222652392835257
 50
200.9793303175044059
 51
306.1455154983657962
  0
ARC
  5
12CE7
  8
0
 10
4055.0877580974120065
 20
128.066512785816002
 30
0.0
 40
0.0542207425891386
 50
137.4293591885137005
 51
209.4768689281071943
  0
ARC
  5
12CE8
  8
0
 10
4055.0928805401667887
 20
128.0618073002308108
 30
0.0
 40
0.0611763888112017
 50
40.6956337502769685
 51
137.4293591885137005
  0
ARC
  5
12CE9
  8
0
 10
4055.0981560461491426
 20
128.0663442518277861
 30
0.0
 40
0.0542183076698685
 50
308.8075088532232826
 51
40.6956337502769685
  0
ARC
  5
12CEA
  8
0
 10
4055.0932930312837925
 20
128.0723909995579959
 30
0.0
 40
0.06197795145601
 50
211.6903023509399873
 51
308.8075088532228278
  0
ARC
  5
12CEB
  8
0
 10
4055.0947783255201102
 20
128.0636261029505931
 30
0.0
 40
0.1347312038520274
 50
61.837941763104098
 51
148.5609699788778926
  0
ARC
  5
12CEC
  8
0
 10
4055.101919471796009
 20
128.0769654877308028
 30
0.0
 40
0.1196006005446139
 50
358.5027518535500235
 51
61.837941763104098
  0
ARC
  5
12CED
  8
0
 10
4055.1243096713510567
 20
128.0763802558340956
 30
0.0
 40
0.097202753939292
 50
289.0336043742692027
 51
358.502751853548375
  0
ARC
  5
12CEE
  8
0
 10
4055.0936697177489805
 20
128.1058478356031003
 30
0.0
 40
0.136431499735677
 50
215.3826183276970028
 51
297.189337739912105
  0
ARC
  5
12CEF
  8
0
 10
4055.0689091288800228
 20
128.0825154463398121
 30
0.0
 40
0.1028406664190445
 50
150.0225778082156012
 51
212.7711300227155107
  0
ARC
  5
12CF0
  8
0
 10
4054.5880546098219384
 20
128.3751677918997984
 30
0.0
 40
0.0205254987755425
 50
95.1802509417619262
 51
198.4656917578070079
  0
ARC
  5
12CF1
  8
0
 10
4054.5883076730938228
 20
128.3723764352704109
 30
0.0
 40
0.0233283032376547
 50
16.1825436951305797
 51
95.1802509417619262
  0
ARC
  5
12CF2
  8
0
 10
4054.5937933357558904
 20
128.3739683553752116
 30
0.0
 40
0.0176163242059638
 50
299.6496699581381904
 51
16.1825436951274604
  0
ARC
  5
12CF3
  8
0
 10
4054.58937516620108
 20
128.376638260947999
 30
0.0
 40
0.0222652392835257
 50
200.9793303175044059
 51
306.1455154983657962
  0
ARC
  5
12CF4
  8
0
 10
4054.5841501362478994
 20
128.3764585968000915
 30
0.0
 40
0.0542207425891386
 50
137.4293591885137005
 51
209.4768689281071943
  0
ARC
  5
12CF5
  8
0
 10
4054.5892725790022268
 20
128.3717531112149004
 30
0.0
 40
0.0611763888112017
 50
40.6956337502769685
 51
137.4293591885137005
  0
ARC
  5
12CF6
  8
0
 10
4054.594548084985945
 20
128.3762900628117904
 30
0.0
 40
0.0542183076698685
 50
308.8075088532232826
 51
40.6956337502769685
  0
ARC
  5
12CF7
  8
0
 10
4054.5896850701201402
 20
128.3823368105421139
 30
0.0
 40
0.06197795145601
 50
211.6903023509399873
 51
308.8075088532228278
  0
ARC
  5
12CF8
  8
0
 10
4054.5911703643550936
 20
128.3735719139345974
 30
0.0
 40
0.1347312038520274
 50
61.837941763104098
 51
148.5609699788778926
  0
ARC
  5
12CF9
  8
0
 10
4054.5983115106300829
 20
128.3869112987148924
 30
0.0
 40
0.1196006005446139
 50
358.5027518535500235
 51
61.837941763104098
  0
ARC
  5
12CFA
  8
0
 10
4054.6207017101869496
 20
128.3863260668182136
 30
0.0
 40
0.097202753939292
 50
289.0336043742692027
 51
358.502751853548375
  0
ARC
  5
12CFB
  8
0
 10
4054.5900617565848734
 20
128.4157936465871899
 30
0.0
 40
0.136431499735677
 50
215.3826183276970028
 51
297.189337739912105
  0
ARC
  5
12CFC
  8
0
 10
4054.5653011677150062
 20
128.3924612573239017
 30
0.0
 40
0.1028406664190445
 50
150.0225778082156012
 51
212.7711300227155107
  0
ARC
  5
12CFD
  8
0
 10
4054.0131833706618636
 20
128.5372862136125889
 30
0.0
 40
0.0205254987755425
 50
95.1802509417619262
 51
198.4656917578070079
  0
ARC
  5
12CFE
  8
0
 10
4054.0134364339351123
 20
128.5344948569832013
 30
0.0
 40
0.0233283032376547
 50
16.1825436951305797
 51
95.1802509417619262
  0
ARC
  5
12CFF
  8
0
 10
4054.0189220965971799
 20
128.536086777088002
 30
0.0
 40
0.0176163242059638
 50
299.6496699581381904
 51
16.1825436951274604
  0
ARC
  5
12D00
  8
0
 10
4054.0145039270410052
 20
128.5387566826607042
 30
0.0
 40
0.0222652392835257
 50
200.9793303175044059
 51
306.1455154983657962
  0
ARC
  5
12D01
  8
0
 10
4054.0092788970878246
 20
128.5385770185129104
 30
0.0
 40
0.0542207425891386
 50
137.4293591885137005
 51
209.4768689281071943
  0
ARC
  5
12D02
  8
0
 10
4054.0144013398421521
 20
128.5338715329276909
 30
0.0
 40
0.0611763888112017
 50
40.6956337502769685
 51
137.4293591885137005
  0
ARC
  5
12D03
  8
0
 10
4054.0196768458249608
 20
128.5384084845246093
 30
0.0
 40
0.0542183076698685
 50
308.8075088532232826
 51
40.6956337502769685
  0
ARC
  5
12D04
  8
0
 10
4054.0148138309609749
 20
128.5444552322549043
 30
0.0
 40
0.06197795145601
 50
211.6903023509399873
 51
308.8075088532228278
  0
ARC
  5
12D05
  8
0
 10
4054.0162991251959284
 20
128.5356903356473879
 30
0.0
 40
0.1347312038520274
 50
61.837941763104098
 51
148.5609699788778926
  0
ARC
  5
12D06
  8
0
 10
4054.0234402714709177
 20
128.5490297204275976
 30
0.0
 40
0.1196006005446139
 50
358.5027518535500235
 51
61.837941763104098
  0
ARC
  5
12D07
  8
0
 10
4054.0458304710277844
 20
128.548444488531004
 30
0.0
 40
0.097202753939292
 50
289.0336043742692027
 51
358.502751853548375
  0
ARC
  5
12D08
  8
0
 10
4054.0151905174247986
 20
128.5779120683000087
 30
0.0
 40
0.136431499735677
 50
215.3826183276970028
 51
297.189337739912105
  0
ARC
  5
12D09
  8
0
 10
4053.9904299285558409
 20
128.5545796790366921
 30
0.0
 40
0.1028406664190445
 50
150.0225778082156012
 51
212.7711300227155107
  0
ARC
  5
12D0A
  8
0
 10
4053.7148351992668722
 20
128.1447540554169109
 30
0.0
 40
0.0205254987755425
 50
95.1802509417619262
 51
198.4656917578070079
  0
ARC
  5
12D0B
  8
0
 10
4053.7150882625401209
 20
128.1419626987874949
 30
0.0
 40
0.0233283032376547
 50
16.1825436951305797
 51
95.1802509417619262
  0
ARC
  5
12D0C
  8
0
 10
4053.7205739252008243
 20
128.1435546188922956
 30
0.0
 40
0.0176163242059638
 50
299.6496699581381904
 51
16.1825436951274604
  0
ARC
  5
12D0D
  8
0
 10
4053.7161557556469234
 20
128.1462245244649978
 30
0.0
 40
0.0222652392835257
 50
200.9793303175044059
 51
306.1455154983657962
  0
ARC
  5
12D0E
  8
0
 10
4053.7109307256928332
 20
128.146044860317204
 30
0.0
 40
0.0542207425891386
 50
137.4293591885137005
 51
209.4768689281071943
  0
ARC
  5
12D0F
  8
0
 10
4053.7160531684471607
 20
128.1413393747318992
 30
0.0
 40
0.0611763888112017
 50
40.6956337502769685
 51
137.4293591885137005
  0
ARC
  5
12D10
  8
0
 10
4053.7213286744308789
 20
128.1458763263289029
 30
0.0
 40
0.0542183076698685
 50
308.8075088532232826
 51
40.6956337502769685
  0
ARC
  5
12D11
  8
0
 10
4053.7164656595659835
 20
128.1519230740591127
 30
0.0
 40
0.06197795145601
 50
211.6903023509399873
 51
308.8075088532228278
  0
ARC
  5
12D12
  8
0
 10
4053.7179509538000275
 20
128.1431581774517099
 30
0.0
 40
0.1347312038520274
 50
61.837941763104098
 51
148.5609699788778926
  0
ARC
  5
12D13
  8
0
 10
4053.7250921000759263
 20
128.1564975622318912
 30
0.0
 40
0.1196006005446139
 50
358.5027518535500235
 51
61.837941763104098
  0
ARC
  5
12D14
  8
0
 10
4053.747482299632793
 20
128.1559123303352123
 30
0.0
 40
0.097202753939292
 50
289.0336043742692027
 51
358.502751853548375
  0
ARC
  5
12D15
  8
0
 10
4053.7168423460298072
 20
128.1853799101043023
 30
0.0
 40
0.136431499735677
 50
215.3826183276970028
 51
297.189337739912105
  0
ARC
  5
12D16
  8
0
 10
4053.6920817571608495
 20
128.1620475208410141
 30
0.0
 40
0.1028406664190445
 50
150.0225778082156012
 51
212.7711300227155107
  0
ARC
  5
12D17
  8
0
 10
4053.2547019036428537
 20
128.0831501266189889
 30
0.0
 40
0.0205254987755425
 50
95.1802509417619262
 51
198.4656917578070079
  0
ARC
  5
12D18
  8
0
 10
4053.2549549669170119
 20
128.0803587699896013
 30
0.0
 40
0.0233283032376547
 50
16.1825436951305797
 51
95.1802509417619262
  0
ARC
  5
12D19
  8
0
 10
4053.26044062957817
 20
128.081950690094402
 30
0.0
 40
0.0176163242059638
 50
299.6496699581381904
 51
16.1825436951274604
  0
ARC
  5
12D1A
  8
0
 10
4053.2560224600229049
 20
128.0846205956671042
 30
0.0
 40
0.0222652392835257
 50
200.9793303175044059
 51
306.1455154983657962
  0
ARC
  5
12D1B
  8
0
 10
4053.2507974300688147
 20
128.0844409315193104
 30
0.0
 40
0.0542207425891386
 50
137.4293591885137005
 51
209.4768689281071943
  0
ARC
  5
12D1C
  8
0
 10
4053.2559198728240517
 20
128.0797354459340909
 30
0.0
 40
0.0611763888112017
 50
40.6956337502769685
 51
137.4293591885137005
  0
ARC
  5
12D1D
  8
0
 10
4053.2611953788082246
 20
128.0842723975310093
 30
0.0
 40
0.0542183076698685
 50
308.8075088532232826
 51
40.6956337502769685
  0
ARC
  5
12D1E
  8
0
 10
4053.256332363941965
 20
128.0903191452613044
 30
0.0
 40
0.06197795145601
 50
211.6903023509399873
 51
308.8075088532228278
  0
ARC
  5
12D1F
  8
0
 10
4053.2578176581769185
 20
128.0815542486539016
 30
0.0
 40
0.1347312038520274
 50
61.837941763104098
 51
148.5609699788778926
  0
ARC
  5
12D20
  8
0
 10
4053.2649588044541815
 20
128.0948936334341113
 30
0.0
 40
0.1196006005446139
 50
358.5027518535500235
 51
61.837941763104098
  0
ARC
  5
12D21
  8
0
 10
4053.2873490040101387
 20
128.0943084015372904
 30
0.0
 40
0.097202753939292
 50
289.0336043742692027
 51
358.502751853548375
  0
ARC
  5
12D22
  8
0
 10
4053.256709050407153
 20
128.1237759813064088
 30
0.0
 40
0.136431499735677
 50
215.3826183276970028
 51
297.189337739912105
  0
ARC
  5
12D23
  8
0
 10
4053.2319484615381953
 20
128.1004435920430922
 30
0.0
 40
0.1028406664190445
 50
150.0225778082156012
 51
212.7711300227155107
  0
ARC
  5
12D24
  8
0
 10
4052.8264796312651015
 20
127.8959174070283069
 30
0.0
 40
0.0205254987755425
 50
95.1802509417619262
 51
198.4656917578070079
  0
ARC
  5
12D25
  8
0
 10
4052.8267326945388049
 20
127.8931260503989051
 30
0.0
 40
0.0233283032376547
 50
16.1825436951305797
 51
95.1802509417619262
  0
ARC
  5
12D26
  8
0
 10
4052.8322183572008726
 20
127.8947179705037058
 30
0.0
 40
0.0176163242059638
 50
299.6496699581381904
 51
16.1825436951274604
  0
ARC
  5
12D27
  8
0
 10
4052.8278001876451526
 20
127.8973878760763938
 30
0.0
 40
0.0222652392835257
 50
200.9793303175044059
 51
306.1455154983657962
  0
ARC
  5
12D28
  8
0
 10
4052.822575157691972
 20
127.8972082119286
 30
0.0
 40
0.0542207425891386
 50
137.4293591885137005
 51
209.4768689281071943
  0
ARC
  5
12D29
  8
0
 10
4052.8276976004458447
 20
127.8925027263433947
 30
0.0
 40
0.0611763888112017
 50
40.6956337502769685
 51
137.4293591885137005
  0
ARC
  5
12D2A
  8
0
 10
4052.8329731064281987
 20
127.8970396779402989
 30
0.0
 40
0.0542183076698685
 50
308.8075088532232826
 51
40.6956337502769685
  0
ARC
  5
12D2B
  8
0
 10
4052.8281100915651223
 20
127.9030864256705939
 30
0.0
 40
0.06197795145601
 50
211.6903023509399873
 51
308.8075088532228278
  0
ARC
  5
12D2C
  8
0
 10
4052.8295953857991663
 20
127.8943215290631059
 30
0.0
 40
0.1347312038520274
 50
61.837941763104098
 51
148.5609699788778926
  0
ARC
  5
12D2D
  8
0
 10
4052.836736532075065
 20
127.9076609138434009
 30
0.0
 40
0.1196006005446139
 50
358.5027518535500235
 51
61.837941763104098
  0
ARC
  5
12D2E
  8
0
 10
4052.8591267316319318
 20
127.9070756819466936
 30
0.0
 40
0.097202753939292
 50
289.0336043742692027
 51
358.502751853548375
  0
ARC
  5
12D2F
  8
0
 10
4052.828486778028946
 20
127.9365432617156983
 30
0.0
 40
0.136431499735677
 50
215.3826183276970028
 51
297.189337739912105
  0
ARC
  5
12D30
  8
0
 10
4052.8037261891599883
 20
127.913210872452396
 30
0.0
 40
0.1028406664190445
 50
150.0225778082156012
 51
212.7711300227155107
  0
ARC
  5
12D31
  8
0
 10
4052.4707507169291603
 20
127.6037190090461024
 30
0.0
 40
0.0205254987755425
 50
95.1802509417619262
 51
198.4656917578070079
  0
ARC
  5
12D32
  8
0
 10
4052.4710037802019542
 20
127.6009276524167007
 30
0.0
 40
0.0233283032376547
 50
16.1825436951305797
 51
95.1802509417619262
  0
ARC
  5
12D33
  8
0
 10
4052.4764894428640218
 20
127.6025195725215013
 30
0.0
 40
0.0176163242059638
 50
299.6496699581381904
 51
16.1825436951274604
  0
ARC
  5
12D34
  8
0
 10
4052.4720712733078472
 20
127.6051894780942035
 30
0.0
 40
0.0222652392835257
 50
200.9793303175044059
 51
306.1455154983657962
  0
ARC
  5
12D35
  8
0
 10
4052.4668462433551213
 20
127.6050098139463955
 30
0.0
 40
0.0542207425891386
 50
137.4293591885137005
 51
209.4768689281071943
  0
ARC
  5
12D36
  8
0
 10
4052.471968686108994
 20
127.6003043283612044
 30
0.0
 40
0.0611763888112017
 50
40.6956337502769685
 51
137.4293591885137005
  0
ARC
  5
12D37
  8
0
 10
4052.4772441920918027
 20
127.6048412799580944
 30
0.0
 40
0.0542183076698685
 50
308.8075088532232826
 51
40.6956337502769685
  0
ARC
  5
12D38
  8
0
 10
4052.4723811772269073
 20
127.6108880276883042
 30
0.0
 40
0.06197795145601
 50
211.6903023509399873
 51
308.8075088532228278
  0
ARC
  5
12D39
  8
0
 10
4052.4738664714618608
 20
127.6021231310809014
 30
0.0
 40
0.1347312038520274
 50
61.837941763104098
 51
148.5609699788778926
  0
ARC
  5
12D3A
  8
0
 10
4052.4810076177382143
 20
127.6154625158610969
 30
0.0
 40
0.1196006005446139
 50
358.5027518535500235
 51
61.837941763104098
  0
ARC
  5
12D3B
  8
0
 10
4052.503397817295081
 20
127.6148772839644039
 30
0.0
 40
0.097202753939292
 50
289.0336043742692027
 51
358.502751853548375
  0
ARC
  5
12D3C
  8
0
 10
4052.4727578636920953
 20
127.6443448637334939
 30
0.0
 40
0.136431499735677
 50
215.3826183276970028
 51
297.189337739912105
  0
ARC
  5
12D3D
  8
0
 10
4052.4479972748240471
 20
127.6210124744702057
 30
0.0
 40
0.1028406664190445
 50
150.0225778082156012
 51
212.7711300227155107
  0
ARC
  5
12D3E
  8
0
 10
4052.2222042666148809
 20
127.2323440703817994
 30
0.0
 40
0.0205254987755425
 50
95.1802509417619262
 51
198.4656917578070079
  0
ARC
  5
12D3F
  8
0
 10
4052.2224573298890391
 20
127.2295527137523976
 30
0.0
 40
0.0233283032376547
 50
16.1825436951305797
 51
95.1802509417619262
  0
ARC
  5
12D40
  8
0
 10
4052.2279429925501972
 20
127.2311446338571983
 30
0.0
 40
0.0176163242059638
 50
299.6496699581381904
 51
16.1825436951274604
  0
ARC
  5
12D41
  8
0
 10
4052.2235248229940225
 20
127.2338145394299005
 30
0.0
 40
0.0222652392835257
 50
200.9793303175044059
 51
306.1455154983657962
  0
ARC
  5
12D42
  8
0
 10
4052.2182997930408419
 20
127.2336348752821067
 30
0.0
 40
0.0542207425891386
 50
137.4293591885137005
 51
209.4768689281071943
  0
ARC
  5
12D43
  8
0
 10
4052.2234222357960789
 20
127.2289293896968019
 30
0.0
 40
0.0611763888112017
 50
40.6956337502769685
 51
137.4293591885137005
  0
ARC
  5
12D44
  8
0
 10
4052.2286977417779781
 20
127.2334663412938056
 30
0.0
 40
0.0542183076698685
 50
308.8075088532232826
 51
40.6956337502769685
  0
ARC
  5
12D45
  8
0
 10
4052.2238347269130827
 20
127.2395130890240011
 30
0.0
 40
0.06197795145601
 50
211.6903023509399873
 51
308.8075088532228278
  0
ARC
  5
12D46
  8
0
 10
4052.2253200211489457
 20
127.2307481924165984
 30
0.0
 40
0.1347312038520274
 50
61.837941763104098
 51
148.5609699788778926
  0
ARC
  5
12D47
  8
0
 10
4052.232461167423935
 20
127.2440875771967939
 30
0.0
 40
0.1196006005446139
 50
358.5027518535500235
 51
61.837941763104098
  0
ARC
  5
12D48
  8
0
 10
4052.2548513669798922
 20
127.2435023453001008
 30
0.0
 40
0.097202753939292
 50
289.0336043742692027
 51
358.502751853548375
  0
ARC
  5
12D49
  8
0
 10
4052.2242114133791802
 20
127.2729699250691056
 30
0.0
 40
0.136431499735677
 50
215.3826183276970028
 51
297.189337739912105
  0
ARC
  5
12D4A
  8
0
 10
4052.1994508245088582
 20
127.2496375358059026
 30
0.0
 40
0.1028406664190445
 50
150.0225778082156012
 51
212.7711300227155107
  0
ARC
  5
12D4B
  8
0
 10
4052.0957522281569254
 20
126.8111557257364979
 30
0.0
 40
0.0205254987755425
 50
95.1802509417619262
 51
198.4656917578070079
  0
ARC
  5
12D4C
  8
0
 10
4052.0960052914301741
 20
126.8083643691070961
 30
0.0
 40
0.0233283032376547
 50
16.1825436951305797
 51
95.1802509417619262
  0
ARC
  5
12D4D
  8
0
 10
4052.101490954091787
 20
126.8099562892118968
 30
0.0
 40
0.0176163242059638
 50
299.6496699581381904
 51
16.1825436951274604
  0
ARC
  5
12D4E
  8
0
 10
4052.097072784536067
 20
126.812626194784599
 30
0.0
 40
0.0222652392835257
 50
200.9793303175044059
 51
306.1455154983657962
  0
ARC
  5
12D4F
  8
0
 10
4052.0918477545828864
 20
126.8124465306368052
 30
0.0
 40
0.0542207425891386
 50
137.4293591885137005
 51
209.4768689281071943
  0
ARC
  5
12D50
  8
0
 10
4052.0969701973381234
 20
126.8077410450515998
 30
0.0
 40
0.0611763888112017
 50
40.6956337502769685
 51
137.4293591885137005
  0
ARC
  5
12D51
  8
0
 10
4052.1022457033209321
 20
126.8122779966485041
 30
0.0
 40
0.0542183076698685
 50
308.8075088532232826
 51
40.6956337502769685
  0
ARC
  5
12D52
  8
0
 10
4052.0973826884560367
 20
126.8183247443786996
 30
0.0
 40
0.06197795145601
 50
211.6903023509399873
 51
308.8075088532228278
  0
ARC
  5
12D53
  8
0
 10
4052.0988679826909902
 20
126.8095598477712969
 30
0.0
 40
0.1347312038520274
 50
61.837941763104098
 51
148.5609699788778926
  0
ARC
  5
12D54
  8
0
 10
4052.1060091289659795
 20
126.8228992325515065
 30
0.0
 40
0.1196006005446139
 50
358.5027518535500235
 51
61.837941763104098
  0
ARC
  5
12D55
  8
0
 10
4052.1283993285219367
 20
126.8223140006547993
 30
0.0
 40
0.097202753939292
 50
289.0336043742692027
 51
358.502751853548375
  0
ARC
  5
12D56
  8
0
 10
4052.0977593749212247
 20
126.851781580423804
 30
0.0
 40
0.136431499735677
 50
215.3826183276970028
 51
297.189337739912105
  0
ARC
  5
12D57
  8
0
 10
4052.0729987860509027
 20
126.8284491911606011
 30
0.0
 40
0.1028406664190445
 50
150.0225778082156012
 51
212.7711300227155107
  0
ARC
  5
12D58
  8
0
 10
4052.0970079219810032
 20
126.3691263405953009
 30
0.0
 40
0.0205254987755425
 50
95.1802509417619262
 51
198.4656917578070079
  0
ARC
  5
12D59
  8
0
 10
4052.0972609852551614
 20
126.3663349839658991
 30
0.0
 40
0.0233283032376547
 50
16.1825436951305797
 51
95.1802509417619262
  0
ARC
  5
12D5A
  8
0
 10
4052.1027466479158647
 20
126.3679269040706998
 30
0.0
 40
0.0176163242059638
 50
299.6496699581381904
 51
16.1825436951274604
  0
ARC
  5
12D5B
  8
0
 10
4052.0983284783601448
 20
126.370596809643402
 30
0.0
 40
0.0222652392835257
 50
200.9793303175044059
 51
306.1455154983657962
  0
ARC
  5
12D5C
  8
0
 10
4052.0931034484069642
 20
126.370417145495594
 30
0.0
 40
0.0542207425891386
 50
137.4293591885137005
 51
209.4768689281071943
  0
ARC
  5
12D5D
  8
0
 10
4052.0982258911622012
 20
126.3657116599104029
 30
0.0
 40
0.0611763888112017
 50
40.6956337502769685
 51
137.4293591885137005
  0
ARC
  5
12D5E
  8
0
 10
4052.1035013971441003
 20
126.3702486115072929
 30
0.0
 40
0.0542183076698685
 50
308.8075088532232826
 51
40.6956337502769685
  0
ARC
  5
12D5F
  8
0
 10
4052.0986383822801145
 20
126.3762953592376022
 30
0.0
 40
0.06197795145601
 50
211.6903023509399873
 51
308.8075088532228278
  0
ARC
  5
12D60
  8
0
 10
4052.1001236765150679
 20
126.3675304626300999
 30
0.0
 40
0.1347312038520274
 50
61.837941763104098
 51
148.5609699788778926
  0
ARC
  5
12D61
  8
0
 10
4052.1072648227900572
 20
126.3808698474103949
 30
0.0
 40
0.1196006005446139
 50
358.5027518535500235
 51
61.837941763104098
  0
ARC
  5
12D62
  8
0
 10
4052.1296550223469239
 20
126.3802846155137019
 30
0.0
 40
0.097202753939292
 50
289.0336043742692027
 51
358.502751853548375
  0
ARC
  5
12D63
  8
0
 10
4052.0990150687448477
 20
126.4097521952827066
 30
0.0
 40
0.136431499735677
 50
215.3826183276970028
 51
297.189337739912105
  0
ARC
  5
12D64
  8
0
 10
4052.0742544798749805
 20
126.3864198060194042
 30
0.0
 40
0.1028406664190445
 50
150.0225778082156012
 51
212.7711300227155107
  0
ARC
  5
12D65
  8
0
 10
4052.2111954823299129
 20
125.9329648567996998
 30
0.0
 40
0.0205254987755425
 50
95.1802509417619262
 51
198.4656917578070079
  0
ARC
  5
12D66
  8
0
 10
4052.2114485456031616
 20
125.930173500170298
 30
0.0
 40
0.0233283032376547
 50
16.1825436951305797
 51
95.1802509417619262
  0
ARC
  5
12D67
  8
0
 10
4052.2169342082647745
 20
125.9317654202750987
 30
0.0
 40
0.0176163242059638
 50
299.6496699581381904
 51
16.1825436951274604
  0
ARC
  5
12D68
  8
0
 10
4052.2125160387099641
 20
125.9344353258478009
 30
0.0
 40
0.0222652392835257
 50
200.9793303175044059
 51
306.1455154983657962
  0
ARC
  5
12D69
  8
0
 10
4052.2072910087558739
 20
125.9342556617000071
 30
0.0
 40
0.0542207425891386
 50
137.4293591885137005
 51
209.4768689281071943
  0
ARC
  5
12D6A
  8
0
 10
4052.2124134515111109
 20
125.9295501761147023
 30
0.0
 40
0.0611763888112017
 50
40.6956337502769685
 51
137.4293591885137005
  0
ARC
  5
12D6B
  8
0
 10
4052.2176889574939196
 20
125.934087127711706
 30
0.0
 40
0.0542183076698685
 50
308.8075088532232826
 51
40.6956337502769685
  0
ARC
  5
12D6C
  8
0
 10
4052.2128259426281147
 20
125.9401338754419015
 30
0.0
 40
0.06197795145601
 50
211.6903023509399873
 51
308.8075088532228278
  0
ARC
  5
12D6D
  8
0
 10
4052.2143112368639777
 20
125.9313689788344988
 30
0.0
 40
0.1347312038520274
 50
61.837941763104098
 51
148.5609699788778926
  0
ARC
  5
12D6E
  8
0
 10
4052.221452383138967
 20
125.9447083636146942
 30
0.0
 40
0.1196006005446139
 50
358.5027518535500235
 51
61.837941763104098
  0
ARC
  5
12D6F
  8
0
 10
4052.2438425826958337
 20
125.9441231317180012
 30
0.0
 40
0.097202753939292
 50
289.0336043742692027
 51
358.502751853548375
  0
ARC
  5
12D70
  8
0
 10
4052.2132026290942122
 20
125.9735907114870059
 30
0.0
 40
0.136431499735677
 50
215.3826183276970028
 51
297.189337739912105
  0
ARC
  5
12D71
  8
0
 10
4052.1884420402238902
 20
125.950258322223803
 30
0.0
 40
0.1028406664190445
 50
150.0225778082156012
 51
212.7711300227155107
  0
ARC
  5
12D72
  8
0
 10
4052.4756771527117962
 20
125.5641011897733961
 30
0.0
 40
0.0205254987755425
 50
95.1802509417619262
 51
198.4656917578070079
  0
ARC
  5
12D73
  8
0
 10
4052.4759302159868639
 20
125.5613098331439943
 30
0.0
 40
0.0233283032376547
 50
16.1825436951305797
 51
95.1802509417619262
  0
ARC
  5
12D74
  8
0
 10
4052.481415878648022
 20
125.562901753248795
 30
0.0
 40
0.0176163242059638
 50
299.6496699581381904
 51
16.1825436951274604
  0
ARC
  5
12D75
  8
0
 10
4052.4769977090918474
 20
125.5655716588214972
 30
0.0
 40
0.0222652392835257
 50
200.9793303175044059
 51
306.1455154983657962
  0
ARC
  5
12D76
  8
0
 10
4052.4717726791391215
 20
125.5653919946737034
 30
0.0
 40
0.0542207425891386
 50
137.4293591885137005
 51
209.4768689281071943
  0
ARC
  5
12D77
  8
0
 10
4052.4768951218939037
 20
125.5606865090883986
 30
0.0
 40
0.0611763888112017
 50
40.6956337502769685
 51
137.4293591885137005
  0
ARC
  5
12D78
  8
0
 10
4052.4821706278771671
 20
125.5652234606854023
 30
0.0
 40
0.0542183076698685
 50
308.8075088532232826
 51
40.6956337502769685
  0
ARC
  5
12D79
  8
0
 10
4052.477307613011817
 20
125.5712702084155978
 30
0.0
 40
0.06197795145601
 50
211.6903023509399873
 51
308.8075088532228278
  0
ARC
  5
12D7A
  8
0
 10
4052.4787929072472252
 20
125.5625053118081951
 30
0.0
 40
0.1347312038520274
 50
61.837941763104098
 51
148.5609699788778926
  0
ARC
  5
12D7B
  8
0
 10
4052.485934053523124
 20
125.5758446965884048
 30
0.0
 40
0.1196006005446139
 50
358.5027518535500235
 51
61.837941763104098
  0
ARC
  5
12D7C
  8
0
 10
4052.5083242530790812
 20
125.5752594646916975
 30
0.0
 40
0.097202753939292
 50
289.0336043742692027
 51
358.502751853548375
  0
ARC
  5
12D7D
  8
0
 10
4052.477684299477005
 20
125.6047270444607022
 30
0.0
 40
0.136431499735677
 50
215.3826183276970028
 51
297.189337739912105
  0
ARC
  5
12D7E
  8
0
 10
4052.4529237106080473
 20
125.5813946551974993
 30
0.0
 40
0.1028406664190445
 50
150.0225778082156012
 51
212.7711300227155107
  0
ARC
  5
12D7F
  8
0
 10
4052.8288237560568632
 20
125.2737663964981039
 30
0.0
 40
0.0205254987755425
 50
95.1802509417619262
 51
198.4656917578070079
  0
ARC
  5
12D80
  8
0
 10
4052.8290768193310214
 20
125.2709750398687021
 30
0.0
 40
0.0233283032376547
 50
16.1825436951305797
 51
95.1802509417619262
  0
ARC
  5
12D81
  8
0
 10
4052.834562481993089
 20
125.2725669599735028
 30
0.0
 40
0.0176163242059638
 50
299.6496699581381904
 51
16.1825436951274604
  0
ARC
  5
12D82
  8
0
 10
4052.8301443124369143
 20
125.275236865546205
 30
0.0
 40
0.0222652392835257
 50
200.9793303175044059
 51
306.1455154983657962
  0
ARC
  5
12D83
  8
0
 10
4052.8249192824841884
 20
125.275057201398397
 30
0.0
 40
0.0542207425891386
 50
137.4293591885137005
 51
209.4768689281071943
  0
ARC
  5
12D84
  8
0
 10
4052.8300417252389707
 20
125.2703517158131064
 30
0.0
 40
0.0611763888112017
 50
40.6956337502769685
 51
137.4293591885137005
  0
ARC
  5
12D85
  8
0
 10
4052.8353172312208699
 20
125.2748886674100959
 30
0.0
 40
0.0542183076698685
 50
308.8075088532232826
 51
40.6956337502769685
  0
ARC
  5
12D86
  8
0
 10
4052.830454216356884
 20
125.2809354151403056
 30
0.0
 40
0.06197795145601
 50
211.6903023509399873
 51
308.8075088532228278
  0
ARC
  5
12D87
  8
0
 10
4052.8319395105918375
 20
125.2721705185329029
 30
0.0
 40
0.1347312038520274
 50
61.837941763104098
 51
148.5609699788778926
  0
ARC
  5
12D88
  8
0
 10
4052.8390806568668268
 20
125.2855099033130983
 30
0.0
 40
0.1196006005446139
 50
358.5027518535500235
 51
61.837941763104098
  0
ARC
  5
12D89
  8
0
 10
4052.8614708564241482
 20
125.2849246714164053
 30
0.0
 40
0.097202753939292
 50
289.0336043742692027
 51
358.502751853548375
  0
ARC
  5
12D8A
  8
0
 10
4052.8308309028220719
 20
125.3143922511854953
 30
0.0
 40
0.136431499735677
 50
215.3826183276970028
 51
297.189337739912105
  0
ARC
  5
12D8B
  8
0
 10
4052.8060703139522047
 20
125.2910598619221929
 30
0.0
 40
0.1028406664190445
 50
150.0225778082156012
 51
212.7711300227155107
  0
ARC
  5
12D8C
  8
0
 10
4053.2500599929680902
 20
125.0871656919500055
 30
0.0
 40
0.0205254987755425
 50
95.1802509417619262
 51
198.4656917578070079
  0
ARC
  5
12D8D
  8
0
 10
4053.2503130562408842
 20
125.0843743353206037
 30
0.0
 40
0.0233283032376547
 50
16.1825436951305797
 51
95.1802509417619262
  0
ARC
  5
12D8E
  8
0
 10
4053.2557987189020423
 20
125.0859662554254044
 30
0.0
 40
0.0176163242059638
 50
299.6496699581381904
 51
16.1825436951274604
  0
ARC
  5
12D8F
  8
0
 10
4053.2513805493467771
 20
125.0886361609981066
 30
0.0
 40
0.0222652392835257
 50
200.9793303175044059
 51
306.1455154983657962
  0
ARC
  5
12D90
  8
0
 10
4053.2461555193940512
 20
125.0884564968502985
 30
0.0
 40
0.0542207425891386
 50
137.4293591885137005
 51
209.4768689281071943
  0
ARC
  5
12D91
  8
0
 10
4053.251277962147924
 20
125.0837510112649937
 30
0.0
 40
0.0611763888112017
 50
40.6956337502769685
 51
137.4293591885137005
  0
ARC
  5
12D92
  8
0
 10
4053.2565534681311874
 20
125.0882879628619975
 30
0.0
 40
0.0542183076698685
 50
308.8075088532232826
 51
40.6956337502769685
  0
ARC
  5
12D93
  8
0
 10
4053.2516904532672015
 20
125.094334710592193
 30
0.0
 40
0.06197795145601
 50
211.6903023509399873
 51
308.8075088532228278
  0
ARC
  5
12D94
  8
0
 10
4053.2531757475007907
 20
125.0855698139848045
 30
0.0
 40
0.1347312038520274
 50
61.837941763104098
 51
148.5609699788778926
  0
ARC
  5
12D95
  8
0
 10
4053.2603168937771443
 20
125.0989091987649999
 30
0.0
 40
0.1196006005446139
 50
358.5027518535500235
 51
61.837941763104098
  0
ARC
  5
12D96
  8
0
 10
4053.2827070933331015
 20
125.0983239668683069
 30
0.0
 40
0.097202753939292
 50
289.0336043742692027
 51
358.502751853548375
  0
ARC
  5
12D97
  8
0
 10
4053.2520671397310252
 20
125.1277915466373969
 30
0.0
 40
0.136431499735677
 50
215.3826183276970028
 51
297.189337739912105
  0
ARC
  5
12D98
  8
0
 10
4053.227306550861158
 20
125.1044591573740945
 30
0.0
 40
0.1028406664190445
 50
150.0225778082156012
 51
212.7711300227155107
  0
ARC
  5
12D99
  8
0
 10
4053.7148178428051324
 20
125.0258055705878064
 30
0.0
 40
0.0205254987755425
 50
95.1802509417619262
 51
198.4656917578070079
  0
ARC
  5
12D9A
  8
0
 10
4053.7150709060779263
 20
125.0230142139583052
 30
0.0
 40
0.0233283032376547
 50
16.1825436951305797
 51
95.1802509417619262
  0
ARC
  5
12D9B
  8
0
 10
4053.720556568739994
 20
125.0246061340632053
 30
0.0
 40
0.0176163242059638
 50
299.6496699581381904
 51
16.1825436951274604
  0
ARC
  5
12D9C
  8
0
 10
4053.7161383991851835
 20
125.0272760396358933
 30
0.0
 40
0.0222652392835257
 50
200.9793303175044059
 51
306.1455154983657962
  0
ARC
  5
12D9D
  8
0
 10
4053.7109133692320029
 20
125.0270963754880995
 30
0.0
 40
0.0542207425891386
 50
137.4293591885137005
 51
209.4768689281071943
  0
ARC
  5
12D9E
  8
0
 10
4053.7160358119858756
 20
125.0223908899027947
 30
0.0
 40
0.0611763888112017
 50
40.6956337502769685
 51
137.4293591885137005
  0
ARC
  5
12D9F
  8
0
 10
4053.7213113179691391
 20
125.0269278414997984
 30
0.0
 40
0.0542183076698685
 50
308.8075088532232826
 51
40.6956337502769685
  0
ARC
  5
12DA0
  8
0
 10
4053.7164483031037889
 20
125.032974589229994
 30
0.0
 40
0.06197795145601
 50
211.6903023509399873
 51
308.8075088532228278
  0
ARC
  5
12DA1
  8
0
 10
4053.7179335973391971
 20
125.0242096926226054
 30
0.0
 40
0.1347312038520274
 50
61.837941763104098
 51
148.5609699788778926
  0
ARC
  5
12DA2
  8
0
 10
4053.7250747436150959
 20
125.0375490774028009
 30
0.0
 40
0.1196006005446139
 50
358.5027518535500235
 51
61.837941763104098
  0
ARC
  5
12DA3
  8
0
 10
4053.7474649431710532
 20
125.0369638455060937
 30
0.0
 40
0.097202753939292
 50
289.0336043742692027
 51
358.502751853548375
  0
ARC
  5
12DA4
  8
0
 10
4053.7168249895689769
 20
125.0664314252750984
 30
0.0
 40
0.136431499735677
 50
215.3826183276970028
 51
297.189337739912105
  0
ARC
  5
12DA5
  8
0
 10
4053.6920644007000192
 20
125.043099036011796
 30
0.0
 40
0.1028406664190445
 50
150.0225778082156012
 51
212.7711300227155107
  0
ARC
  5
12DA6
  8
0
 10
4054.1792542027487798
 20
125.0911812884182979
 30
0.0
 40
0.0205254987755425
 50
95.1802509417619262
 51
198.4656917578070079
  0
ARC
  5
12DA7
  8
0
 10
4054.179507266022938
 20
125.0883899317888961
 30
0.0
 40
0.0233283032376547
 50
16.1825436951305797
 51
95.1802509417619262
  0
ARC
  5
12DA8
  8
0
 10
4054.1849929286840961
 20
125.0899818518936968
 30
0.0
 40
0.0176163242059638
 50
299.6496699581381904
 51
16.1825436951274604
  0
ARC
  5
12DA9
  8
0
 10
4054.1805747591279214
 20
125.092651757466399
 30
0.0
 40
0.0222652392835257
 50
200.9793303175044059
 51
306.1455154983657962
  0
ARC
  5
12DAA
  8
0
 10
4054.175349729176105
 20
125.0924720933186052
 30
0.0
 40
0.0542207425891386
 50
137.4293591885137005
 51
209.4768689281071943
  0
ARC
  5
12DAB
  8
0
 10
4054.1804721719299778
 20
125.0877666077333998
 30
0.0
 40
0.0611763888112017
 50
40.6956337502769685
 51
137.4293591885137005
  0
ARC
  5
12DAC
  8
0
 10
4054.185747677911877
 20
125.0923035593303041
 30
0.0
 40
0.0542183076698685
 50
308.8075088532232826
 51
40.6956337502769685
  0
ARC
  5
12DAD
  8
0
 10
4054.1808846630478911
 20
125.0983503070604996
 30
0.0
 40
0.06197795145601
 50
211.6903023509399873
 51
308.8075088532228278
  0
ARC
  5
12DAE
  8
0
 10
4054.1823699572828446
 20
125.0895854104530969
 30
0.0
 40
0.1347312038520274
 50
61.837941763104098
 51
148.5609699788778926
  0
ARC
  5
12DAF
  8
0
 10
4054.1895111035578338
 20
125.1029247952333066
 30
0.0
 40
0.1196006005446139
 50
358.5027518535500235
 51
61.837941763104098
  0
ARC
  5
12DB0
  8
0
 10
4054.2119013031151553
 20
125.1023395633365993
 30
0.0
 40
0.097202753939292
 50
289.0336043742692027
 51
358.502751853548375
  0
ARC
  5
12DB1
  8
0
 10
4054.181261349513079
 20
125.1318071431057035
 30
0.0
 40
0.136431499735677
 50
215.3826183276970028
 51
297.189337739912105
  0
ARC
  5
12DB2
  8
0
 10
4054.1565007606432118
 20
125.1084747538424011
 30
0.0
 40
0.1028406664190445
 50
150.0225778082156012
 51
212.7711300227155107
  0
ARC
  5
12DB3
  8
0
 10
4054.5994802103659822
 20
125.2721019532283009
 30
0.0
 40
0.0205254987755425
 50
95.1802509417619262
 51
198.4656917578070079
  0
ARC
  5
12DB4
  8
0
 10
4054.5997332736387762
 20
125.2693105965988991
 30
0.0
 40
0.0233283032376547
 50
16.1825436951305797
 51
95.1802509417619262
  0
ARC
  5
12DB5
  8
0
 10
4054.6052189362999343
 20
125.2709025167036998
 30
0.0
 40
0.0176163242059638
 50
299.6496699581381904
 51
16.1825436951274604
  0
ARC
  5
12DB6
  8
0
 10
4054.6008007667451238
 20
125.273572422276402
 30
0.0
 40
0.0222652392835257
 50
200.9793303175044059
 51
306.1455154983657962
  0
ARC
  5
12DB7
  8
0
 10
4054.5955757367919432
 20
125.273392758128594
 30
0.0
 40
0.0542207425891386
 50
137.4293591885137005
 51
209.4768689281071943
  0
ARC
  5
12DB8
  8
0
 10
4054.6006981795458159
 20
125.2686872725434029
 30
0.0
 40
0.0611763888112017
 50
40.6956337502769685
 51
137.4293591885137005
  0
ARC
  5
12DB9
  8
0
 10
4054.6059736855290794
 20
125.2732242241402929
 30
0.0
 40
0.0542183076698685
 50
308.8075088532232826
 51
40.6956337502769685
  0
ARC
  5
12DBA
  8
0
 10
4054.6011106706650935
 20
125.2792709718705026
 30
0.0
 40
0.06197795145601
 50
211.6903023509399873
 51
308.8075088532228278
  0
ARC
  5
12DBB
  8
0
 10
4054.6025959648991375
 20
125.2705060752630999
 30
0.0
 40
0.1347312038520274
 50
61.837941763104098
 51
148.5609699788778926
  0
ARC
  5
12DBC
  8
0
 10
4054.6097371111741268
 20
125.2838454600433948
 30
0.0
 40
0.1196006005446139
 50
358.5027518535500235
 51
61.837941763104098
  0
ARC
  5
12DBD
  8
0
 10
4054.6321273107309935
 20
125.2832602281467018
 30
0.0
 40
0.097202753939292
 50
289.0336043742692027
 51
358.502751853548375
  0
ARC
  5
12DBE
  8
0
 10
4054.6014873571289172
 20
125.3127278079157065
 30
0.0
 40
0.136431499735677
 50
215.3826183276970028
 51
297.189337739912105
  0
ARC
  5
12DBF
  8
0
 10
4054.57672676825905
 20
125.2893954186524041
 30
0.0
 40
0.1028406664190445
 50
150.0225778082156012
 51
212.7711300227155107
  0
ARC
  5
12DC0
  8
0
 10
4054.9507937664498058
 20
125.5619984602042933
 30
0.0
 40
0.0205254987755425
 50
95.1802509417619262
 51
198.4656917578070079
  0
ARC
  5
12DC1
  8
0
 10
4054.951046829723964
 20
125.5592071035749058
 30
0.0
 40
0.0233283032376547
 50
16.1825436951305797
 51
95.1802509417619262
  0
ARC
  5
12DC2
  8
0
 10
4054.9565324923851222
 20
125.5607990236797065
 30
0.0
 40
0.0176163242059638
 50
299.6496699581381904
 51
16.1825436951274604
  0
ARC
  5
12DC3
  8
0
 10
4054.9521143228289475
 20
125.5634689292523944
 30
0.0
 40
0.0222652392835257
 50
200.9793303175044059
 51
306.1455154983657962
  0
ARC
  5
12DC4
  8
0
 10
4054.9468892928762216
 20
125.5632892651046006
 30
0.0
 40
0.0542207425891386
 50
137.4293591885137005
 51
209.4768689281071943
  0
ARC
  5
12DC5
  8
0
 10
4054.9520117356310038
 20
125.5585837795192958
 30
0.0
 40
0.0611763888112017
 50
40.6956337502769685
 51
137.4293591885137005
  0
ARC
  5
12DC6
  8
0
 10
4054.9572872416138125
 20
125.5631207311162996
 30
0.0
 40
0.0542183076698685
 50
308.8075088532232826
 51
40.6956337502769685
  0
ARC
  5
12DC7
  8
0
 10
4054.9524242267489171
 20
125.5691674788464951
 30
0.0
 40
0.06197795145601
 50
211.6903023509399873
 51
308.8075088532228278
  0
ARC
  5
12DC8
  8
0
 10
4054.9539095209838706
 20
125.5604025822391066
 30
0.0
 40
0.1347312038520274
 50
61.837941763104098
 51
148.5609699788778926
  0
ARC
  5
12DC9
  8
0
 10
4054.9610506672602241
 20
125.573741967019302
 30
0.0
 40
0.1196006005446139
 50
358.5027518535500235
 51
61.837941763104098
  0
ARC
  5
12DCA
  8
0
 10
4054.9834408668148171
 20
125.5731567351225948
 30
0.0
 40
0.097202753939292
 50
289.0336043742692027
 51
358.502751853548375
  0
ARC
  5
12DCB
  8
0
 10
4054.9528009132141051
 20
125.6026243148915995
 30
0.0
 40
0.136431499735677
 50
215.3826183276970028
 51
297.189337739912105
  0
ARC
  5
12DCC
  8
0
 10
4054.9280403243451474
 20
125.5792919256283966
 30
0.0
 40
0.1028406664190445
 50
150.0225778082156012
 51
212.7711300227155107
  0
ARC
  5
12DCD
  8
0
 10
4055.2054357234160307
 20
125.9367871191703045
 30
0.0
 40
0.0205254987755425
 50
95.1802509417619262
 51
198.4656917578070079
  0
ARC
  5
12DCE
  8
0
 10
4055.2056887866888246
 20
125.9339957625409028
 30
0.0
 40
0.0233283032376547
 50
16.1825436951305797
 51
95.1802509417619262
  0
ARC
  5
12DCF
  8
0
 10
4055.2111744493508922
 20
125.9355876826457035
 30
0.0
 40
0.0176163242059638
 50
299.6496699581381904
 51
16.1825436951274604
  0
ARC
  5
12DD0
  8
0
 10
4055.2067562797960818
 20
125.9382575882184057
 30
0.0
 40
0.0222652392835257
 50
200.9793303175044059
 51
306.1455154983657962
  0
ARC
  5
12DD1
  8
0
 10
4055.2015312498429012
 20
125.9380779240705976
 30
0.0
 40
0.0542207425891386
 50
137.4293591885137005
 51
209.4768689281071943
  0
ARC
  5
12DD2
  8
0
 10
4055.2066536925967739
 20
125.9333724384854065
 30
0.0
 40
0.0611763888112017
 50
40.6956337502769685
 51
137.4293591885137005
  0
ARC
  5
12DD3
  8
0
 10
4055.2119291985800373
 20
125.9379093900822966
 30
0.0
 40
0.0542183076698685
 50
308.8075088532232826
 51
40.6956337502769685
  0
ARC
  5
12DD4
  8
0
 10
4055.207066183715142
 20
125.9439561378125063
 30
0.0
 40
0.06197795145601
 50
211.6903023509399873
 51
308.8075088532228278
  0
ARC
  5
12DD5
  8
0
 10
4055.2085514779500954
 20
125.9351912412051036
 30
0.0
 40
0.1347312038520274
 50
61.837941763104098
 51
148.5609699788778926
  0
ARC
  5
12DD6
  8
0
 10
4055.2156926242250847
 20
125.948530625985299
 30
0.0
 40
0.1196006005446139
 50
358.5027518535500235
 51
61.837941763104098
  0
ARC
  5
12DD7
  8
0
 10
4055.2380828237828609
 20
125.947945394088606
 30
0.0
 40
0.097202753939292
 50
289.0336043742692027
 51
358.502751853548375
  0
ARC
  5
12DD8
  8
0
 10
4055.2074428701798752
 20
125.977412973857696
 30
0.0
 40
0.136431499735677
 50
215.3826183276970028
 51
297.189337739912105
  0
ARC
  5
12DD9
  8
0
 10
4055.1826822813109175
 20
125.9540805845943936
 30
0.0
 40
0.1028406664190445
 50
150.0225778082156012
 51
212.7711300227155107
  0
ARC
  5
12DDA
  8
0
 10
4055.3390989122572137
 20
126.3643673583656977
 30
0.0
 40
0.0205254987755425
 50
95.1802509417619262
 51
198.4656917578070079
  0
ARC
  5
12DDB
  8
0
 10
4055.3393519755300076
 20
126.3615760017361964
 30
0.0
 40
0.0233283032376547
 50
16.1825436951305797
 51
95.1802509417619262
  0
ARC
  5
12DDC
  8
0
 10
4055.3448376381929847
 20
126.3631679218410966
 30
0.0
 40
0.0176163242059638
 50
299.6496699581381904
 51
16.1825436951274604
  0
ARC
  5
12DDD
  8
0
 10
4055.3404194686368101
 20
126.3658378274137988
 30
0.0
 40
0.0222652392835257
 50
200.9793303175044059
 51
306.1455154983657962
  0
ARC
  5
12DDE
  8
0
 10
4055.3351944386840842
 20
126.3656581632659055
 30
0.0
 40
0.0542207425891386
 50
137.4293591885137005
 51
209.4768689281071943
  0
ARC
  5
12DDF
  8
0
 10
4055.3403168814379569
 20
126.3609526776807002
 30
0.0
 40
0.0611763888112017
 50
40.6956337502769685
 51
137.4293591885137005
  0
ARC
  5
12DE0
  8
0
 10
4055.3455923874198561
 20
126.3654896292776044
 30
0.0
 40
0.0542183076698685
 50
308.8075088532232826
 51
40.6956337502769685
  0
ARC
  5
12DE1
  8
0
 10
4055.3407293725558702
 20
126.3715363770078994
 30
0.0
 40
0.06197795145601
 50
211.6903023509399873
 51
308.8075088532228278
  0
ARC
  5
12DE2
  8
0
 10
4055.3422146667908237
 20
126.3627714804004967
 30
0.0
 40
0.1347312038520274
 50
61.837941763104098
 51
148.5609699788778926
  0
ARC
  5
12DE3
  8
0
 10
4055.349355813065813
 20
126.3761108651807064
 30
0.0
 40
0.1196006005446139
 50
358.5027518535500235
 51
61.837941763104098
  0
ARC
  5
12DE4
  8
0
 10
4055.3717460126240439
 20
126.3755256332839991
 30
0.0
 40
0.097202753939292
 50
289.0336043742692027
 51
358.502751853548375
  0
ARC
  5
12DE5
  8
0
 10
4055.3411060590210582
 20
126.4049932130530038
 30
0.0
 40
0.136431499735677
 50
215.3826183276970028
 51
297.189337739912105
  0
ARC
  5
12DE6
  8
0
 10
4055.3163454701521005
 20
126.3816608237897015
 30
0.0
 40
0.1028406664190445
 50
150.0225778082156012
 51
212.7711300227155107
  0
ARC
  5
12DE7
  8
0
 10
4055.3408015651789356
 20
126.8099316445955935
 30
0.0
 40
0.0205254987755425
 50
95.1802509417619262
 51
198.4656917578070079
  0
ARC
  5
12DE8
  8
0
 10
4055.3410546284540033
 20
126.807140287966206
 30
0.0
 40
0.0233283032376547
 50
16.1825436951305797
 51
95.1802509417619262
  0
ARC
  5
12DE9
  8
0
 10
4055.3465402911151614
 20
126.8087322080710067
 30
0.0
 40
0.0176163242059638
 50
299.6496699581381904
 51
16.1825436951274604
  0
ARC
  5
12DEA
  8
0
 10
4055.3421221215589867
 20
126.8114021136436946
 30
0.0
 40
0.0222652392835257
 50
200.9793303175044059
 51
306.1455154983657962
  0
ARC
  5
12DEB
  8
0
 10
4055.3368970916048966
 20
126.8112224494959008
 30
0.0
 40
0.0542207425891386
 50
137.4293591885137005
 51
209.4768689281071943
  0
ARC
  5
12DEC
  8
0
 10
4055.342019534361043
 20
126.806516963910596
 30
0.0
 40
0.0611763888112017
 50
40.6956337502769685
 51
137.4293591885137005
  0
ARC
  5
12DED
  8
0
 10
4055.3472950403438517
 20
126.8110539155075998
 30
0.0
 40
0.0542183076698685
 50
308.8075088532232826
 51
40.6956337502769685
  0
ARC
  5
12DEE
  8
0
 10
4055.3424320254780469
 20
126.8171006632377953
 30
0.0
 40
0.06197795145601
 50
211.6903023509399873
 51
308.8075088532228278
  0
ARC
  5
12DEF
  8
0
 10
4055.3439173197139098
 20
126.8083357666304067
 30
0.0
 40
0.1347312038520274
 50
61.837941763104098
 51
148.5609699788778926
  0
ARC
  5
12DF0
  8
0
 10
4055.3510584659898086
 20
126.8216751514106022
 30
0.0
 40
0.1196006005446139
 50
358.5027518535500235
 51
61.837941763104098
  0
ARC
  5
12DF1
  8
0
 10
4055.3734486655462206
 20
126.821089919513895
 30
0.0
 40
0.097202753939292
 50
289.0336043742692027
 51
358.502751853548375
  0
ARC
  5
12DF2
  8
0
 10
4055.3428087119441443
 20
126.8505574992828997
 30
0.0
 40
0.136431499735677
 50
215.3826183276970028
 51
297.189337739912105
  0
ARC
  5
12DF3
  8
0
 10
4055.3180481230751866
 20
126.8272251100195973
 30
0.0
 40
0.1028406664190445
 50
150.0225778082156012
 51
212.7711300227155107
  0
ARC
  5
12DF4
  8
0
 10
4055.2061472338427848
 20
127.2329466001972946
 30
0.0
 40
0.0205254987755425
 50
95.1802509417619262
 51
198.4656917578070079
  0
ARC
  5
12DF5
  8
0
 10
4055.206400297116943
 20
127.2301552435680065
 30
0.0
 40
0.0233283032376547
 50
16.1825436951305797
 51
95.1802509417619262
  0
ARC
  5
12DF6
  8
0
 10
4055.2118859597790106
 20
127.231747163672793
 30
0.0
 40
0.0176163242059638
 50
299.6496699581381904
 51
16.1825436951274604
  0
ARC
  5
12DF7
  8
0
 10
4055.2074677902242001
 20
127.2344170692454952
 30
0.0
 40
0.0222652392835257
 50
200.9793303175044059
 51
306.1455154983657962
  0
ARC
  5
12DF8
  8
0
 10
4055.20224276027011
 20
127.2342374050976019
 30
0.0
 40
0.0542207425891386
 50
137.4293591885137005
 51
209.4768689281071943
  0
ARC
  5
12DF9
  8
0
 10
4055.2073652030248923
 20
127.2295319195123966
 30
0.0
 40
0.0611763888112017
 50
40.6956337502769685
 51
137.4293591885137005
  0
ARC
  5
12DFA
  8
0
 10
4055.2126407090067914
 20
127.2340688711094003
 30
0.0
 40
0.0542183076698685
 50
308.8075088532232826
 51
40.6956337502769685
  0
ARC
  5
12DFB
  8
0
 10
4055.2077776941428056
 20
127.2401156188395959
 30
0.0
 40
0.06197795145601
 50
211.6903023509399873
 51
308.8075088532228278
  0
ARC
  5
12DFC
  8
0
 10
4055.2092629883782138
 20
127.2313507222321931
 30
0.0
 40
0.1347312038520274
 50
61.837941763104098
 51
148.5609699788778926
  0
ARC
  5
12DFD
  8
0
 10
4055.2164041346532031
 20
127.2446901070124028
 30
0.0
 40
0.1196006005446139
 50
358.5027518535500235
 51
61.837941763104098
  0
ARC
  5
12DFE
  8
0
 10
4055.2387943342100698
 20
127.2441048751156956
 30
0.0
 40
0.097202753939292
 50
289.0336043742692027
 51
358.502751853548375
  0
ARC
  5
12DFF
  8
0
 10
4055.2081543806079935
 20
127.2735724548847003
 30
0.0
 40
0.136431499735677
 50
215.3826183276970028
 51
297.189337739912105
  0
ARC
  5
12E00
  8
0
 10
4055.1833937917390358
 20
127.2502400656214974
 30
0.0
 40
0.1028406664190445
 50
150.0225778082156012
 51
212.7711300227155107
  0
ARC
  5
12E01
  8
0
 10
4054.946169651891978
 20
127.6027033711768013
 30
0.0
 40
0.0205254987755425
 50
95.1802509417619262
 51
198.4656917578070079
  0
ARC
  5
12E02
  8
0
 10
4054.9464227151661362
 20
127.5999120145473995
 30
0.0
 40
0.0233283032376547
 50
16.1825436951305797
 51
95.1802509417619262
  0
ARC
  5
12E03
  8
0
 10
4054.9519083778268396
 20
127.6015039346522002
 30
0.0
 40
0.0176163242059638
 50
299.6496699581381904
 51
16.1825436951274604
  0
ARC
  5
12E04
  8
0
 10
4054.9474902082720291
 20
127.6041738402249024
 30
0.0
 40
0.0222652392835257
 50
200.9793303175044059
 51
306.1455154983657962
  0
ARC
  5
12E05
  8
0
 10
4054.942265178317939
 20
127.6039941760770944
 30
0.0
 40
0.0542207425891386
 50
137.4293591885137005
 51
209.4768689281071943
  0
ARC
  5
12E06
  8
0
 10
4054.947387621073176
 20
127.5992886904919033
 30
0.0
 40
0.0611763888112017
 50
40.6956337502769685
 51
137.4293591885137005
  0
ARC
  5
12E07
  8
0
 10
4054.9526631270559847
 20
127.6038256420887933
 30
0.0
 40
0.0542183076698685
 50
308.8075088532232826
 51
40.6956337502769685
  0
ARC
  5
12E08
  8
0
 10
4054.9478001121910893
 20
127.609872389819003
 30
0.0
 40
0.06197795145601
 50
211.6903023509399873
 51
308.8075088532228278
  0
ARC
  5
12E09
  8
0
 10
4054.9492854064260428
 20
127.6011074932116003
 30
0.0
 40
0.1347312038520274
 50
61.837941763104098
 51
148.5609699788778926
  0
ARC
  5
12E0A
  8
0
 10
4054.9564265527019415
 20
127.6144468779917958
 30
0.0
 40
0.1196006005446139
 50
358.5027518535500235
 51
61.837941763104098
  0
ARC
  5
12E0B
  8
0
 10
4054.9788167522578988
 20
127.6138616460951027
 30
0.0
 40
0.097202753939292
 50
289.0336043742692027
 51
358.502751853548375
  0
ARC
  5
12E0C
  8
0
 10
4054.9481767986558225
 20
127.6433292258642069
 30
0.0
 40
0.136431499735677
 50
215.3826183276970028
 51
297.189337739912105
  0
ARC
  5
12E0D
  8
0
 10
4054.9234162097868648
 20
127.6199968366009045
 30
0.0
 40
0.1028406664190445
 50
150.0225778082156012
 51
212.7711300227155107
  0
ARC
  5
12E0E
  8
0
 10
4054.607092487493901
 20
127.9039643835176037
 30
0.0
 40
0.0205254987755425
 50
95.1802509417619262
 51
198.4656917578070079
  0
ARC
  5
12E0F
  8
0
 10
4054.6073455507680592
 20
127.9011730268882019
 30
0.0
 40
0.0233283032376547
 50
16.1825436951305797
 51
95.1802509417619262
  0
ARC
  5
12E10
  8
0
 10
4054.6128312134301268
 20
127.9027649469930026
 30
0.0
 40
0.0176163242059638
 50
299.6496699581381904
 51
16.1825436951274604
  0
ARC
  5
12E11
  8
0
 10
4054.6084130438739521
 20
127.9054348525657048
 30
0.0
 40
0.0222652392835257
 50
200.9793303175044059
 51
306.1455154983657962
  0
ARC
  5
12E12
  8
0
 10
4054.6031880139212262
 20
127.9052551884177973
 30
0.0
 40
0.0542207425891386
 50
137.4293591885137005
 51
209.4768689281071943
  0
ARC
  5
12E13
  8
0
 10
4054.608310456675099
 20
127.9005497028326062
 30
0.0
 40
0.0611763888112017
 50
40.6956337502769685
 51
137.4293591885137005
  0
ARC
  5
12E14
  8
0
 10
4054.6135859626579077
 20
127.9050866544294962
 30
0.0
 40
0.0542183076698685
 50
308.8075088532232826
 51
40.6956337502769685
  0
ARC
  5
12E15
  8
0
 10
4054.6087229477939218
 20
127.9111334021598054
 30
0.0
 40
0.06197795145601
 50
211.6903023509399873
 51
308.8075088532228278
  0
ARC
  5
12E16
  8
0
 10
4054.6102082420279658
 20
127.9023685055524027
 30
0.0
 40
0.1347312038520274
 50
61.837941763104098
 51
148.5609699788778926
  0
ARC
  5
12E17
  8
0
 10
4054.6173493883038645
 20
127.9157078903325981
 30
0.0
 40
0.1196006005446139
 50
358.5027518535500235
 51
61.837941763104098
  0
ARC
  5
12E18
  8
0
 10
4054.639739587861186
 20
127.9151226584359051
 30
0.0
 40
0.097202753939292
 50
289.0336043742692027
 51
358.502751853548375
  0
ARC
  5
12E19
  8
0
 10
4054.6090996342582002
 20
127.9445902382048956
 30
0.0
 40
0.136431499735677
 50
215.3826183276970028
 51
297.189337739912105
  0
ARC
  5
12E1A
  8
0
 10
4054.584339045390152
 20
127.9212578489417069
 30
0.0
 40
0.1028406664190445
 50
150.0225778082156012
 51
212.7711300227155107
  0
ARC
  5
12E1B
  8
0
 10
4054.1740967501000341
 20
128.0798231162191883
 30
0.0
 40
0.0205254987755425
 50
95.1802509417619262
 51
198.4656917578070079
  0
ARC
  5
12E1C
  8
0
 10
4054.1743498133719186
 20
128.077031759589687
 30
0.0
 40
0.0233283032376547
 50
16.1825436951305797
 51
95.1802509417619262
  0
ARC
  5
12E1D
  8
0
 10
4054.1798354760339862
 20
128.0786236796946014
 30
0.0
 40
0.0176163242059638
 50
299.6496699581381904
 51
16.1825436951274604
  0
ARC
  5
12E1E
  8
0
 10
4054.1754173064791757
 20
128.0812935852673036
 30
0.0
 40
0.0222652392835257
 50
200.9793303175044059
 51
306.1455154983657962
  0
ARC
  5
12E1F
  8
0
 10
4054.1701922765259951
 20
128.0811139211195098
 30
0.0
 40
0.0542207425891386
 50
137.4293591885137005
 51
209.4768689281071943
  0
ARC
  5
12E20
  8
0
 10
4054.1753147192798679
 20
128.076408435534205
 30
0.0
 40
0.0611763888112017
 50
40.6956337502769685
 51
137.4293591885137005
  0
ARC
  5
12E21
  8
0
 10
4054.1805902252631313
 20
128.080945387131095
 30
0.0
 40
0.0542183076698685
 50
308.8075088532232826
 51
40.6956337502769685
  0
ARC
  5
12E22
  8
0
 10
4054.1757272103977812
 20
128.08699213486139
 30
0.0
 40
0.06197795145601
 50
211.6903023509399873
 51
308.8075088532228278
  0
ARC
  5
12E23
  8
0
 10
4054.1772125046331894
 20
128.0782272382539873
 30
0.0
 40
0.1347312038520274
 50
61.837941763104098
 51
148.5609699788778926
  0
ARC
  5
12E24
  8
0
 10
4054.1843536509090882
 20
128.0915666230341969
 30
0.0
 40
0.1196006005446139
 50
358.5027518535500235
 51
61.837941763104098
  0
ARC
  5
12E25
  8
0
 10
4054.2067438504650454
 20
128.0909813911374897
 30
0.0
 40
0.097202753939292
 50
289.0336043742692027
 51
358.502751853548375
  0
ARC
  5
12E26
  8
0
 10
4054.1761038968629691
 20
128.1204489709064944
 30
0.0
 40
0.136431499735677
 50
215.3826183276970028
 51
297.189337739912105
  0
ARC
  5
12E27
  8
0
 10
4054.1513433079940114
 20
128.0971165816432915
 30
0.0
 40
0.1028406664190445
 50
150.0225778082156012
 51
212.7711300227155107
  0
ARC
  5
12E28
  8
0
 10
4053.1273709669931122
 20
127.6038461865529001
 30
0.0
 40
0.0230598053813681
 50
136.7902065223470061
 51
210.1534179693356919
  0
ARC
  5
12E29
  8
0
 10
4053.1331019238568842
 20
127.5984626161244933
 30
0.0
 40
0.0309228008124618
 50
68.2352806899899065
 51
136.7902065223470061
  0
ARC
  5
12E2A
  8
0
 10
4053.1355872099561566
 20
127.604687388166596
 30
0.0
 40
0.0242202316060076
 50
358.1469108116622806
 51
68.2352806899899065
  0
ARC
  5
12E2B
  8
0
 10
4053.1348529517831594
 20
127.6047111442010049
 30
0.0
 40
0.024954873976504
 50
275.8473334696062125
 51
358.1469108116622806
  0
ARC
  5
12E2C
  8
0
 10
4053.1312088197978483
 20
127.6073679223104023
 30
0.0
 40
0.028169530813542
 50
212.4266984813590966
 51
282.6864984073091023
  0
ARC
  5
12E2D
  8
0
 10
4053.1285736272161557
 20
127.5998345341354963
 30
0.0
 40
0.0442294214127631
 50
106.9255892286429059
 51
179.105644514127107
  0
ARC
  5
12E2E
  8
0
 10
4053.1337706329431967
 20
127.5965017580505929
 30
0.0
 40
0.049094191410641
 50
36.0876642339526228
 51
111.6009006247503947
  0
ARC
  5
12E2F
  8
0
 10
4053.1401536075591139
 20
127.6036974709225973
 30
0.0
 40
0.0397507348356916
 50
333.5153519207609065
 51
33.1239376860875865
  0
ARC
  5
12E30
  8
0
 10
4053.1307382102891097
 20
127.610286648949895
 30
0.0
 40
0.0511447404189115
 50
252.7511919090869128
 51
331.6118944458846727
  0
ARC
  5
12E31
  8
0
 10
4053.1268641457618287
 20
127.6024761882694065
 30
0.0
 40
0.0425593071084757
 50
182.6278533982203953
 51
254.6145542593478126
  0
ARC
  5
12E32
  8
0
 10
4053.1322111150720957
 20
127.6306852349408985
 30
0.0
 40
0.0305967840099481
 50
213.2485648308274904
 51
269.2713820627380983
  0
ARC
  5
12E33
  8
0
 10
4053.1321971558099904
 20
127.6295875901765982
 30
0.0
 40
0.029499050486001
 50
269.2713820627380983
 51
329.6401876224661009
  0
ARC
  5
12E34
  8
0
 10
4052.5490189045631269
 20
126.6418100211613051
 30
0.0
 40
0.0230598053813681
 50
136.7902065223470061
 51
210.1534179693356919
  0
ARC
  5
12E35
  8
0
 10
4052.5547498614268989
 20
126.6364264507328983
 30
0.0
 40
0.0309228008124618
 50
68.2352806899899065
 51
136.7902065223470061
  0
ARC
  5
12E36
  8
0
 10
4052.5572351475270807
 20
126.642651222775001
 30
0.0
 40
0.0242202316060076
 50
358.1469108116622806
 51
68.2352806899899065
  0
ARC
  5
12E37
  8
0
 10
4052.5565008893540835
 20
126.6426749788093957
 30
0.0
 40
0.024954873976504
 50
275.8473334696062125
 51
358.1469108116622806
  0
ARC
  5
12E38
  8
0
 10
4052.5528567573692271
 20
126.6453317569187931
 30
0.0
 40
0.028169530813542
 50
212.4266984813590966
 51
282.6864984073091023
  0
ARC
  5
12E39
  8
0
 10
4052.5502215647870798
 20
126.6377983687439013
 30
0.0
 40
0.0442294214127631
 50
106.9255892286429059
 51
179.105644514127107
  0
ARC
  5
12E3A
  8
0
 10
4052.5554185705141208
 20
126.6344655926589979
 30
0.0
 40
0.049094191410641
 50
36.0876642339526228
 51
111.6009006247503947
  0
ARC
  5
12E3B
  8
0
 10
4052.561801545130038
 20
126.6416613055310023
 30
0.0
 40
0.0397507348356916
 50
333.5153519207609065
 51
33.1239376860875865
  0
ARC
  5
12E3C
  8
0
 10
4052.5523861478600338
 20
126.6482504835583001
 30
0.0
 40
0.0511447404189115
 50
252.7511919090869128
 51
331.6118944458846727
  0
ARC
  5
12E3D
  8
0
 10
4052.5485120833318433
 20
126.6404400228777973
 30
0.0
 40
0.0425593071084757
 50
182.6278533982203953
 51
254.6145542593478126
  0
ARC
  5
12E3E
  8
0
 10
4052.5538590526421103
 20
126.6686490695493035
 30
0.0
 40
0.0305967840099481
 50
213.2485648308274904
 51
269.2713820627380983
  0
ARC
  5
12E3F
  8
0
 10
4052.5538450933809145
 20
126.6675514247850032
 30
0.0
 40
0.029499050486001
 50
269.2713820627380983
 51
329.6401876224661009
  0
ARC
  5
12E40
  8
0
 10
4053.1284124828871427
 20
125.6807471870469044
 30
0.0
 40
0.0230598053813681
 50
136.7902065223470061
 51
210.1534179693356919
  0
ARC
  5
12E41
  8
0
 10
4053.1341434397518242
 20
125.6753636166184975
 30
0.0
 40
0.0309228008124618
 50
68.2352806899899065
 51
136.7902065223470061
  0
ARC
  5
12E42
  8
0
 10
4053.1366287258510965
 20
125.6815883886606002
 30
0.0
 40
0.0242202316060076
 50
358.1469108116622806
 51
68.2352806899899065
  0
ARC
  5
12E43
  8
0
 10
4053.1358944676780993
 20
125.681612144694995
 30
0.0
 40
0.024954873976504
 50
275.8473334696062125
 51
358.1469108116622806
  0
ARC
  5
12E44
  8
0
 10
4053.1322503356941525
 20
125.6842689228044065
 30
0.0
 40
0.028169530813542
 50
212.4266984813590966
 51
282.6864984073091023
  0
ARC
  5
12E45
  8
0
 10
4053.1296151431120052
 20
125.6767355346295005
 30
0.0
 40
0.0442294214127631
 50
106.9255892286429059
 51
179.105644514127107
  0
ARC
  5
12E46
  8
0
 10
4053.1348121488381366
 20
125.6734027585445972
 30
0.0
 40
0.049094191410641
 50
36.0876642339526228
 51
111.6009006247503947
  0
ARC
  5
12E47
  8
0
 10
4053.1411951234540538
 20
125.6805984714166016
 30
0.0
 40
0.0397507348356916
 50
333.5153519207609065
 51
33.1239376860875865
  0
ARC
  5
12E48
  8
0
 10
4053.1317797261849591
 20
125.6871876494438993
 30
0.0
 40
0.0511447404189115
 50
252.7511919090869128
 51
331.6118944458846727
  0
ARC
  5
12E49
  8
0
 10
4053.1279056616572234
 20
125.6793771887633966
 30
0.0
 40
0.0425593071084757
 50
182.6278533982203953
 51
254.6145542593478126
  0
ARC
  5
12E4A
  8
0
 10
4053.1332526309670357
 20
125.7075862354350022
 30
0.0
 40
0.0305967840099481
 50
213.2485648308274904
 51
269.2713820627380983
  0
ARC
  5
12E4B
  8
0
 10
4053.1332386717058398
 20
125.7064885906706024
 30
0.0
 40
0.029499050486001
 50
269.2713820627380983
 51
329.6401876224661009
  0
ARC
  5
12E4C
  8
0
 10
4054.2946938016848435
 20
125.6809407203893016
 30
0.0
 40
0.0230598053813681
 50
136.7902065223470061
 51
210.1534179693356919
  0
ARC
  5
12E4D
  8
0
 10
4054.3004247585499797
 20
125.6755571499609943
 30
0.0
 40
0.0309228008124618
 50
68.2352806899899065
 51
136.7902065223470061
  0
ARC
  5
12E4E
  8
0
 10
4054.3029100446487973
 20
125.6817819220029975
 30
0.0
 40
0.0242202316060076
 50
358.1469108116622806
 51
68.2352806899899065
  0
ARC
  5
12E4F
  8
0
 10
4054.3021757864771644
 20
125.6818056780374064
 30
0.0
 40
0.024954873976504
 50
275.8473334696062125
 51
358.1469108116622806
  0
ARC
  5
12E50
  8
0
 10
4054.2985316544918533
 20
125.6844624561468038
 30
0.0
 40
0.028169530813542
 50
212.4266984813590966
 51
282.6864984073091023
  0
ARC
  5
12E51
  8
0
 10
4054.2958964619087965
 20
125.6769290679718978
 30
0.0
 40
0.0442294214127631
 50
106.9255892286429059
 51
179.105644514127107
  0
ARC
  5
12E52
  8
0
 10
4054.3010934676358374
 20
125.6735962918869944
 30
0.0
 40
0.049094191410641
 50
36.0876642339526228
 51
111.6009006247503947
  0
ARC
  5
12E53
  8
0
 10
4054.3074764422522094
 20
125.6807920047590983
 30
0.0
 40
0.0397507348356916
 50
333.5153519207609065
 51
33.1239376860875865
  0
ARC
  5
12E54
  8
0
 10
4054.2980610449822052
 20
125.6873811827862966
 30
0.0
 40
0.0511447404189115
 50
252.7511919090869128
 51
331.6118944458846727
  0
ARC
  5
12E55
  8
0
 10
4054.2941869804549242
 20
125.6795707221057938
 30
0.0
 40
0.0425593071084757
 50
182.6278533982203953
 51
254.6145542593478126
  0
ARC
  5
12E56
  8
0
 10
4054.2995339497651912
 20
125.7077797687773995
 30
0.0
 40
0.0305967840099481
 50
213.2485648308274904
 51
269.2713820627380983
  0
ARC
  5
12E57
  8
0
 10
4054.2995199905030859
 20
125.7066821240130992
 30
0.0
 40
0.029499050486001
 50
269.2713820627380983
 51
329.6401876224661009
  0
ARC
  5
12E58
  8
0
 10
4054.8796646772639178
 20
126.6421589473370943
 30
0.0
 40
0.0230598053813681
 50
136.7902065223470061
 51
210.1534179693356919
  0
ARC
  5
12E59
  8
0
 10
4054.8853956341299636
 20
126.6367753769087017
 30
0.0
 40
0.0309228008124618
 50
68.2352806899899065
 51
136.7902065223470061
  0
ARC
  5
12E5A
  8
0
 10
4054.8878809202287812
 20
126.6430001489508044
 30
0.0
 40
0.0242202316060076
 50
358.1469108116622806
 51
68.2352806899899065
  0
ARC
  5
12E5B
  8
0
 10
4054.887146662055784
 20
126.6430239049851991
 30
0.0
 40
0.024954873976504
 50
275.8473334696062125
 51
358.1469108116622806
  0
ARC
  5
12E5C
  8
0
 10
4054.8835025300709276
 20
126.6456806830945965
 30
0.0
 40
0.028169530813542
 50
212.4266984813590966
 51
282.6864984073091023
  0
ARC
  5
12E5D
  8
0
 10
4054.8808673374901446
 20
126.6381472949197047
 30
0.0
 40
0.0442294214127631
 50
106.9255892286429059
 51
179.105644514127107
  0
ARC
  5
12E5E
  8
0
 10
4054.8860643432149118
 20
126.6348145188348013
 30
0.0
 40
0.049094191410641
 50
36.0876642339526228
 51
111.6009006247503947
  0
ARC
  5
12E5F
  8
0
 10
4054.8924473178321932
 20
126.6420102317068057
 30
0.0
 40
0.0397507348356916
 50
333.5153519207609065
 51
33.1239376860875865
  0
ARC
  5
12E60
  8
0
 10
4054.883031920562189
 20
126.6485994097342029
 30
0.0
 40
0.0511447404189115
 50
252.7511919090869128
 51
331.6118944458846727
  0
ARC
  5
12E61
  8
0
 10
4054.8791578560339985
 20
126.6407889490536007
 30
0.0
 40
0.0425593071084757
 50
182.6278533982203953
 51
254.6145542593478126
  0
ARC
  5
12E62
  8
0
 10
4054.884504825345175
 20
126.6689979957252064
 30
0.0
 40
0.0305967840099481
 50
213.2485648308274904
 51
269.2713820627380983
  0
ARC
  5
12E63
  8
0
 10
4054.8844908660830697
 20
126.6679003509608066
 30
0.0
 40
0.029499050486001
 50
269.2713820627380983
 51
329.6401876224661009
  0
ARC
  5
12E64
  8
0
 10
4054.2957353175870594
 20
127.6036526531468951
 30
0.0
 40
0.0230598053813681
 50
136.7902065223470061
 51
210.1534179693356919
  0
ARC
  5
12E65
  8
0
 10
4054.3014662744521956
 20
127.5982690827185024
 30
0.0
 40
0.0309228008124618
 50
68.2352806899899065
 51
136.7902065223470061
  0
ARC
  5
12E66
  8
0
 10
4054.3039515605510132
 20
127.6044938547606051
 30
0.0
 40
0.0242202316060076
 50
358.1469108116622806
 51
68.2352806899899065
  0
ARC
  5
12E67
  8
0
 10
4054.303217302378016
 20
127.6045176107949999
 30
0.0
 40
0.024954873976504
 50
275.8473334696062125
 51
358.1469108116622806
  0
ARC
  5
12E68
  8
0
 10
4054.2995731703940692
 20
127.6071743889043972
 30
0.0
 40
0.028169530813542
 50
212.4266984813590966
 51
282.6864984073091023
  0
ARC
  5
12E69
  8
0
 10
4054.2969379778119219
 20
127.5996410007295054
 30
0.0
 40
0.0442294214127631
 50
106.9255892286429059
 51
179.105644514127107
  0
ARC
  5
12E6A
  8
0
 10
4054.3021349835371439
 20
127.5963082246446021
 30
0.0
 40
0.049094191410641
 50
36.0876642339526228
 51
111.6009006247503947
  0
ARC
  5
12E6B
  8
0
 10
4054.3085179581539705
 20
127.6035039375166065
 30
0.0
 40
0.0397507348356916
 50
333.5153519207609065
 51
33.1239376860875865
  0
ARC
  5
12E6C
  8
0
 10
4054.2991025608839664
 20
127.6100931155439042
 30
0.0
 40
0.0511447404189115
 50
252.7511919090869128
 51
331.6118944458846727
  0
ARC
  5
12E6D
  8
0
 10
4054.2952284963557759
 20
127.6022826548634015
 30
0.0
 40
0.0425593071084757
 50
182.6278533982203953
 51
254.6145542593478126
  0
ARC
  5
12E6E
  8
0
 10
4054.3005754656669524
 20
127.6304917015348934
 30
0.0
 40
0.0305967840099481
 50
213.2485648308274904
 51
269.2713820627380983
  0
ARC
  5
12E6F
  8
0
 10
4054.3005615064062113
 20
127.6293940567705931
 30
0.0
 40
0.029499050486001
 50
269.2713820627380983
 51
329.6401876224661009
  0
ARC
  5
12E70
  8
0
 10
4053.7094543223220171
 20
126.1634408856895959
 30
0.0
 40
0.1002033027112655
 50
124.5419305103948062
 51
181.5063052829532921
  0
ARC
  5
12E71
  8
0
 10
4053.7161480953382124
 20
126.1367492558015044
 30
0.0
 40
0.1263517351656761
 50
55.0059141488700334
 51
120.1750940493406006
  0
ARC
  5
12E72
  8
0
 10
4053.7269318901107908
 20
126.1650656142409019
 30
0.0
 40
0.0972525622231571
 50
348.4672101682692187
 51
50.6390776878054183
  0
ARC
  5
12E73
  8
0
 10
4053.7203893060877817
 20
126.1664006177032036
 30
0.0
 40
0.1039299599148467
 50
286.3214645845666837
 51
348.4672101682692187
  0
ARC
  5
12E74
  8
0
 10
4053.7172376537801028
 20
126.177163458806703
 30
0.0
 40
0.1151447564306994
 50
235.0224312196178005
 51
286.3214645845666837
  0
ARC
  5
12E75
  8
0
 10
4053.7071141261289995
 20
126.1626935092133976
 30
0.0
 40
0.0974850493737464
 50
198.5927093719228935
 51
235.0224312196178005
  0
ARC
  5
12E76
  8
0
 10
4053.7151594139991175
 20
126.1653999080944004
 30
0.0
 40
0.105973350252981
 50
182.484073162977694
 51
198.5927093719228935
  0
ARC
  5
12E77
  8
0
 10
4053.7128792682019593
 20
126.1425747900939029
 30
0.0
 40
0.1195560771582622
 50
120.951083824789194
 51
144.8567241156079035
  0
ARC
  5
12E78
  8
0
 10
4053.7012869221339315
 20
126.150735114959204
 30
0.0
 40
0.1053795687990776
 50
144.8567241156079035
 51
180.7810472396618877
  0
ARC
  5
12E79
  8
0
 10
4053.7111386131109612
 20
126.1508694200121994
 30
0.0
 40
0.1152321752025376
 50
180.7810472396618877
 51
216.9818127922474957
  0
ARC
  5
12E7A
  8
0
 10
4053.7128130369328574
 20
126.1521303557452001
 30
0.0
 40
0.1173282796991973
 50
216.9818127922474957
 51
253.637929378402589
  0
ARC
  5
12E7B
  8
0
 10
4053.7185805347089627
 20
126.1717746351914968
 30
0.0
 40
0.1378017197021016
 50
253.637929378402589
 51
272.7510568763784136
  0
ARC
  5
12E7C
  8
0
 10
4053.7195013101709264
 20
126.1526125452634943
 30
0.0
 40
0.1186175200091823
 50
272.7510568763784136
 51
303.197599834927928
  0
ARC
  5
12E7D
  8
0
 10
4053.7185204440897905
 20
126.1541116028004978
 30
0.0
 40
0.1204089640541783
 50
303.197599834927928
 51
338.807142733529588
  0
ARC
  5
12E7E
  8
0
 10
4053.7345450060379335
 20
126.1478983829705953
 30
0.0
 40
0.1032220304626262
 50
338.807142733529588
 51
18.8354960175049513
  0
ARC
  5
12E7F
  8
0
 10
4053.7109069450980314
 20
126.1398349857302037
 30
0.0
 40
0.128197544473104
 50
18.8354960175049513
 51
37.4732365337117983
  0
ARC
  5
12E80
  8
0
 10
4053.7341078976519384
 20
126.1576204905613992
 30
0.0
 40
0.0989638587407726
 50
37.4732365337117983
 51
56.4378119062654804
  0
ARC
  5
12E81
  8
0
 10
4053.7117555361778614
 20
126.1582205213778991
 30
0.0
 40
0.1112216634211518
 50
155.5582731829861132
 51
195.6610501986158965
  0
ARC
  5
12E82
  8
0
 10
4053.7072851849288782
 20
126.1569672407487985
 30
0.0
 40
0.1065789537992331
 50
195.6610501986158965
 51
239.0575269514392005
  0
ARC
  5
12E83
  8
0
 10
4053.7209408778298894
 20
126.1797459040888043
 30
0.0
 40
0.1331372943385255
 50
239.0575269514392005
 51
259.4184630893321923
  0
ARC
  5
12E84
  8
0
 10
4053.7150581804321519
 20
126.1482558707186001
 30
0.0
 40
0.1011024955981498
 50
259.4184630893321923
 51
272.1792325898640001
  0
ARC
  5
12E85
  8
0
 10
4053.7138938054499704
 20
126.1788545314827985
 30
0.0
 40
0.131723302407511
 50
272.1792325898640001
 51
297.0879449099014096
  0
ARC
  5
12E86
  8
0
 10
4053.7251517420168057
 20
126.1568431755643047
 30
0.0
 40
0.1070000153058211
 50
297.0879449099014096
 51
333.7030459464834848
  0
ARC
  5
12E87
  8
0
 10
4053.7208330212010878
 20
126.1589773346723007
 30
0.0
 40
0.1118172743380207
 50
333.7030459464834848
 51
2.5594129952701419
  0
ARC
  5
12E88
  8
0
 10
4053.7364697944458385
 20
126.1596762971764036
 30
0.0
 40
0.0961648871056914
 50
2.5594129952701419
 51
22.2854267372891108
  0
ARC
  5
12E89
  8
0
 10
4053.6470072382530816
 20
126.1230116085774995
 30
0.0
 40
0.1928491585800036
 50
22.2854267372891108
 51
24.4383160638130015
  0
ARC
  5
12E8A
  8
0
 10
4053.6847394563501439
 20
126.2272620635275047
 30
0.0
 40
0.0293934443056747
 50
177.1090770527715961
 51
236.8810901364687993
  0
ARC
  5
12E8B
  8
0
 10
4053.6869174974472116
 20
126.2306007626696953
 30
0.0
 40
0.0333797677975816
 50
236.8810901364687993
 51
290.5199771733105081
  0
ARC
  5
12E8C
  8
0
 10
4053.6878700331958498
 20
126.2279706580679033
 30
0.0
 40
0.03058266170877
 50
290.5758882875585982
 51
349.7261774160098753
  0
ARC
  5
12E8D
  8
0
 10
4053.6905180853032107
 20
126.2274906751404018
 30
0.0
 40
0.0278914605698114
 50
349.7261774160082837
 51
46.9708779320894578
  0
ARC
  5
12E8E
  8
0
 10
4053.6865953319870641
 20
126.2232883216005064
 30
0.0
 40
0.0336401794577519
 50
46.9708779320894578
 51
111.9381399135375972
  0
ARC
  5
12E8F
  8
0
 10
4053.6851852351919661
 20
126.2267893116199957
 30
0.0
 40
0.029865884280092
 50
111.9381399135375972
 51
176.2463861921652892
  0
ARC
  5
12E90
  8
0
 10
4053.7760162492759264
 20
126.1715750977916031
 30
0.0
 40
0.0293934443056747
 50
177.1090770527715961
 51
236.8810901364687993
  0
ARC
  5
12E91
  8
0
 10
4053.7781942903729941
 20
126.1749137969336942
 30
0.0
 40
0.0333797677975816
 50
236.8810901364687993
 51
290.5199771733105081
  0
ARC
  5
12E92
  8
0
 10
4053.7791468261220871
 20
126.1722836923319022
 30
0.0
 40
0.03058266170877
 50
290.5758882875585982
 51
349.7261774160098753
  0
ARC
  5
12E93
  8
0
 10
4053.7817948782280837
 20
126.1718037094045002
 30
0.0
 40
0.0278914605698114
 50
349.7261774160082837
 51
46.9708779320894578
  0
ARC
  5
12E94
  8
0
 10
4053.7778721249128466
 20
126.1676013558645053
 30
0.0
 40
0.0336401794577519
 50
46.9708779320894578
 51
111.9381399135375972
  0
ARC
  5
12E95
  8
0
 10
4053.7764620281182033
 20
126.1711023458839946
 30
0.0
 40
0.029865884280092
 50
111.9381399135375972
 51
176.2463861921652892
  0
ARC
  5
12E96
  8
0
 10
4053.6792761208657794
 20
126.1301790280339929
 30
0.0
 40
0.0293934443056747
 50
177.1090770527715961
 51
236.8810901364687993
  0
ARC
  5
12E97
  8
0
 10
4053.6814541619628471
 20
126.1335177271761978
 30
0.0
 40
0.0333797677975816
 50
236.8810901364687993
 51
290.5199771733105081
  0
ARC
  5
12E98
  8
0
 10
4053.6824066977119401
 20
126.1308876225744058
 30
0.0
 40
0.03058266170877
 50
290.5758882875585982
 51
349.7261774160098753
  0
ARC
  5
12E99
  8
0
 10
4053.6850547498179367
 20
126.1304076396469043
 30
0.0
 40
0.0278914605698114
 50
349.7261774160082837
 51
46.9708779320894578
  0
ARC
  5
12E9A
  8
0
 10
4053.6811319965017901
 20
126.1262052861069947
 30
0.0
 40
0.0336401794577519
 50
46.9708779320894578
 51
111.9381399135375972
  0
ARC
  5
12E9B
  8
0
 10
4053.6797218997071468
 20
126.1297062761264982
 30
0.0
 40
0.029865884280092
 50
111.9381399135375972
 51
176.2463861921652892
  0
LINE
  5
12E9C
  8
0
 10
4037.1929548312527913
 20
95.7911070491948067
 30
0.0
 11
4037.1929548312527913
 21
95.5285166402015307
 31
0.0
  0
LINE
  5
12E9D
  8
0
 10
4037.1929548312527913
 20
95.244014080369567
 30
0.0
 11
4037.1929548312527913
 21
93.8958953535078393
 31
0.0
  0
ARC
  5
12E9E
  8
0
 10
4037.5836474664210982
 20
95.7454533497368345
 30
0.0
 40
0.0218225262131737
 50
1.74089576510156
 51
84.4055167717708059
  0
ARC
  5
12E9F
  8
0
 10
4037.5837251500629463
 20
93.9423622121109929
 30
0.0
 40
0.0217427854784994
 50
275.409406385149623
 51
358.4441809388978868
  0
LINE
  5
12EA0
  8
0
 10
4053.1841976365271876
 20
124.0394833274007027
 30
0.0
 11
4053.1841976365271876
 21
121.1967176863149973
 31
0.0
  0
LINE
  5
12EA1
  8
0
 10
4054.2471976365259252
 20
124.0709399263507038
 30
0.0
 11
4054.2471976365259252
 21
121.1972509893006986
 31
0.0
  0
ARC
  5
12EA2
  8
0
 10
4051.8473179872557921
 20
124.0556848160433958
 30
0.0
 40
1.336977817642786
 50
359.3056731164633106
 51
5.302728062725067
  0
ARC
  5
12EA3
  8
0
 10
4055.774293091581967
 20
124.0459452754725049
 30
0.0
 40
1.527299990644734
 50
174.9929440722372078
 51
179.0622982084724981
  0
LINE
  5
12EA4
  8
0
 10
4053.2626613268739675
 20
120.5833141962007033
 30
0.0
 11
4054.1685223642280107
 21
120.5833141962007033
 31
0.0
  0
ARC
  5
12EA5
  8
0
 10
4053.2627671178511264
 20
120.5950130215857996
 30
0.0
 40
0.0116993037024165
 50
182.8490539259969978
 51
269.4818957398679231
  0
ARC
  5
12EA6
  8
0
 10
4051.1847067866128782
 20
120.4732067628926018
 30
0.0
 40
2.0699282834116999
 50
3.3574317179802642
 51
5.2335487847719353
  0
ARC
  5
12EA7
  8
0
 10
4049.3270140559961874
 20
120.303046665431097
 30
0.0
 40
3.9353978597264359
 50
5.2335487847719353
 51
10.0006228747704302
  0
ARC
  5
12EA8
  8
0
 10
4054.3933713285359772
 20
121.1967133819633062
 30
0.0
 40
1.209173692016063
 50
179.99979604155169
 51
190.0134296755605874
  0
LINE
  5
12EA9
  8
0
 10
4053.2610087923808351
 20
120.573960187226902
 30
0.0
 11
4053.2639139040270493
 21
120.5045740387006958
 31
0.0
  0
LINE
  5
12EAA
  8
0
 10
4053.2610087923808351
 20
120.573960187226902
 30
0.0
 11
4054.1665151912638976
 21
120.573960187226902
 31
0.0
  0
ARC
  5
12EAB
  8
0
 10
4052.8967273129778732
 20
121.2130324315366039
 30
0.0
 40
1.3505625304690301
 50
351.5376203650008051
 51
359.3304785283092997
  0
ARC
  5
12EAC
  8
0
 10
4074.7188156679949316
 20
117.9663464393681949
 30
0.0
 40
20.7117245247280692
 50
171.5376203650006914
 51
172.2936608495145094
  0
ARC
  5
12EAD
  8
0
 10
4055.7033051220778361
 20
120.5394866853190052
 30
0.0
 40
1.522907676179017
 50
172.2936608495145094
 51
175.6660449851272006
  0
ARC
  5
12EAE
  8
0
 10
4069.5160524271282156
 20
119.4926685470428964
 30
0.0
 40
15.3752654656592895
 50
175.6660449851272006
 51
175.8907444667615039
  0
ARC
  5
12EAF
  8
0
 10
4054.1683604811091755
 20
120.5952968116374961
 30
0.0
 40
0.0119837088937373
 50
270.7740092498513036
 51
355.8907444667696041
  0
ARC
  5
12EB0
  8
0
 10
4053.66244386569997
 20
119.2258504212680066
 30
0.0
 40
1.4879959164032419
 50
106.2253700898436932
 51
126.4976497001304949
  0
ARC
  5
12EB1
  8
0
 10
4052.8145913006242154
 20
120.374938682482906
 30
0.0
 40
0.0600012050911874
 50
128.3057885139544965
 51
182.332479799696614
  0
ARC
  5
12EB2
  8
0
 10
4057.8433463136620958
 20
120.4468142665396044
 30
0.0
 40
5.0892491588621853
 50
180.8367112276312128
 51
194.7141219317292951
  0
ARC
  5
12EB3
  8
0
 10
4054.113204035263152
 20
119.4885750604710069
 30
0.0
 40
1.2382188225095181
 50
195.6687068911273002
 51
218.911064300666709
  0
ARC
  5
12EB4
  8
0
 10
4053.6772968027330535
 20
119.1642258177112979
 30
0.0
 40
0.6956315247835364
 50
220.675266810669001
 51
249.0598637133755062
  0
LINE
  5
12EB5
  8
0
 10
4053.4289100895230149
 20
119.156629318057
 30
0.0
 11
4053.4289100895230149
 21
86.4964993064388636
 31
0.0
  0
LINE
  5
12EB6
  8
0
 10
4053.9997762188218076
 20
119.1567484864708035
 30
0.0
 11
4053.9997762188218076
 21
86.4874143921860963
 31
0.0
  0
ARC
  5
12EB7
  8
0
 10
4052.8239736465548049
 20
120.3854379551150942
 30
0.0
 40
0.0712515831282487
 50
193.5158798923536096
 51
224.1960312881261927
  0
ARC
  5
12EB8
  8
0
 10
4052.8634001883237943
 20
120.4237732784634005
 30
0.0
 40
0.126242938922219
 50
224.1960312881261927
 51
257.7801566186165019
  0
ARC
  5
12EB9
  8
0
 10
4053.4335560145341333
 20
122.552588698621193
 30
0.0
 40
2.3299480465890321
 50
255.1567188360050977
 51
258.1760091031363231
  0
ARC
  5
12EBA
  8
0
 10
4037.5661456510961216
 20
119.6143812684567962
 30
0.0
 40
15.4040373015960395
 50
1.113173667581959
 51
2.447067536441637
  0
ARC
  5
12EBB
  8
0
 10
4652.9632866650199503
 20
149.8818554039015112
 30
0.0
 40
600.7439612586978228
 50
182.8593965150766962
 51
182.9305841431836939
  0
ARC
  5
12EBC
  8
0
 10
4054.0136629040039224
 20
119.1780206187883948
 30
0.0
 40
1.008737634344492
 50
180.5581748432533971
 51
201.1537107959113939
  0
ARC
  5
12EBD
  8
0
 10
4053.7456337372482267
 20
118.5702412765853069
 30
0.0
 40
2.043527455608372
 50
103.6963482584512946
 51
107.6552784702297032
  0
ARC
  5
12EBE
  8
0
 10
4053.1355370246310486
 20
120.4870912586699063
 30
0.0
 40
0.0319281285642286
 50
107.6552784702297032
 51
156.9001833276454079
  0
ARC
  5
12EBF
  8
0
 10
4076.008371884754979
 20
119.9735345176630972
 30
0.0
 40
22.9082445738291796
 50
178.6840982466810033
 51
180.2700470142910945
  0
ARC
  5
12EC0
  8
0
 10
4092.1499565745361906
 20
119.6616351813936063
 30
0.0
 40
39.0501073016613987
 50
179.7007872866066975
 51
181.0154113627687025
  0
ARC
  5
12EC1
  8
0
 10
4053.2014722674521181
 20
118.9811825576648943
 30
0.0
 40
0.0961888550318442
 50
186.9071584109094886
 51
218.3365335316341032
  0
LINE
  5
12EC2
  8
0
 10
4053.3535760164418207
 20
119.156664474451901
 30
0.0
 11
4054.0778192528860018
 21
119.156664474451901
 31
0.0
  0
ARC
  5
12EC3
  8
0
 10
4053.324208472095961
 20
119.1797808841643018
 30
0.0
 40
0.0373859560062461
 50
321.6167164100630202
 51
353.6759582490055891
  0
LINE
  5
12EC4
  8
0
 10
4053.3613669279261558
 20
119.1756627697006934
 30
0.0
 11
4053.3613669279261558
 21
120.415842086100696
 31
0.0
  0
ARC
  5
12EC5
  8
0
 10
4054.0242452744309958
 20
121.0565692987797064
 30
0.0
 40
0.9219202801125611
 50
219.9488059881504967
 51
224.0264401642012899
  0
ARC
  5
12EC6
  8
0
 10
4053.2094511351469919
 20
120.3741155213917011
 30
0.0
 40
0.1409214991196169
 50
39.948805988150518
 51
63.3649109677202205
  0
ARC
  5
12EC7
  8
0
 10
4053.2496937688752041
 20
120.4438502567021061
 30
0.0
 40
0.0607288740444117
 50
67.8126768916188354
 51
88.7113567585304565
  0
LINE
  5
12EC8
  8
0
 10
4053.2639139040270493
 20
120.5045740387006958
 30
0.0
 11
4053.1842020574267735
 21
120.5045740387006958
 31
0.0
  0
ARC
  5
12EC9
  8
0
 10
4053.1842020574267735
 20
120.4848885153948004
 30
0.0
 40
0.0196855233059523
 50
90.0
 51
179.9985912745192138
  0
LINE
  5
12ECA
  8
0
 10
4053.1645165341269603
 20
120.4848889994006953
 30
0.0
 11
4053.16451587281108
 21
120.4579919388089024
 31
0.0
  0
ARC
  5
12ECB
  8
0
 10
4053.2945874513998206
 20
120.4579887407521994
 30
0.0
 40
0.1300715786282208
 50
179.9985912745192138
 51
209.4029410283050936
  0
ARC
  5
12ECC
  8
0
 10
4054.9278505369720733
 20
121.2054052888425986
 30
0.0
 40
1.925800789313096
 50
204.9145607311783124
 51
211.2374517321663916
  0
LINE
  5
12ECD
  8
0
 10
4053.1645165341269603
 20
120.4848889994006953
 30
0.0
 11
4053.1842015735269342
 21
120.4848889994006953
 31
0.0
  0
ARC
  5
12ECE
  8
0
 10
4053.1820813363151501
 20
120.4546418810972028
 30
0.0
 40
0.030321338550573
 50
51.3558389610409023
 51
85.9902871563157163
  0
ARC
  5
12ECF
  8
0
 10
4053.1266942671759352
 20
120.3803534774675938
 30
0.0
 40
0.1229716208042499
 50
36.644753347447093
 51
52.8154063150148474
  0
ARC
  5
12ED0
  8
0
 10
4052.4917516958289525
 20
119.7905562168806028
 30
0.0
 40
0.9889425140170818
 50
37.7278188153115082
 51
42.1140335450898178
  0
ARC
  5
12ED1
  8
0
 10
4053.2355080061479384
 20
120.3708733196171039
 30
0.0
 40
0.0457478698208902
 50
1.41529156255583
 51
32.8683158182635324
  0
LINE
  5
12ED2
  8
0
 10
4053.2812419198271527
 20
120.3720032456006948
 30
0.0
 11
4053.2812418197268016
 21
120.2067119363007066
 31
0.0
  0
ARC
  5
12ED3
  8
0
 10
4040.0869123792031132
 20
116.6364522395300014
 30
0.0
 40
13.6688381026659602
 50
15.1014729432698704
 51
15.1410998017931906
  0
LINE
  5
12ED4
  8
0
 10
4053.3613669279261558
 20
120.1933375536006992
 30
0.0
 11
4053.3113017329269496
 21
120.1933375531007044
 31
0.0
  0
ARC
  5
12ED5
  8
0
 10
3768.7223814916319498
 20
-1728.2337805567240139
 30
0.0
 40
1870.2068507221069922
 50
81.2473119076788493
 51
81.2481671714074452
  0
LINE
  5
12ED6
  8
0
 10
4053.1645163405291896
 20
120.4770149836006965
 30
0.0
 11
4053.1527055105270847
 21
120.4770149836006965
 31
0.0
  0
ARC
  5
12ED7
  8
0
 10
4053.1527055105270847
 20
120.4376449049006936
 30
0.0
 40
0.0393700786999993
 50
90.0
 51
173.5043719534506863
  0
ARC
  5
12ED8
  8
0
 10
4053.1527055105270847
 20
120.4376449049006936
 30
0.0
 40
0.0393700786998555
 50
173.5043719534506863
 51
180.0000000000260059
  0
LINE
  5
12ED9
  8
0
 10
4053.1133354318258171
 20
120.4376449044006989
 30
0.0
 11
4053.1133354318258171
 21
119.0754401806006939
 31
0.0
  0
ARC
  5
12EDA
  8
0
 10
4053.1527055106271291
 20
119.0754401806006939
 30
0.0
 40
0.0393700787999993
 50
180.0
 51
269.9999998544561777
  0
LINE
  5
12EDB
  8
0
 10
4053.1527055105270847
 20
119.0360701018007035
 30
0.0
 11
4053.4289100895230149
 21
119.0360701010991988
 31
0.0
  0
ARC
  5
12EDC
  8
0
 10
4053.1172724397270031
 20
120.0596921490006963
 30
0.0
 40
0.0118110236000031
 50
109.4712206344999004
 51
179.9999999999901945
  0
LINE
  5
12EDD
  8
0
 10
4053.1054614161271274
 20
120.0596921490006963
 30
0.0
 11
4053.1054614161271274
 21
119.4533929507998948
 31
0.0
  0
ARC
  5
12EDE
  8
0
 10
4053.1172724600910442
 20
119.4533929507998948
 30
0.0
 40
0.0118110439635313
 50
179.999999999985306
 51
250.5287093434791075
  0
ARC
  5
12EDF
  8
0
 10
4053.1224316085690589
 20
120.3408931784833982
 30
0.0
 40
0.015987561649547
 50
124.7739284908322048
 51
177.793703843922799
  0
ARC
  5
12EE0
  8
0
 10
4004.8385531027470279
 20
119.9981426404615945
 30
0.0
 40
48.2691240912538433
 50
0.0811540220150311
 51
0.4075812464004535
  0
ARC
  5
12EE1
  8
0
 10
4053.0073999555138471
 20
120.2318896650320994
 30
0.0
 40
0.0651392855964512
 50
108.9691660015126047
 51
141.9052195757589061
  0
LINE
  5
12EE2
  8
0
 10
4052.9862258267598918
 20
120.2934914734434955
 30
0.0
 11
4053.0754790187270373
 21
120.3198273436007071
 31
0.0
  0
ARC
  5
12EE3
  8
0
 10
4053.081301046525823
 20
120.2976625301275959
 30
0.0
 40
0.0229147708733072
 50
22.0239048964884994
 51
105.0808539935241015
  0
LINE
  5
12EE4
  8
0
 10
4053.1260235551121696
 20
118.9215186017117958
 30
0.0
 11
4053.1746696312270615
 21
118.9215181367006977
 31
0.0
  0
LINE
  5
12EE5
  8
0
 10
4053.1746696312270615
 20
118.9215181367006977
 30
0.0
 11
4053.1746696312270615
 21
119.0360701017007017
 31
0.0
  0
LINE
  5
12EE6
  8
0
 10
4054.1665151912638976
 20
120.573960187226902
 30
0.0
 11
4054.1636100796181381
 21
120.5045740387006958
 31
0.0
  0
ARC
  5
12EE7
  8
0
 10
4053.7650801179438531
 20
119.2258504212680066
 30
0.0
 40
1.4879959164032419
 50
53.5023502998695122
 51
73.6214695744140784
  0
ARC
  5
12EE8
  8
0
 10
4054.6129326830218815
 20
120.374938682482906
 30
0.0
 40
0.0600012050911874
 50
357.6675202003032723
 51
51.6942114860454467
  0
ARC
  5
12EE9
  8
0
 10
4049.5841776699830916
 20
120.4468142665396044
 30
0.0
 40
5.0892491588621853
 50
345.2858780682682891
 51
359.1632887723687872
  0
ARC
  5
12EEA
  8
0
 10
4053.3143199483829449
 20
119.4885750604710069
 30
0.0
 40
1.2382188225095181
 50
321.0889356993332058
 51
344.3312931088718187
  0
ARC
  5
12EEB
  8
0
 10
4053.7502271809121339
 20
119.1642258177112979
 30
0.0
 40
0.6956315247835364
 50
290.9401362866245222
 51
319.3247331893309138
  0
ARC
  5
12EEC
  8
0
 10
4054.6035503370899278
 20
120.3854379551150942
 30
0.0
 40
0.0712515831282487
 50
315.8039687118737788
 51
346.4841201076447987
  0
ARC
  5
12EED
  8
0
 10
4054.5641237953209384
 20
120.4237732784634005
 30
0.0
 40
0.126242938922219
 50
282.2198433813834981
 51
315.8039687118737788
  0
ARC
  5
12EEE
  8
0
 10
4053.9939679691110541
 20
122.552588698621193
 30
0.0
 40
2.3299480465890321
 50
281.8239908968636769
 51
284.8432811639947886
  0
ARC
  5
12EEF
  8
0
 10
4069.8613783325490658
 20
119.6143812684567962
 30
0.0
 40
15.4040373015960395
 50
177.5529324635583919
 51
178.8868263324179964
  0
ARC
  5
12EF0
  8
0
 10
3454.4642373186261466
 20
149.8818554039015112
 30
0.0
 40
600.7439612586978228
 50
357.0694158568161924
 51
357.1406034849231901
  0
ARC
  5
12EF1
  8
0
 10
4053.4138610796408102
 20
119.1780206187883948
 30
0.0
 40
1.008737634344492
 50
338.8462892040878955
 51
359.4418251567465745
  0
ARC
  5
12EF2
  8
0
 10
4053.6818902463969607
 20
118.5702412765853069
 30
0.0
 40
2.043527455608372
 50
72.3447215297703252
 51
76.3036517415487054
  0
ARC
  5
12EF3
  8
0
 10
4054.2919869590150483
 20
120.4870912586699063
 30
0.0
 40
0.0319281285642286
 50
23.0998166723545602
 51
72.3447215297703252
  0
ARC
  5
12EF4
  8
0
 10
4031.4191520988902084
 20
119.9735345176630972
 30
0.0
 40
22.9082445738291796
 50
359.7299529857087919
 51
1.315901753318921
  0
ARC
  5
12EF5
  8
0
 10
4015.2775674091099063
 20
119.6616351813936063
 30
0.0
 40
39.0501073016613987
 50
358.9845886372311838
 51
0.2992127133932685
  0
ARC
  5
12EF6
  8
0
 10
4054.2260517161939788
 20
118.9811825576648943
 30
0.0
 40
0.0961888550318442
 50
321.6634664683659253
 51
353.092841589090483
  0
ARC
  5
12EF7
  8
0
 10
4054.1033155115492264
 20
119.1797808841643018
 30
0.0
 40
0.0373859560062461
 50
186.3240417509944109
 51
218.3832835899370082
  0
LINE
  5
12EF8
  8
0
 10
4054.0661570557181221
 20
119.1756627697006934
 30
0.0
 11
4054.0661570557181221
 21
120.415842086100696
 31
0.0
  0
ARC
  5
12EF9
  8
0
 10
4053.4032787092141916
 20
121.0565692987797064
 30
0.0
 40
0.9219202801125611
 50
315.9735598357980848
 51
320.0511940118494749
  0
ARC
  5
12EFA
  8
0
 10
4054.2180728484981955
 20
120.3741155213917011
 30
0.0
 40
0.1409214991196169
 50
116.6350890322797937
 51
140.0511940118493897
  0
ARC
  5
12EFB
  8
0
 10
4054.1778302147708928
 20
120.4438502567021061
 30
0.0
 40
0.0607288740444117
 50
91.2886432414695861
 51
112.1873231083810936
  0
LINE
  5
12EFC
  8
0
 10
4054.1636100796181381
 20
120.5045740387006958
 30
0.0
 11
4054.2433219262179591
 21
120.5045740387006958
 31
0.0
  0
ARC
  5
12EFD
  8
0
 10
4054.2433219262179591
 20
120.4848885153948004
 30
0.0
 40
0.0196855233059523
 50
0.0014087254823953
 51
90.0
  0
LINE
  5
12EFE
  8
0
 10
4054.2630074495182271
 20
120.4848889994006953
 30
0.0
 11
4054.2630081108331979
 21
120.4579919388089024
 31
0.0
  0
ARC
  5
12EFF
  8
0
 10
4054.1329365322440026
 20
120.4579887407521994
 30
0.0
 40
0.1300715786282208
 50
330.597058971694878
 51
0.0014087254823953
  0
ARC
  5
12F00
  8
0
 10
4052.4996734466731141
 20
121.2054052888425986
 30
0.0
 40
1.925800789313096
 50
328.7625482678336084
 51
335.0854392687945165
  0
LINE
  5
12F01
  8
0
 10
4054.2630074495182271
 20
120.4848889994006953
 30
0.0
 11
4054.2433224101177984
 21
120.4848889994006953
 31
0.0
  0
ARC
  5
12F02
  8
0
 10
4054.2454426473300373
 20
120.4546418810972028
 30
0.0
 40
0.030321338550573
 50
94.0097128436842837
 51
128.6441610389591119
  0
ARC
  5
12F03
  8
0
 10
4054.3008297164701617
 20
120.3803534774675938
 30
0.0
 40
0.1229716208042499
 50
127.1845936849852023
 51
143.3552466525528928
  0
ARC
  5
12F04
  8
0
 10
4054.9357722878157801
 20
119.7905562168806028
 30
0.0
 40
0.9889425140170818
 50
137.8859664549102035
 51
142.2721811846884918
  0
ARC
  5
12F05
  8
0
 10
4054.1920159774981585
 20
120.3708733196171039
 30
0.0
 40
0.0457478698208902
 50
147.1316841817364889
 51
178.584708437444192
  0
LINE
  5
12F06
  8
0
 10
4054.1462820638180347
 20
120.3720032456006948
 30
0.0
 11
4054.1462821639188405
 21
120.2067119363007066
 31
0.0
  0
ARC
  5
12F07
  8
0
 10
4067.3406116044420742
 20
116.6364522395300014
 30
0.0
 40
13.6688381026659602
 50
164.8589001982068112
 51
164.8985270567301029
  0
LINE
  5
12F08
  8
0
 10
4054.0661570557181221
 20
120.1933375536006992
 30
0.0
 11
4054.116222250717783
 21
120.1933375531007044
 31
0.0
  0
ARC
  5
12F09
  8
0
 10
4338.7051424920127829
 20
-1728.2337805567240139
 30
0.0
 40
1870.2068507221069922
 50
98.7518328285925406
 51
98.752688092321165
  0
LINE
  5
12F0A
  8
0
 10
4054.2630076431159978
 20
120.4770149836006965
 30
0.0
 11
4054.2748184731181027
 21
120.4770149836006965
 31
0.0
  0
ARC
  5
12F0B
  8
0
 10
4054.2748184731181027
 20
120.4376449049006936
 30
0.0
 40
0.0393700786999993
 50
6.4956280465492142
 51
90.0
  0
ARC
  5
12F0C
  8
0
 10
4054.2748184731181027
 20
120.4376449049006936
 30
0.0
 40
0.0393700786998555
 50
359.9999999999740226
 51
6.4956280465492142
  0
LINE
  5
12F0D
  8
0
 10
4054.3141885518189156
 20
120.4376449044006989
 30
0.0
 11
4054.3141885518189156
 21
119.0754401806006939
 31
0.0
  0
ARC
  5
12F0E
  8
0
 10
4054.2748184730180583
 20
119.0754401806006939
 30
0.0
 40
0.0393700787999993
 50
270.0000001455438223
 51
0.0
  0
LINE
  5
12F0F
  8
0
 10
4054.2748184731181027
 20
119.0360701018007035
 30
0.0
 11
4053.9986138941221725
 21
119.0360701010991988
 31
0.0
  0
ARC
  5
12F10
  8
0
 10
4054.3102515439190938
 20
120.0596921490006963
 30
0.0
 40
0.0118110236000031
 50
0.0000000000097707
 51
70.5287793655000854
  0
LINE
  5
12F11
  8
0
 10
4054.32206256751806
 20
120.0596921490006963
 30
0.0
 11
4054.32206256751806
 21
119.4533929507998948
 31
0.0
  0
ARC
  5
12F12
  8
0
 10
4054.3102515235550527
 20
119.4533929507998948
 30
0.0
 40
0.0118110439635313
 50
289.4712906565209209
 51
0.0000000000130276
  0
ARC
  5
12F13
  8
0
 10
4054.3050923750761285
 20
120.3408931784833982
 30
0.0
 40
0.015987561649547
 50
2.206296156077197
 51
55.2260715091678023
  0
ARC
  5
12F14
  8
0
 10
4102.58897088089725
 20
119.9981426404615945
 30
0.0
 40
48.2691240912538433
 50
179.5924187535995031
 51
179.9188459779865923
  0
ARC
  5
12F15
  8
0
 10
4054.4201240281317951
 20
120.2318896650320994
 30
0.0
 40
0.0651392855964512
 50
38.0947804242411223
 51
71.0308339984874237
  0
LINE
  5
12F16
  8
0
 10
4054.4412981568839314
 20
120.2934914734434955
 30
0.0
 11
4054.3520449649181501
 21
120.3198273436007071
 31
0.0
  0
ARC
  5
12F17
  8
0
 10
4054.3462229371189096
 20
120.2976625301275959
 30
0.0
 40
0.0229147708733072
 50
74.9191460064759127
 51
157.9760951035115113
  0
LINE
  5
12F18
  8
0
 10
4054.3015004285330178
 20
118.9215186017117958
 30
0.0
 11
4054.2528543524181259
 21
118.9215181367006977
 31
0.0
  0
LINE
  5
12F19
  8
0
 10
4054.2528543524181259
 20
118.9215181367006977
 30
0.0
 11
4054.2528543524181259
 21
119.0360701017007017
 31
0.0
  0
ARC
  5
12F1A
  8
0
 10
4053.3200316093289075
 20
120.5434007883373937
 30
0.0
 40
0.0399617604057074
 50
49.8817356678662307
 51
87.1811706694498412
  0
ARC
  5
12F1B
  8
0
 10
4054.112830127514826
 20
120.5418580774078947
 30
0.0
 40
0.041911637737764
 50
98.4550789774302615
 51
130.0086495862151992
  0
ARC
  5
12F1C
  8
0
 10
4041.4878126098269604
 20
99.0403187121486042
 30
0.0
 40
5.1718920291347619
 50
269.3842612413628217
 51
270.6157387586371783
  0
ARC
  5
12F1D
  8
0
 10
4041.4468889544828016
 20
100.1608692069580968
 30
0.0
 40
6.2928838693449221
 50
270.8786818048566261
 51
272.1897274348229985
  0
ARC
  5
12F1E
  8
0
 10
4041.6766040994630202
 20
94.0783254520594738
 30
0.0
 40
0.2060244157842494
 50
272.9846753957750138
 51
283.9193475298229146
  0
ARC
  5
12F1F
  8
0
 10
4041.904674014477223
 20
93.1580703808315889
 30
0.0
 40
0.7420711923982412
 50
76.0806524701771139
 51
103.9193475298229004
  0
ARC
  5
12F20
  8
0
 10
4042.1308661534599196
 20
94.0707486837052329
 30
0.0
 40
0.1982184269606594
 50
256.0806524701770854
 51
268.7098132549401157
  0
ARC
  5
12F21
  8
0
 10
4042.5118231981050485
 20
110.7832912683818023
 30
0.0
 40
16.9151023372747815
 50
268.6943703407837916
 51
269.5437039055315722
  0
LINE
  5
12F22
  8
0
 10
4041.4322330696268182
 20
93.8687253333397962
 30
0.0
 11
4041.4322330696268182
 21
93.7297708660007629
 31
0.0
  0
LINE
  5
12F23
  8
0
 10
4041.4322330696268182
 20
93.7297708660007629
 30
0.0
 11
4042.377114959327173
 21
93.7297708660007629
 31
0.0
  0
LINE
  5
12F24
  8
0
 10
4042.377114959327173
 20
93.7297708660007629
 30
0.0
 11
4042.377114959327173
 21
93.8687253333398246
 31
0.0
  0
LINE
  5
12F25
  8
0
 10
4041.6192026685748715
 20
92.3127984558342405
 30
0.0
 11
4041.6192026685748715
 21
86.6315263161471876
 31
0.0
  0
LINE
  5
12F26
  8
0
 10
4042.190068797935055
 20
92.3125075913696378
 30
0.0
 11
4042.190068797935055
 21
86.6318056106513552
 31
0.0
  0
ARC
  5
12F27
  8
0
 10
4044.0423583772271741
 20
93.6561560771964139
 30
0.0
 40
2.7402583512172081
 50
52.1420539795611973
 51
71.2170414742007551
  0
ARC
  5
12F28
  8
0
 10
4044.8574318324740489
 20
96.0653963846770296
 30
0.0
 40
0.1969233306914573
 50
70.0326713954229518
 51
109.9659504706482949
  0
ARC
  5
12F29
  8
0
 10
4045.6735337521199654
 20
93.6541176824396757
 30
0.0
 40
2.742519456272511
 50
108.7894898280923002
 51
127.8493266935501964
  0
ARC
  5
12F2A
  8
0
 10
4044.8574294904478847
 20
95.9605803508819122
 30
0.0
 40
0.1608817130017426
 50
69.0140825783117435
 51
110.9859191121876023
  0
ARC
  5
12F2B
  8
0
 10
4045.6834402548502112
 20
93.5963742484264003
 30
0.0
 40
2.6651620843663988
 50
109.3627493017306023
 51
123.4660929935982949
  0
ARC
  5
12F2C
  8
0
 10
4044.0650002428419612
 20
93.6650458569102113
 30
0.0
 40
2.589256117539199
 50
56.3198304678994717
 51
70.8345068240302993
  0
ARC
  5
12F2D
  8
0
 10
4043.1703695544210859
 20
95.4715633001564754
 30
0.0
 40
3.0947908866035831
 50
326.0832674220282001
 51
328.8075167267414258
  0
ARC
  5
12F2E
  8
0
 10
4045.5760622176030665
 20
93.8539849266470867
 30
0.0
 40
0.1958398721627824
 50
285.9167326143746095
 51
326.0832674220282001
  0
ARC
  5
12F2F
  8
0
 10
4044.857423352828846
 20
96.3739928503272267
 30
0.0
 40
2.816313446418758
 50
254.0832673856253905
 51
285.9167326143746095
  0
ARC
  5
12F30
  8
0
 10
4044.138771908084891
 20
93.8539408132170365
 30
0.0
 40
0.1957940000539651
 50
213.9102029477346036
 51
254.0832673856253905
  0
ARC
  5
12F31
  8
0
 10
4046.5170198078390058
 20
95.4526718925683326
 30
0.0
 40
3.061453459370473
 50
211.1569279705686029
 51
213.9102029477346036
  0
ARC
  5
12F32
  8
0
 10
4044.2009775815968169
 20
93.9395684313663537
 30
0.0
 40
0.1607108864067935
 50
206.1556262504340964
 51
255.0092891180281924
  0
ARC
  5
12F33
  8
0
 10
4044.8574298684879977
 20
96.3910714562655357
 30
0.0
 40
2.6985833587850778
 50
255.0092891180281924
 51
284.9907108819718928
  0
ARC
  5
12F34
  8
0
 10
4045.513882204400943
 20
93.9395682483007022
 30
0.0
 40
0.1607106968915154
 50
284.9907108819718928
 51
333.8444132796884105
  0
LINE
  5
12F35
  8
0
 10
4044.8574294904478847
 20
96.2623197153545789
 30
0.0
 11
4044.8574294904478847
 21
96.121462063883655
 31
0.0
  0
LINE
  5
12F36
  8
0
 10
4048.1723880836161698
 20
94.0382212799382842
 30
0.0
 11
4048.1723880836161698
 21
95.6511919207015353
 31
0.0
  0
ARC
  5
12F37
  8
0
 10
4047.8110834184590203
 20
86.6965515299260687
 30
0.0
 40
5.621387497604668
 50
180.6599349256651124
 51
357.9605446323087108
  0
ARC
  5
12F38
  8
0
 10
4047.8110832762758946
 20
86.6963956058606868
 30
0.0
 40
6.1922204002104131
 50
180.6002377606176026
 51
358.0659577764603796
  0
ENDSEC
  0
EOF
