  0
SECTION
  2
HEADER
  9
$ACADVER
  1
AC1009
  9
$INSBASE
 10
4095.5156814209508411
 20
150.9587965333415127
 30
0.0
  9
$EXTMIN
 10
4089.2267623373791139
 20
125.698877099945804
 30
-0.0015258207003583
  9
$EXTMAX
 10
4108.3461320982705729
 20
169.9864430808748068
 30
0.0000000349246037
  9
$LIMMIN
 10
0.0
 20
0.0
  9
$LIMMAX
 10
11.6929133858000007
 20
8.2677165353999982
  9
$ORTHOMODE
 70
     0
  9
$REGENMODE
 70
     1
  9
$FILLMODE
 70
     1
  9
$QTEXTMODE
 70
     0
  9
$MIRRTEXT
 70
     0
  9
$DRAGMODE
 70
     2
  9
$LTSCALE
 40
0.6431102362
  9
$OSMODE
 70
  4095
  9
$ATTMODE
 70
     1
  9
$TEXTSIZE
 40
0.2
  9
$TRACEWID
 40
0.05
  9
$TEXTSTYLE
  7
STANDARD
  9
$CLAYER
  8
0
  9
$CELTYPE
  6
BYLAYER
  9
$CECOLOR
 62
   256
  9
$DIMSCALE
 40
1.0
  9
$DIMASZ
 40
0.1875
  9
$DIMEXO
 40
0.0625
  9
$DIMDLI
 40
0.4443307087
  9
$DIMRND
 40
0.0
  9
$DIMDLE
 40
0.0
  9
$DIMEXE
 40
0.125
  9
$DIMTP
 40
0.01
  9
$DIMTM
 40
0.01
  9
$DIMTXT
 40
2.0
  9
$DIMCEN
 40
0.1052362205
  9
$DIMTSZ
 40
0.0
  9
$DIMTOL
 70
     1
  9
$DIMLIM
 70
     0
  9
$DIMTIH
 70
     1
  9
$DIMTOH
 70
     1
  9
$DIMSE1
 70
     0
  9
$DIMSE2
 70
     0
  9
$DIMTAD
 70
     0
  9
$DIMZIN
 70
     0
  9
$DIMBLK
  1

  9
$DIMASO
 70
     1
  9
$DIMSHO
 70
     1
  9
$DIMPOST
  1
\X
  9
$DIMAPOST
  1

  9
$DIMALT
 70
     1
  9
$DIMALTD
 70
     2
  9
$DIMALTF
 40
25.3999999999999986
  9
$DIMLFAC
 40
1.0
  9
$DIMTOFL
 70
     0
  9
$DIMTVP
 40
0.0
  9
$DIMTIX
 70
     0
  9
$DIMSOXD
 70
     0
  9
$DIMSAH
 70
     0
  9
$DIMBLK1
  1

  9
$DIMBLK2
  1

  9
$DIMSTYLE
  2
STANDARD
  9
$DIMCLRD
 70
     0
  9
$DIMCLRE
 70
     0
  9
$DIMCLRT
 70
     0
  9
$DIMTFAC
 40
1.0
  9
$DIMGAP
 40
0.09
  9
$LUNITS
 70
     2
  9
$LUPREC
 70
     4
  9
$SKETCHINC
 40
0.1
  9
$FILLETRAD
 40
0.0
  9
$AUNITS
 70
     0
  9
$AUPREC
 70
     0
  9
$MENU
  1
.
  9
$ELEVATION
 40
0.0
  9
$PELEVATION
 40
0.0
  9
$THICKNESS
 40
0.0
  9
$LIMCHECK
 70
     0
  9
$BLIPMODE
 70
     0
  9
$CHAMFERA
 40
0.0
  9
$CHAMFERB
 40
0.0
  9
$SKPOLY
 70
     0
  9
$TDCREATE
 40
2458060.468368056230247
  9
$TDUPDATE
 40
2459354.90734953712672
  9
$TDINDWG
 40
0.3585834491
  9
$TDUSRTIMER
 40
0.3585834491
  9
$USRTIMER
 70
     1
  9
$ANGBASE
 50
0.0
  9
$ANGDIR
 70
     0
  9
$PDMODE
 70
     0
  9
$PDSIZE
 40
0.3125
  9
$PLINEWID
 40
0.0
  9
$COORDS
 70
     1
  9
$SPLFRAME
 70
     0
  9
$SPLINETYPE
 70
     6
  9
$SPLINESEGS
 70
     8
  9
$ATTDIA
 70
     1
  9
$ATTREQ
 70
     1
  9
$HANDLING
 70
     1
  9
$HANDSEED
  5
9224
  9
$SURFTAB1
 70
     6
  9
$SURFTAB2
 70
     6
  9
$SURFTYPE
 70
     6
  9
$SURFU
 70
     6
  9
$SURFV
 70
     6
  9
$UCSNAME
  2

  9
$UCSORG
 10
0.0
 20
0.0
 30
0.0
  9
$UCSXDIR
 10
1.0
 20
0.0
 30
0.0
  9
$UCSYDIR
 10
0.0
 20
1.0
 30
0.0
  9
$PUCSNAME
  2

  9
$PUCSORG
 10
0.0
 20
0.0
 30
0.0
  9
$PUCSXDIR
 10
1.0
 20
0.0
 30
0.0
  9
$PUCSYDIR
 10
0.0
 20
1.0
 30
0.0
  9
$USERI1
 70
     0
  9
$USERI2
 70
     0
  9
$USERI3
 70
     0
  9
$USERI4
 70
     0
  9
$USERI5
 70
     0
  9
$USERR1
 40
0.0
  9
$USERR2
 40
0.0
  9
$USERR3
 40
0.0
  9
$USERR4
 40
0.0
  9
$USERR5
 40
0.0
  9
$WORLDVIEW
 70
     1
  9
$SHADEDGE
 70
     3
  9
$SHADEDIF
 70
    70
  9
$TILEMODE
 70
     1
  9
$MAXACTVP
 70
    64
  9
$PLIMCHECK
 70
     0
  9
$PEXTMIN
 10
1.0000000000000000E+20
 20
1.0000000000000000E+20
 30
1.0000000000000000E+20
  9
$PEXTMAX
 10
-1.0000000000000000E+20
 20
-1.0000000000000000E+20
 30
-1.0000000000000000E+20
  9
$PLIMMIN
 10
0.0
 20
0.0
  9
$PLIMMAX
 10
12.0
 20
9.0
  9
$UNITMODE
 70
     0
  9
$VISRETAIN
 70
     1
  9
$PLINEGEN
 70
     0
  9
$PSLTSCALE
 70
     1
  0
ENDSEC
  0
SECTION
  2
TABLES
  0
TABLE
  2
VPORT
 70
     1
  0
VPORT
  2
*ACTIVE
 70
     0
 10
0.0
 20
0.0
 11
1.0
 21
1.0
 12
295.2423798350127981
 22
21.8473978936603892
 13
0.0
 23
0.0
 14
1.0
 24
1.0
 15
0.0
 25
0.0
 16
0.0
 26
0.0
 36
17.1152628219792007
 17
3803.5440673828129547
 27
125.9952621967499056
 37
0.0
 40
44.8045414593056677
 41
2.5029239766081872
 42
50.0
 43
0.0
 44
0.0
 50
0.0
 51
0.0
 71
     0
 72
   100
 73
     1
 74
     1
 75
     0
 76
     0
 77
     0
 78
     0
  0
ENDTAB
  0
TABLE
  2
LTYPE
 70
     2
  0
LTYPE
  2
CONTINUOUS
 70
     0
  3
Solid line
 72
    65
 73
     0
 40
0.0
  0
LTYPE
  2
PHANTOM2
 70
     0
  3
___ _ _ ___ _ _ ___ _ _ ___ _ _
 72
    65
 73
     6
 40
1.25
 49
0.625
 49
-0.125
 49
0.125
 49
-0.125
 49
0.125
 49
-0.125
  0
ENDTAB
  0
TABLE
  2
LAYER
 70
     2
  0
LAYER
  2
0
 70
     0
 62
   255
  6
CONTINUOUS
  0
LAYER
  2
DEFPOINTS
 70
     0
 62
     7
  6
CONTINUOUS
  0
ENDTAB
  0
TABLE
  2
STYLE
 70
     1
  0
STYLE
  2
STANDARD
 70
     0
 40
0.0
 41
0.8
 50
0.0
 71
     0
 42
0.2
  3
txt
  4

  0
ENDTAB
  0
TABLE
  2
VIEW
 70
     0
  0
ENDTAB
  0
TABLE
  2
UCS
 70
     0
  0
ENDTAB
  0
TABLE
  2
APPID
 70
     9
  0
APPID
  2
ACAD
 70
     0
  0
APPID
  2
ACAD_MLEADERVER
 70
     0
  0
APPID
  2
ACAD_EXEMPT_FROM_CAD_STANDARDS
 70
     0
  0
APPID
  2
ACAD_NAV_VCDISPLAY
 70
     0
  0
APPID
  2
ACAECLAYERSTANDARD
 70
     0
  0
APPID
  2
ACCMTRANSPARENCY
 70
     0
  0
APPID
  2
ACAD_DSTYLE_DIMJAG
 70
     0
  0
APPID
  2
ACAD_DSTYLE_DIMTALN
 70
     0
  0
APPID
  2
ACDBATTR
 70
     0
  0
ENDTAB
  0
TABLE
  2
DIMSTYLE
 70
     1
  0
DIMSTYLE
  2
STANDARD
 70
     0
  3

  4

  5

  6

  7

 40
1.0
 41
0.1875
 42
0.0625
 43
0.38
 44
0.125
 45
0.0
 46
0.0
 47
0.01
 48
0.01
140
0.15625
141
0.09
142
0.0
143
25.3999999999999986
144
1.0
145
0.0
146
1.0
147
0.09
 71
     1
 72
     0
 73
     1
 74
     1
 75
     0
 76
     0
 77
     0
 78
     4
170
     0
171
     2
172
     0
173
     0
174
     0
175
     0
176
     0
177
     0
178
     0
  0
ENDTAB
  0
ENDSEC
  0
SECTION
  2
BLOCKS
  0
BLOCK
  8
0
  2
$MODEL_SPACE
 70
     0
 10
0.0
 20
0.0
 30
0.0
  3
$MODEL_SPACE
  1

  0
ENDBLK
  5
21
  8
0
  0
BLOCK
 67
     1
  8
0
  2
$PAPER_SPACE
 70
     0
 10
0.0
 20
0.0
 30
0.0
  3
$PAPER_SPACE
  1

  0
ENDBLK
  5
1D
 67
     1
  8
0
  0
ENDSEC
  0
SECTION
  2
ENTITIES
  0
ATTDEF
  5
3930
  8
DEFPOINTS
 10
4095.5117528559007951
 20
150.9632129094759989
 30
0.0
 40
0.001
  1
K-EX27029T-9E2
  3

  2
MODELNUMBER
 70
     0
1001
ACDBATTR
1070
     0
1070
     1
  0
ATTDEF
  5
3931
  8
DEFPOINTS
 10
4095.5117528559007951
 20
150.9615462428093906
 30
0.0
 40
0.001
  1

  3

  2
TRADENAME
 70
     0
1001
ACDBATTR
1070
     0
1070
     1
  0
ATTDEF
  5
3932
  8
DEFPOINTS
 10
4095.5117528559007951
 20
150.959879576142697
 30
0.0
 40
0.001
  1
BATH AND SHOWER FAUCET
  3

  2
PRODUCT
 70
     0
1001
ACDBATTR
1070
     0
1070
     1
  0
LINE
  5
8C6C
  8
0
 10
4089.2479673264510893
 20
150.0854932417126975
 30
0.0
 11
4089.2479673264510893
 21
151.6999888943703922
 31
0.0
  0
LINE
  5
8C6D
  8
0
 10
4091.2637114209510401
 20
151.8290124321414964
 30
0.0
 11
4091.2637114209510401
 21
149.956469703941508
 31
0.0
  0
LINE
  5
8C6E
  8
0
 10
4091.2164673264510384
 20
149.9905838117414874
 30
0.0
 11
4091.2164673264510384
 21
151.7948983242415011
 31
0.0
  0
LINE
  5
8C6F
  8
0
 10
4091.2637114209510401
 20
151.7017961861415074
 30
0.0
 11
4091.2164673264510384
 21
151.7017961861415074
 31
0.0
  0
LINE
  5
8C70
  8
0
 10
4090.823964426450857
 20
151.8145983242415014
 30
0.0
 11
4091.1967673264512086
 21
151.8145983242415014
 31
0.0
  0
LINE
  5
8C71
  8
0
 10
4090.823964426450857
 20
149.9708838117414871
 30
0.0
 11
4091.1967673264512086
 21
149.9708838117414871
 31
0.0
  0
LINE
  5
8C72
  8
0
 10
4090.8039644264508752
 20
151.8399042657414952
 30
0.0
 11
4090.8039644264508752
 21
151.5816555408439967
 31
0.0
  0
ARC
  5
8C73
  8
0
 10
4090.7839644264508934
 20
151.5816555408439967
 30
0.0
 40
0.02
 50
270.2500760349022926
 51
359.9999999999951115
  0
LINE
  5
8C74
  8
0
 10
4090.8039644264508752
 20
151.2843535883993979
 30
0.0
 11
4090.8039644264508752
 21
149.9455778702829036
 31
0.0
  0
LINE
  5
8C75
  8
0
 10
4089.3803655136839552
 20
149.9525246598427088
 30
0.0
 11
4090.7835804776018449
 21
149.9255815560404983
 31
0.0
  0
LINE
  5
8C76
  8
0
 10
4089.3803655135970985
 20
151.8329574761542062
 30
0.0
 11
4090.7835804776018449
 21
151.8599005799839006
 31
0.0
  0
LINE
  5
8C77
  8
0
 10
4089.2567541230159804
 20
151.7212020978060139
 30
0.0
 11
4089.3597282334358169
 21
151.8241762082261914
 31
0.0
  0
LINE
  5
8C78
  8
0
 10
4089.3597282335222189
 20
149.9613059277706952
 30
0.0
 11
4089.2567541230159804
 21
150.0642800382771043
 31
0.0
  0
ARC
  5
8C79
  8
0
 10
4089.3809414369570732
 20
149.9825191312062884
 30
0.0
 40
0.03
 50
224.9999999999982947
 51
268.8999999971084094
  0
ARC
  5
8C7A
  8
0
 10
4089.2779673264499252
 20
150.0854932417126975
 30
0.0
 40
0.03
 50
180.0000000000065086
 51
224.9999999999930935
  0
ARC
  5
8C7B
  8
0
 10
4089.2779673264499252
 20
151.6999888943703922
 30
0.0
 40
0.03
 50
134.9999999999689066
 51
180.0
  0
ARC
  5
8C7C
  8
0
 10
4089.3809414368711259
 20
151.8029630047905982
 30
0.0
 40
0.03
 50
91.1000000039340563
 51
134.9999999999643023
  0
ARC
  5
8C7D
  8
0
 10
4090.7839644264508934
 20
151.8399042657414952
 30
0.0
 40
0.02
 50
359.9999999999951115
 51
91.1000000039340563
  0
ARC
  5
8C7E
  8
0
 10
4090.7839644264508934
 20
149.9455778702829036
 30
0.0
 40
0.02
 50
268.8999999971343868
 51
359.9999999999951115
  0
ARC
  5
8C7F
  8
0
 10
4090.823964426450857
 20
149.9508838117415053
 30
0.0
 40
0.02
 50
90.0
 51
180.0
  0
ARC
  5
8C80
  8
0
 10
4090.823964426450857
 20
151.8345983242415116
 30
0.0
 40
0.02
 50
179.9999999999893987
 51
270.0
  0
LINE
  5
8C81
  8
0
 10
4090.6966257806598151
 20
151.5612741452831926
 30
0.0
 11
4090.7840517191780236
 21
151.5616557313454109
 31
0.0
  0
LINE
  5
8C82
  8
0
 10
4090.6958772041039083
 20
151.30472032502621
 30
0.0
 11
4090.7840476531150671
 21
151.3043534152317022
 31
0.0
  0
LINE
  5
8C83
  8
0
 10
4090.6759605515599105
 20
151.3247896622285111
 30
0.0
 11
4090.6767131941787738
 21
151.5413438461546036
 31
0.0
  0
ARC
  5
8C84
  8
0
 10
4090.6959604307671725
 20
151.3247201518584859
 30
0.0
 40
0.02
 50
179.8008670573206018
 51
269.7615724817836735
  0
ARC
  5
8C85
  8
0
 10
4090.6967130733869453
 20
151.5412743357846068
 30
0.0
 40
0.02
 50
90.250076034902321
 51
179.8008670573310894
  0
ARC
  5
8C86
  8
0
 10
4090.7839644264508934
 20
151.2843535883993979
 30
0.0
 40
0.02
 50
359.9999999999797069
 51
89.7615724817837588
  0
LINE
  5
8C87
  8
0
 10
4091.3029114209512045
 20
149.9172697039415141
 30
0.0
 11
4094.9100929169508163
 21
149.9172697039396951
 31
0.0
  0
LINE
  5
8C88
  8
0
 10
4091.3029114209512045
 20
151.8682124321414904
 30
0.0
 11
4099.7284514209513873
 21
151.8682124321373976
 31
0.0
  0
ARC
  5
8C89
  8
0
 10
4091.3029114209512045
 20
151.8290124321414964
 30
0.0
 40
0.0392
 50
89.9999999999739515
 51
179.9999999999974989
  0
ARC
  5
8C8A
  8
0
 10
4091.3029114209512045
 20
149.956469703941508
 30
0.0
 40
0.0392
 50
180.0
 51
269.9999999999739089
  0
ARC
  5
8C8B
  8
0
 10
4091.1967673264512086
 20
149.9905838117414874
 30
0.0
 40
0.0197
 50
270.0
 51
0.0
  0
ARC
  5
8C8C
  8
0
 10
4091.1967673264512086
 20
151.7948983242415011
 30
0.0
 40
0.0197
 50
0.0
 51
89.9999999999739515
  0
LINE
  5
8C8D
  8
0
 10
4091.2637114209510401
 20
150.083685949941497
 30
0.0
 11
4091.2164673264510384
 21
150.083685949941497
 31
0.0
  0
ARC
  5
8C8E
  8
0
 10
4093.9980084060421177
 20
151.3590277474366133
 30
0.0
 40
2.7952001311565482
 50
211.0507951387436094
 51
214.0400482417587114
  0
ARC
  5
8C8F
  8
0
 10
4091.8451770258870965
 20
149.9047342267681984
 30
0.0
 40
0.197190778664126
 50
214.0400482417587114
 51
255.2247624623200863
  0
ARC
  5
8C90
  8
0
 10
4092.5629255154481143
 20
152.4016765795182096
 30
0.0
 40
2.795200201876737
 50
254.0516816819836947
 51
285.9483176764422865
  0
ARC
  5
8C91
  8
0
 10
4093.2806280819049789
 20
149.9049082293622916
 30
0.0
 40
0.197370739948794
 50
284.7752368961196794
 51
327.2247529159218971
  0
ARC
  5
8C92
  8
0
 10
4074.5003067725169785
 20
161.9965194165646096
 30
0.0
 40
22.5336087756237191
 50
327.2247529159218971
 51
327.5845246295463085
  0
ARC
  5
8C93
  8
0
 10
4092.0500267776701548
 20
150.7687087334433045
 30
0.0
 40
1.593791668877395
 50
326.390952466150793
 51
327.7088158411488052
  0
ARC
  5
8C94
  8
0
 10
4093.2158065525559323
 20
149.9939011267424007
 30
0.0
 40
0.1940169330952142
 50
285.6824873628099795
 51
326.390952466150793
  0
ARC
  5
8C95
  8
0
 10
4092.5629255566118445
 20
152.4016768399665125
 30
0.0
 40
2.6887316914249819
 50
254.7918581140422134
 51
285.2081400378941112
  0
ARC
  5
8C96
  8
0
 10
4091.9143648492390639
 20
150.0000740378960131
 30
0.0
 40
0.2011432802296891
 50
214.3921080672228072
 51
253.6079391300058887
  0
ARC
  5
8C97
  8
0
 10
4092.6880365062761484
 20
150.5127147567251882
 30
0.0
 40
1.1292238282342391
 50
211.8235257426136116
 51
213.6825364081331031
  0
ARC
  5
8C98
  8
0
 10
4093.4498555542509166
 20
149.6719865977414941
 30
0.0
 40
2.795200199500028
 50
110.0516817184880978
 51
128.2133065914399026
  0
ARC
  5
8C99
  8
0
 10
4092.5629255162398294
 20
152.1134201570787923
 30
0.0
 40
0.1976965255923189
 50
68.8119018081721947
 51
111.188090506288205
  0
ARC
  5
8C9A
  8
0
 10
4091.6759943866018148
 20
149.6719846231378881
 30
0.0
 40
2.7952024281684178
 50
51.7867008148269079
 51
69.9483105959557605
  0
ARC
  5
8C9B
  8
0
 10
4093.4498555542509166
 20
149.6719865977414941
 30
0.0
 40
2.6887314286000339
 50
110.7918575417791942
 51
125.2316816305856975
  0
ARC
  5
8C9C
  8
0
 10
4092.5629255944768374
 20
152.0078461184855882
 30
0.0
 40
0.1901549430396994
 50
69.2081896285189941
 51
110.7918575417791942
  0
ARC
  5
8C9D
  8
0
 10
4091.6760045616360912
 20
149.6720043133213096
 30
0.0
 40
2.6887116978982122
 50
54.7682593022463209
 51
69.2081896285189941
  0
ARC
  5
8C9E
  8
0
 10
4105.5648986556298041
 20
160.1456712729300875
 30
0.0
 40
1.3942864155999899
 50
105.8084462137324948
 51
127.1149434592070975
  0
ARC
  5
8C9F
  8
0
 10
4104.7588810938777897
 20
161.2112902345137968
 30
0.0
 40
0.0581702859845954
 50
127.3825518959815071
 51
183.2557161036336026
  0
ARC
  5
8CA0
  8
0
 10
4105.6229366803672747
 20
159.9988890810045916
 30
0.0
 40
0.6946946166286315
 50
220.6521776975976934
 51
249.266022200306594
  0
ARC
  5
8CA1
  8
0
 10
4105.8594012197991105
 20
160.2019375329593061
 30
0.0
 40
1.0063741832509689
 50
199.7529018167722086
 51
220.6521776975976934
  0
ARC
  5
8CA2
  8
0
 10
4107.71536047594509
 20
160.8684011109808125
 30
0.0
 40
2.9783677079124118
 50
189.1596948368770938
 51
199.7529018167722086
  0
ARC
  5
8CA3
  8
0
 10
4111.6778857849321867
 20
161.4336976326997046
 30
0.0
 40
6.9807310516239607
 50
181.8528924258208122
 51
188.5630385281573922
  0
LINE
  5
8CA4
  8
0
 10
4105.1303814209513803
 20
161.3400639026415035
 30
0.0
 11
4106.1933436255512788
 21
161.3400639026415035
 31
0.0
  0
ARC
  5
8CA5
  8
0
 10
4102.4526112152343558
 20
161.1739302250514072
 30
0.0
 40
2.750354839210245
 50
3.693461640552985
 51
8.5304059697166323
  0
ARC
  5
8CA6
  8
0
 10
4114.7035851818964147
 20
163.0388728887861021
 30
0.0
 40
9.6417629514535932
 50
187.1847197866079
 51
188.6912825249087007
  0
ARC
  5
8CA7
  8
0
 10
4106.302990263535321
 20
161.962723996792505
 30
0.0
 40
1.172660186611838
 50
179.5739918143165141
 51
186.3517274921975115
  0
LINE
  5
8CA8
  8
0
 10
4105.1303624907859557
 20
161.9714429328101915
 30
0.0
 11
4105.1303624907859557
 21
164.8087082716706959
 31
0.0
  0
ARC
  5
8CA9
  8
0
 10
4105.2090289923771707
 20
161.3518639026414974
 30
0.0
 40
0.0118
 50
183.6934616405985139
 51
269.9999999999739089
  0
LINE
  5
8CAA
  8
0
 10
4105.0595003185499081
 20
161.2731048475415037
 30
0.0
 11
4105.0595003185499081
 21
159.9109599656414957
 31
0.0
  0
LINE
  5
8CAB
  8
0
 10
4105.0989003185513866
 20
161.3125048475415042
 30
0.0
 11
4105.1106814209497315
 21
161.3125048475415042
 31
0.0
  0
ARC
  5
8CAC
  8
0
 10
4105.0989003185513866
 20
161.2731048475415037
 30
0.0
 40
0.0394
 50
90.0
 51
180.0000000000048885
  0
LINE
  5
8CAD
  8
0
 10
4105.0989003185513866
 20
159.8715599656414952
 30
0.0
 11
4106.2248247279512725
 21
159.8715599656414952
 31
0.0
  0
ARC
  5
8CAE
  8
0
 10
4105.0989003185513866
 20
159.9109599656414957
 30
0.0
 40
0.0394
 50
179.9999999999951115
 51
270.0
  0
ARC
  5
8CAF
  8
0
 10
4105.5441103162929721
 20
159.9431514365363114
 30
0.0
 40
1.486305324406741
 50
103.5991378737322037
 51
108.513489616055395
  0
ARC
  5
8CB0
  8
0
 10
4105.0829854375633658
 20
161.3202308782607872
 30
0.0
 40
0.0340712032660784
 50
108.513489616055395
 51
155.0278571208876031
  0
ARC
  5
8CB1
  8
0
 10
4105.1494114134247866
 20
159.8174118547125886
 30
0.0
 40
0.098040220037681
 50
186.9878727021668965
 51
218.0328491466663934
  0
LINE
  5
8CB2
  8
0
 10
4105.0520994435501052
 20
159.805484354377711
 30
0.0
 11
4105.0520994435501052
 21
161.3346149759381944
 31
0.0
  0
LINE
  5
8CB3
  8
0
 10
4105.1106814209497315
 20
161.3203639026415033
 30
0.0
 11
4105.1106814209497315
 21
159.8715599656414952
 31
0.0
  0
ARC
  5
8CB4
  8
0
 10
4105.2378885772268404
 20
161.2979554442333097
 30
0.0
 40
0.1272858091332948
 50
182.0149454496666124
 51
199.1060280212570035
  0
ARC
  5
8CB5
  8
0
 10
4106.5463746860377796
 20
161.8538057729928994
 30
0.0
 40
1.5486697614238629
 50
202.6948732744602069
 51
211.6053627295918886
  0
ARC
  5
8CB6
  8
0
 10
4099.5567305657186807
 20
159.5037836409491092
 30
0.0
 40
5.875653036123313
 50
15.0864417255455994
 51
15.1786282738395304
  0
ARC
  5
8CB7
  8
0
 10
4105.1903581309743458
 20
161.2090366164530053
 30
0.0
 40
0.0370809751130411
 50
357.6117099071997245
 51
36.7740009321255101
  0
ARC
  5
8CB8
  8
0
 10
4104.6682806067601632
 20
160.8188420880694025
 30
0.0
 40
0.6888606244340983
 50
36.7740009321255101
 51
43.0677352600336292
  0
ARC
  5
8CB9
  8
0
 10
4105.9164166985501652
 20
161.9855095354681964
 30
0.0
 40
1.019634806185634
 50
221.6424415584214103
 51
223.0677352600336008
  0
ARC
  5
8CBA
  8
0
 10
4105.1265229190466926
 20
161.2831620024323911
 30
0.0
 40
0.0373534813834469
 50
41.6424415584213392
 51
67.8028341666845478
  0
ARC
  5
8CBB
  8
0
 10
4105.1252854619933714
 20
161.2801292776715911
 30
0.0
 40
0.0406289537824383
 50
67.8028341666845478
 51
82.1641027339365877
  0
ARC
  5
8CBC
  8
0
 10
4105.1933586567556631
 20
161.2707334976275888
 30
0.0
 40
0.0696259069530824
 50
69.6928851851397155
 51
84.7193657853086961
  0
ARC
  5
8CBD
  8
0
 10
4105.1880653935468217
 20
161.2581994664083993
 30
0.0
 40
0.0832202015640835
 50
48.7075342449298176
 51
69.269943615490007
  0
ARC
  5
8CBE
  8
0
 10
4101.633523490702828
 20
157.8986012144897018
 30
0.0
 40
4.9738456499529562
 50
42.3821372212891134
 51
43.4739044433565383
  0
LINE
  5
8CBF
  8
0
 10
4105.3075318146511563
 20
161.2513319500415037
 30
0.0
 11
4105.3075318146511563
 21
159.8715599656414952
 31
0.0
  0
ARC
  5
8CC0
  8
0
 10
4105.1303814209513803
 20
161.3203639026415033
 30
0.0
 40
0.0197
 50
89.9999999999739515
 51
180.0000000000202931
  0
LINE
  5
8CC1
  8
0
 10
4105.1106814266313449
 20
161.3203788633414888
 30
0.0
 11
4105.1308246621892977
 21
161.3203788633414888
 31
0.0
  0
LINE
  5
8CC2
  8
0
 10
4105.2274068963497484
 20
161.2074913982415012
 30
0.0
 11
4105.2274068963497484
 21
161.0422011896415029
 31
0.0
  0
LINE
  5
8CC3
  8
0
 10
4105.2274068963497484
 20
161.2074913982415012
 30
0.0
 11
4105.3075318146511563
 21
161.2074913982415012
 31
0.0
  0
LINE
  5
8CC4
  8
0
 10
4105.2574673019698821
 20
161.0288274172145009
 30
0.0
 11
4105.3075318146511563
 21
161.0288274172145009
 31
0.0
  0
LINE
  5
8CC5
  8
0
 10
4105.2298748057501143
 20
161.033075317741492
 30
0.0
 11
4105.2574673019698821
 21
161.0288274172145009
 31
0.0
  0
ARC
  5
8CC6
  8
0
 10
4104.6602162911585765
 20
161.1828620359464139
 30
0.0
 40
0.0477353372448289
 50
9.2021297919850937
 51
31.7578621515196708
  0
ARC
  5
8CC7
  8
0
 10
4104.7923078018411616
 20
161.2349116620370921
 30
0.0
 40
0.0958788785994105
 50
207.5970247970967932
 51
243.1624082092878041
  0
ARC
  5
8CC8
  8
0
 10
4105.0469115112146028
 20
161.9399374198787882
 30
0.0
 40
0.8448378146592055
 50
249.3535985734000064
 51
260.1441590602722727
  0
ARC
  5
8CC9
  8
0
 10
4104.9543839057423611
 20
161.0662284873010037
 30
0.0
 40
0.0664952287595626
 50
109.3142342490788934
 51
141.5601255049843985
  0
ARC
  5
8CCA
  8
0
 10
4105.962074069202572
 20
157.8037626331949923
 30
0.0
 40
3.4809951102688972
 50
105.673865354277396
 51
107.2056017468845965
  0
ARC
  5
8CCB
  8
0
 10
4105.0269361996097359
 20
161.1262683973453136
 30
0.0
 40
0.0295269665100831
 50
31.5468875223673706
 51
100.3252597521054952
  0
ARC
  5
8CCC
  8
0
 10
4103.3283515135672133
 20
160.9585681741876044
 30
0.0
 40
1.580986178519783
 50
358.6264690516493943
 51
5.4078625743202799
  0
ARC
  5
8CCD
  8
0
 10
4115.2410365747300602
 20
161.1446309283346068
 30
0.0
 40
10.3345801332564502
 50
181.2417476486189969
 51
183.5012364504378013
  0
ARC
  5
8CCE
  8
0
 10
4156.2578006442035985
 20
162.8146086314048091
 30
0.0
 40
51.3836056888062132
 50
182.5667345602124954
 51
183.1359111541896993
  0
ARC
  5
8CCF
  8
0
 10
4105.0813799469124206
 20
159.9318399308166931
 30
0.0
 40
0.1487444510401208
 50
151.1172431025713934
 51
192.9903431787818135
  0
ARC
  5
8CD0
  8
0
 10
4105.7408386918459655
 20
160.0848422822739963
 30
0.0
 40
0.8257196543926749
 50
193.0492592736528934
 51
218.6393069629507977
  0
ARC
  5
8CD1
  8
0
 10
4105.6112216176934453
 20
159.9668019840854924
 30
0.0
 40
0.6508680544091517
 50
217.6475628405327996
 51
248.9078390008436941
  0
LINE
  5
8CD2
  8
0
 10
4105.376994276752157
 20
159.7972059926414943
 30
0.0
 11
4105.376994276752157
 21
131.0693370689415076
 31
0.0
  0
LINE
  5
8CD3
  8
0
 10
4105.267932234752152
 20
159.8172059926415045
 30
0.0
 11
4105.267932234752152
 21
159.8715599656414952
 31
0.0
  0
LINE
  5
8CD4
  8
0
 10
4105.2879322347507696
 20
159.7972059926414943
 30
0.0
 11
4106.03579281175098
 21
159.7972059926414943
 31
0.0
  0
ARC
  5
8CD5
  8
0
 10
4105.2879322347507696
 20
159.8172059926415045
 30
0.0
 40
0.02
 50
180.0000000000202931
 51
270.0
  0
LINE
  5
8CD6
  8
0
 10
4105.0721892841511362
 20
159.7570079848414935
 30
0.0
 11
4105.1208345373261182
 21
159.7570079848414935
 31
0.0
  0
ARC
  5
8CD7
  8
0
 10
4105.9352162285522354
 20
160.7504987289520102
 30
0.0
 40
1.2846172183330451
 50
230.6579279379841978
 51
244.2437558339923953
  0
ARC
  5
8CD8
  8
0
 10
4105.1026191892351562
 20
159.8662598122961924
 30
0.0
 40
0.1107599049913768
 50
279.4657376451095843
 51
333.4465266275777253
  0
ARC
  5
8CD9
  8
0
 10
4105.0687604129689134
 20
159.8831806489556868
 30
0.0
 40
0.1486113441127524
 50
333.4465266275777253
 51
346.7005373849219723
  0
ARC
  5
8CDA
  8
0
 10
4105.0269764462100284
 20
160.2637851171639909
 30
0.0
 40
0.4547529505907948
 50
294.1994472783072183
 51
300.4013655066049751
  0
ARC
  5
8CDB
  8
0
 10
4105.7052637653587226
 20
167.0167023049571924
 30
0.0
 40
2.9648706453432681
 50
90.838753900381576
 51
104.1311796954195046
  0
ARC
  5
8CDC
  8
0
 10
4105.6501683898140982
 20
167.3917029686423916
 30
0.0
 40
2.5880474635011699
 50
104.9752569860052063
 51
127.8865176675463005
  0
ARC
  5
8CDD
  8
0
 10
4105.5802209783742001
 20
167.4815980070279124
 30
0.0
 40
2.4741450566189118
 50
127.8865176675463005
 51
155.9697028922107904
  0
ARC
  5
8CDE
  8
0
 10
4106.5130109240290039
 20
167.2865811390990132
 30
0.0
 40
3.4114750184602651
 50
159.3598333137653071
 51
178.3354530847302897
  0
ARC
  5
8CDF
  8
0
 10
4105.8416517427840517
 20
167.4250609317311955
 30
0.0
 40
2.7389594533597581
 50
180.8238982770145071
 51
208.6954396152495121
  0
ARC
  5
8CE0
  8
0
 10
4105.5669292127240624
 20
167.3931371908554127
 30
0.0
 40
2.484822270816486
 50
211.0920348416146055
 51
236.6199280043194051
  0
ARC
  5
8CE1
  8
0
 10
4105.6487781472551433
 20
167.5139077305597937
 30
0.0
 40
2.630703594112628
 50
236.578540349966886
 51
259.8477978538705884
  0
ARC
  5
8CE2
  8
0
 10
4105.6977650833387088
 20
167.9701745250816032
 30
0.0
 40
3.0886291192854531
 50
260.4451976340488955
 51
269.3339726411957145
  0
ARC
  5
8CE3
  8
0
 10
4105.6845289954444524
 20
166.9034827903691962
 30
0.0
 40
2.6906019947231581
 50
90.4826832646895838
 51
104.4833238288444051
  0
ARC
  5
8CE4
  8
0
 10
4105.6469391153268589
 20
167.1324847212158033
 30
0.0
 40
2.4595650853382809
 50
104.9696770495873039
 51
126.3448051604657962
  0
ARC
  5
8CE5
  8
0
 10
4105.5574362474362715
 20
167.2541286227425985
 30
0.0
 40
2.3085419012261852
 50
126.3448051604657962
 51
154.1098948483125071
  0
ARC
  5
8CE6
  8
0
 10
4105.4326390583164539
 20
167.3147002503023941
 30
0.0
 40
2.1698218216492422
 50
154.1098948483125071
 51
181.5422169402810084
  0
ARC
  5
8CE7
  8
0
 10
4105.4590451876392763
 20
167.3154111895402991
 30
0.0
 40
2.1962375196414299
 50
181.5422169402810084
 51
212.552103857509195
  0
ARC
  5
8CE8
  8
0
 10
4105.5828149111102903
 20
167.3944195265881092
 30
0.0
 40
2.343075054936159
 50
212.552103857509195
 51
240.9069426434654133
  0
ARC
  5
8CE9
  8
0
 10
4105.6638580317812739
 20
167.5400668043866119
 30
0.0
 40
2.5097517387833319
 50
240.9069426434654133
 51
259.6898980201390827
  0
ARC
  5
8CEA
  8
0
 10
4105.672463641696595
 20
167.6697449559677011
 30
0.0
 40
2.6389174174494601
 50
260.0099882957505883
 51
269.7698294858341796
  0
ARC
  5
8CEB
  8
0
 10
4105.6769894649078196
 20
167.766688658973294
 30
0.0
 40
2.8067766942649879
 50
261.6973964034505116
 51
269.6912066037792215
  0
ARC
  5
8CEC
  8
0
 10
4105.6604361024683385
 20
167.5507675826511047
 30
0.0
 40
2.5907705825734251
 50
248.2325922640609122
 51
261.370101155450584
  0
ARC
  5
8CED
  8
0
 10
4105.6241730208312219
 20
167.4626812983526065
 30
0.0
 40
2.495517538916372
 50
227.843190183985314
 51
248.2558164385908981
  0
ARC
  5
8CEE
  8
0
 10
4105.5327856012800112
 20
167.3632486549674923
 30
0.0
 40
2.3604715086784531
 50
204.4431747411337881
 51
227.8677318190889878
  0
ARC
  5
8CEF
  8
0
 10
4105.4442948973310195
 20
167.3206009650623969
 30
0.0
 40
2.2622659068002871
 50
182.3365266237005073
 51
204.387236857632189
  0
ARC
  5
8CF0
  8
0
 10
4105.4344143762164094
 20
167.3178339874156109
 30
0.0
 40
2.2522820323546129
 50
158.7881649337030012
 51
182.2764432700753048
  0
ARC
  5
8CF1
  8
0
 10
4105.5155549888468158
 20
167.2842096638451892
 30
0.0
 40
2.3400919954606771
 50
135.559125514622707
 51
158.7394855041328867
  0
ARC
  5
8CF2
  8
0
 10
4105.6108387020804003
 20
167.1923720633978121
 30
0.0
 40
2.4724244895424801
 50
115.7125832414250937
 51
135.5856705504650108
  0
ARC
  5
8CF3
  8
0
 10
4105.6554650028456308
 20
167.1034746996830052
 30
0.0
 40
2.5718813463623009
 50
98.4276309759661387
 51
115.7490907677390055
  0
ARC
  5
8CF4
  8
0
 10
4105.712056467081311
 20
166.3900766238139113
 30
0.0
 40
3.2862290621528989
 50
90.8751711820989101
 51
97.5806840577393331
  0
ARC
  5
8CF5
  8
0
 10
4105.6844884197480496
 20
166.7716037791001895
 30
0.0
 40
2.8984172900415919
 50
90.4472722227334174
 51
98.1737047332057244
  0
ARC
  5
8CF6
  8
0
 10
4105.6591573570067339
 20
167.0899330550014099
 30
0.0
 40
2.5797992641208451
 50
98.6219975181101205
 51
108.0705991486935034
  0
ARC
  5
8CF7
  8
0
 10
4105.6446212499922694
 20
167.1344837321539103
 30
0.0
 40
2.5329371126348348
 50
108.0705991486935034
 51
122.3123758605387934
  0
ARC
  5
8CF8
  8
0
 10
4105.5890873609487244
 20
167.2222876620805039
 30
0.0
 40
2.4290451353565619
 50
122.3123758605387934
 51
143.4232274160291922
  0
ARC
  5
8CF9
  8
0
 10
4105.4751885225377919
 20
167.3068047847712023
 30
0.0
 40
2.2872139349123568
 50
143.4232274160291922
 51
166.4547692124180003
  0
ARC
  5
8CFA
  8
0
 10
4105.4266924305638895
 20
167.3184881647310078
 30
0.0
 40
2.2373303473912398
 50
166.4547692124180003
 51
191.5572946505263872
  0
ARC
  5
8CFB
  8
0
 10
4105.4720974777419542
 20
167.3277732191814096
 30
0.0
 40
2.283675040133204
 50
191.5572946505263872
 51
217.0526942354883033
  0
ARC
  5
8CFC
  8
0
 10
4105.5980267530012497
 20
167.4228494413688964
 30
0.0
 40
2.441464996698234
 50
217.0526942354883033
 51
240.8566159440250942
  0
ARC
  5
8CFD
  8
0
 10
4105.6536618751579226
 20
167.5226281609103012
 30
0.0
 40
2.5557062313325658
 50
240.8566159440250942
 51
260.0551496980410775
  0
ARC
  5
8CFE
  8
0
 10
4105.6630249815852949
 20
167.5760294989347869
 30
0.0
 40
2.6099221945239042
 50
260.0551496980410775
 51
269.9744804811606969
  0
ARC
  5
8CFF
  8
0
 10
4105.6685660981684123
 20
167.2039353939516104
 30
0.0
 40
0.938283879342782
 50
90.4093481735136066
 51
111.4532916480723941
  0
ARC
  5
8D00
  8
0
 10
4105.6475589186811703
 20
167.2749200956774871
 30
0.0
 40
0.8645578242531177
 50
111.8781248820878034
 51
140.3340467788881085
  0
ARC
  5
8D01
  8
0
 10
4105.5936951187795785
 20
167.3195846418130941
 30
0.0
 40
0.7945847535667415
 50
140.3340467788875117
 51
167.5900667422617971
  0
ARC
  5
8D02
  8
0
 10
4105.5835352907397464
 20
167.3218202714868994
 30
0.0
 40
0.7841818623417902
 50
167.5900667422617971
 51
191.7166073837238116
  0
ARC
  5
8D03
  8
0
 10
4105.5983573296280156
 20
167.3248942489169906
 30
0.0
 40
0.7993193051257264
 50
191.7166073837238116
 51
226.7716417845250021
  0
ARC
  5
8D04
  8
0
 10
4105.6620691353236907
 20
167.3926731734393059
 30
0.0
 40
0.8923417582999174
 50
226.7716417845250021
 51
250.7999350589007861
  0
ARC
  5
8D05
  8
0
 10
4105.6552879906803355
 20
167.373200449593412
 30
0.0
 40
0.8717220857354085
 50
250.7999350589007861
 51
265.6635340568300876
  0
ARC
  5
8D06
  8
0
 10
4105.6663652993865981
 20
167.5192803900679905
 30
0.0
 40
1.0182214228577049
 50
265.6635340568300876
 51
269.7466259265416966
  0
ARC
  5
8D07
  8
0
 10
4105.677440091319113
 20
167.1082277480340963
 30
0.0
 40
1.0547945618156389
 50
90.8461944959891383
 51
101.311438257513899
  0
ARC
  5
8D08
  8
0
 10
4105.6587095286340627
 20
167.2695611007231946
 30
0.0
 40
0.8930198881368998
 50
102.1633484463797004
 51
122.7138490575281935
  0
ARC
  5
8D09
  8
0
 10
4105.6293800623197967
 20
167.3152221587560859
 30
0.0
 40
0.8387506536213866
 50
122.7138490575281935
 51
142.9170836015732107
  0
ARC
  5
8D0A
  8
0
 10
4105.6152280459318717
 20
167.3259186129957925
 30
0.0
 40
0.8210110453620409
 50
142.9170836015732107
 51
166.5470154920195966
  0
ARC
  5
8D0B
  8
0
 10
4105.547386234357873
 20
167.3421471245549981
 30
0.0
 40
0.7512552141732157
 50
166.5470154920195966
 51
189.0460068285881903
  0
ARC
  5
8D0C
  8
0
 10
4104.021019960785452
 20
164.8229719040695045
 30
0.0
 40
1.1094342252164859
 50
359.2633466370651831
 51
5.8441358583183023
  0
CIRCLE
  5
8D0D
  8
0
 10
4105.3612795157514483
 20
165.3186649053415067
 30
0.0
 40
0.0168133160489885
  0
CIRCLE
  5
8D0E
  8
0
 10
4105.3612795157514483
 20
165.3211865616038097
 30
0.0
 40
0.0575752814997145
  0
CIRCLE
  5
8D0F
  8
0
 10
4105.3621500915496654
 20
165.35334716519219
 30
0.0
 40
0.094950375129288
  0
CIRCLE
  5
8D10
  8
0
 10
4104.7844649484513866
 20
165.4797434819415116
 30
0.0
 40
0.0168133160489885
  0
CIRCLE
  5
8D11
  8
0
 10
4104.7844649484513866
 20
165.4822651382037861
 30
0.0
 40
0.0575752814997145
  0
CIRCLE
  5
8D12
  8
0
 10
4104.7853355242496036
 20
165.5144257417921949
 30
0.0
 40
0.094950375129288
  0
CIRCLE
  5
8D13
  8
0
 10
4105.2002813252192936
 20
165.8440232482375052
 30
0.0
 40
0.0168133160489885
  0
CIRCLE
  5
8D14
  8
0
 10
4105.2002813252192936
 20
165.8465449044998081
 30
0.0
 40
0.0575752814997145
  0
CIRCLE
  5
8D15
  8
0
 10
4105.2011519010184202
 20
165.8787055080881885
 30
0.0
 40
0.094950375129288
  0
CIRCLE
  5
8D16
  8
0
 10
4104.7751817204125473
 20
166.0290952464461043
 30
0.0
 40
0.0168133160489885
  0
CIRCLE
  5
8D17
  8
0
 10
4104.7751817204125473
 20
166.0316169027084925
 30
0.0
 40
0.0575752814997145
  0
CIRCLE
  5
8D18
  8
0
 10
4104.7760522962116738
 20
166.0637775062967876
 30
0.0
 40
0.094950375129288
  0
CIRCLE
  5
8D19
  8
0
 10
4104.2796481061468512
 20
165.7889216679261892
 30
0.0
 40
0.0168133160489885
  0
CIRCLE
  5
8D1A
  8
0
 10
4104.2796481061468512
 20
165.7914433241884922
 30
0.0
 40
0.0575752814997145
  0
CIRCLE
  5
8D1B
  8
0
 10
4104.2805186819450682
 20
165.8236039277769009
 30
0.0
 40
0.094950375129288
  0
CIRCLE
  5
8D1C
  8
0
 10
4103.8850518967510652
 20
166.2209454269415119
 30
0.0
 40
0.0168133160489885
  0
CIRCLE
  5
8D1D
  8
0
 10
4103.8850518967510652
 20
166.2234670832037864
 30
0.0
 40
0.0575752814997145
  0
CIRCLE
  5
8D1E
  8
0
 10
4103.8859224725511012
 20
166.2556276867921952
 30
0.0
 40
0.094950375129288
  0
CIRCLE
  5
8D1F
  8
0
 10
4104.4233139456855497
 20
166.320677011184614
 30
0.0
 40
0.0168133160489885
  0
CIRCLE
  5
8D20
  8
0
 10
4104.4233139456855497
 20
166.3231986674470022
 30
0.0
 40
0.0575752814997145
  0
CIRCLE
  5
8D21
  8
0
 10
4104.4241845214846762
 20
166.3553592710352973
 30
0.0
 40
0.094950375129288
  0
CIRCLE
  5
8D22
  8
0
 10
4104.7676509948923922
 20
166.6590472138842074
 30
0.0
 40
0.0168133160489885
  0
CIRCLE
  5
8D23
  8
0
 10
4104.7676509948923922
 20
166.6615688701465103
 30
0.0
 40
0.0575752814997145
  0
CIRCLE
  5
8D24
  8
0
 10
4104.7685215706933377
 20
166.6937294737348907
 30
0.0
 40
0.094950375129288
  0
CIRCLE
  5
8D25
  8
0
 10
4104.1689503468523981
 20
166.6938301009415113
 30
0.0
 40
0.0168133160489885
  0
CIRCLE
  5
8D26
  8
0
 10
4104.1689503468523981
 20
166.6963517572037858
 30
0.0
 40
0.0575752814997145
  0
CIRCLE
  5
8D27
  8
0
 10
4104.1698209226506151
 20
166.7285123607921946
 30
0.0
 40
0.094950375129288
  0
CIRCLE
  5
8D28
  8
0
 10
4103.6349627648460228
 20
166.740718666230606
 30
0.0
 40
0.0168133160489885
  0
CIRCLE
  5
8D29
  8
0
 10
4103.6349627648460228
 20
166.7432403224929089
 30
0.0
 40
0.0575752814997145
  0
CIRCLE
  5
8D2A
  8
0
 10
4103.6358333406451493
 20
166.775400926081204
 30
0.0
 40
0.094950375129288
  0
CIRCLE
  5
8D2B
  8
0
 10
4104.5654468314196492
 20
166.99278132996659
 30
0.0
 40
0.0168133160489885
  0
CIRCLE
  5
8D2C
  8
0
 10
4104.5654468314196492
 20
166.9953029862288929
 30
0.0
 40
0.0575752814997145
  0
CIRCLE
  5
8D2D
  8
0
 10
4104.5663174072205948
 20
167.0274635898173017
 30
0.0
 40
0.094950375129288
  0
CIRCLE
  5
8D2E
  8
0
 10
4104.0386549936501979
 20
167.1188552032238874
 30
0.0
 40
0.0168133160489885
  0
CIRCLE
  5
8D2F
  8
0
 10
4104.0386549936501979
 20
167.1213768594861904
 30
0.0
 40
0.0575752814997145
  0
CIRCLE
  5
8D30
  8
0
 10
4104.0395255694502339
 20
167.1535374630745991
 30
0.0
 40
0.094950375129288
  0
CIRCLE
  5
8D31
  8
0
 10
4103.5497636645523016
 20
167.3069443598415091
 30
0.0
 40
0.0168133160489885
  0
CIRCLE
  5
8D32
  8
0
 10
4103.5497636645523016
 20
167.3094660161038121
 30
0.0
 40
0.0575752814997145
  0
CIRCLE
  5
8D33
  8
0
 10
4103.5506342403514282
 20
167.3416266196921924
 30
0.0
 40
0.094950375129288
  0
CIRCLE
  5
8D34
  8
0
 10
4104.0392784308487535
 20
167.5631004425947026
 30
0.0
 40
0.0168133160489885
  0
CIRCLE
  5
8D35
  8
0
 10
4104.0392784308487535
 20
167.5656220988570055
 30
0.0
 40
0.0575752814997145
  0
CIRCLE
  5
8D36
  8
0
 10
4104.0401490066487895
 20
167.5977827024453859
 30
0.0
 40
0.094950375129288
  0
CIRCLE
  5
8D37
  8
0
 10
4103.6353185087509701
 20
167.8728676979415013
 30
0.0
 40
0.0168133160489885
  0
CIRCLE
  5
8D38
  8
0
 10
4103.6353185087509701
 20
167.8753893542038043
 30
0.0
 40
0.0575752814997145
  0
CIRCLE
  5
8D39
  8
0
 10
4103.6361890845510061
 20
167.907549957792213
 30
0.0
 40
0.094950375129288
  0
CIRCLE
  5
8D3A
  8
0
 10
4104.5650348051040055
 20
167.7528482943712902
 30
0.0
 40
0.0168133160489885
  0
CIRCLE
  5
8D3B
  8
0
 10
4104.5650348051040055
 20
167.7553699506337068
 30
0.0
 40
0.0575752814997145
  0
CIRCLE
  5
8D3C
  8
0
 10
4104.565905380904951
 20
167.7875305542220019
 30
0.0
 40
0.094950375129288
  0
CIRCLE
  5
8D3D
  8
0
 10
4104.1697216442144054
 20
167.9886151398509924
 30
0.0
 40
0.0168133160489885
  0
CIRCLE
  5
8D3E
  8
0
 10
4104.1697216442144054
 20
167.9911367961132953
 30
0.0
 40
0.0575752814997145
  0
CIRCLE
  5
8D3F
  8
0
 10
4104.1705922200126224
 20
168.0232973997015904
 30
0.0
 40
0.094950375129288
  0
CIRCLE
  5
8D40
  8
0
 10
4104.7672983435468268
 20
168.0864393727391075
 30
0.0
 40
0.0168133160489885
  0
CIRCLE
  5
8D41
  8
0
 10
4104.7672983435468268
 20
168.0889610290014105
 30
0.0
 40
0.0575752814997145
  0
CIRCLE
  5
8D42
  8
0
 10
4104.7681689193477723
 20
168.1211216325897908
 30
0.0
 40
0.094950375129288
  0
CIRCLE
  5
8D43
  8
0
 10
4104.4236665970302056
 20
168.3625770718194019
 30
0.0
 40
0.0168133160489885
  0
CIRCLE
  5
8D44
  8
0
 10
4104.4236665970302056
 20
168.3650987280817048
 30
0.0
 40
0.0575752814997145
  0
CIRCLE
  5
8D45
  8
0
 10
4104.4245371728293321
 20
168.3972593316699999
 30
0.0
 40
0.094950375129288
  0
CIRCLE
  5
8D46
  8
0
 10
4103.8850518967510652
 20
168.3929432927415064
 30
0.0
 40
0.0168133160489885
  0
CIRCLE
  5
8D47
  8
0
 10
4103.8850518967510652
 20
168.3954649490038094
 30
0.0
 40
0.0575752814997145
  0
CIRCLE
  5
8D48
  8
0
 10
4103.8859224725511012
 20
168.4276255525921897
 30
0.0
 40
0.094950375129288
  0
CIRCLE
  5
8D49
  8
0
 10
4104.2791596120641771
 20
168.8251188078257883
 30
0.0
 40
0.0168133160489885
  0
CIRCLE
  5
8D4A
  8
0
 10
4104.2791596120641771
 20
168.8276404640880912
 30
0.0
 40
0.0575752814997145
  0
CIRCLE
  5
8D4B
  8
0
 10
4104.2800301878642131
 20
168.8598010676765
 30
0.0
 40
0.094950375129288
  0
CIRCLE
  5
8D4C
  8
0
 10
4104.7762657634493735
 20
168.6539109867246964
 30
0.0
 40
0.0168133160489885
  0
CIRCLE
  5
8D4D
  8
0
 10
4104.7762657634493735
 20
168.656432642987113
 30
0.0
 40
0.0575752814997145
  0
CIRCLE
  5
8D4E
  8
0
 10
4104.7771363392475905
 20
168.6885932465754081
 30
0.0
 40
0.094950375129288
  0
CIRCLE
  5
8D4F
  8
0
 10
4105.1998953879037799
 20
168.8379129765120013
 30
0.0
 40
0.0168133160489885
  0
CIRCLE
  5
8D50
  8
0
 10
4105.1998953879037799
 20
168.8404346327743042
 30
0.0
 40
0.0575752814997145
  0
CIRCLE
  5
8D51
  8
0
 10
4105.2007659637038159
 20
168.872595236362713
 30
0.0
 40
0.094950375129288
  0
CIRCLE
  5
8D52
  8
0
 10
4104.7844649484513866
 20
169.1341452377415067
 30
0.0
 40
0.0168133160489885
  0
CIRCLE
  5
8D53
  8
0
 10
4104.7844649484513866
 20
169.1366668940038096
 30
0.0
 40
0.0575752814997145
  0
CIRCLE
  5
8D54
  8
0
 10
4104.7853355242496036
 20
169.16882749759219
 30
0.0
 40
0.094950375129288
  0
CIRCLE
  5
8D55
  8
0
 10
4105.3612795157514483
 20
169.2952238144414991
 30
0.0
 40
0.0168133160489885
  0
CIRCLE
  5
8D56
  8
0
 10
4105.3612795157514483
 20
169.2977454707038021
 30
0.0
 40
0.0575752814997145
  0
CIRCLE
  5
8D57
  8
0
 10
4105.3621500915496654
 20
169.3299060742922109
 30
0.0
 40
0.094950375129288
  0
CIRCLE
  5
8D58
  8
0
 10
4105.6618625232513295
 20
168.9002499839789095
 30
0.0
 40
0.0168133160489885
  0
CIRCLE
  5
8D59
  8
0
 10
4105.6618625232513295
 20
168.9027716402412125
 30
0.0
 40
0.0575752814997145
  0
CIRCLE
  5
8D5A
  8
0
 10
4105.6627330990513656
 20
168.9349322438295076
 30
0.0
 40
0.094950375129288
  0
CIRCLE
  5
8D5B
  8
0
 10
4105.4600090403873764
 20
168.4665312722839019
 30
0.0
 40
0.0168133160489885
  0
CIRCLE
  5
8D5C
  8
0
 10
4105.4600090403873764
 20
168.4690529285462048
 30
0.0
 40
0.0575752814997145
  0
CIRCLE
  5
8D5D
  8
0
 10
4105.4608796161855935
 20
168.5012135321346136
 30
0.0
 40
0.094950375129288
  0
CIRCLE
  5
8D5E
  8
0
 10
4105.4593199308710609
 20
166.2810321356400038
 30
0.0
 40
0.0168133160489885
  0
CIRCLE
  5
8D5F
  8
0
 10
4105.4593199308710609
 20
166.2835537919023068
 30
0.0
 40
0.0575752814997145
  0
CIRCLE
  5
8D60
  8
0
 10
4105.460190506671097
 20
166.3157143954906019
 30
0.0
 40
0.094950375129288
  0
CIRCLE
  5
8D61
  8
0
 10
4105.0777151117399626
 20
166.4373788479925054
 30
0.0
 40
0.0281701395609016
  0
CIRCLE
  5
8D62
  8
0
 10
4105.0791892087181623
 20
166.4339510405791884
 30
0.0
 40
0.0577859650669254
  0
ARC
  5
8D63
  8
0
 10
4105.0777151117399626
 20
166.4655489875534045
 30
0.0
 40
0.0282915266551924
 50
210.1426455436715059
 51
329.8573544563283804
  0
CIRCLE
  5
8D64
  8
0
 10
4104.4946322027371934
 20
167.3974011314302004
 30
0.0
 40
0.0281701395609016
  0
CIRCLE
  5
8D65
  8
0
 10
4104.4961062997153931
 20
167.3939733240169119
 30
0.0
 40
0.0577859650669254
  0
ARC
  5
8D66
  8
0
 10
4104.4946322027371934
 20
167.4255712709910995
 30
0.0
 40
0.0282915266551924
 50
210.1426455436715059
 51
329.8573544563283804
  0
CIRCLE
  5
8D67
  8
0
 10
4105.0789709823438898
 20
168.3573648433898882
 30
0.0
 40
0.0281701395609016
  0
CIRCLE
  5
8D68
  8
0
 10
4105.0804450793220894
 20
168.3539370359765996
 30
0.0
 40
0.0577859650669254
  0
ARC
  5
8D69
  8
0
 10
4105.0789709823438898
 20
168.3855349829507873
 30
0.0
 40
0.0282915266551924
 50
210.1426455436715059
 51
329.8573544563283804
  0
LINE
  5
8D6A
  8
0
 10
4089.3597282334358169
 20
151.8241762082261914
 30
0.0
 11
4089.3597282334358169
 21
149.9613059278566993
 31
0.0
  0
LINE
  5
8D6B
  8
0
 10
4094.9100929169508163
 20
149.7477676131991018
 30
0.0
 11
4094.9100929169508163
 21
150.880231902522894
 31
0.0
  0
ARC
  5
8D6C
  8
0
 10
4095.5431227935991956
 20
152.4602848999365108
 30
0.0
 40
2.982977279286565
 50
267.9762136031619093
 51
269.4729101609929103
  0
ARC
  5
8D6D
  8
0
 10
4095.5066039770240423
 20
150.8743864942767914
 30
0.0
 40
1.396914670072273
 50
259.716321059965594
 51
267.1760074801459268
  0
ARC
  5
8D6E
  8
0
 10
4095.3789360102009596
 20
150.1707357367073996
 30
0.0
 40
0.6817758734874987
 50
244.659802472174988
 51
259.716321059965594
  0
ARC
  5
8D6F
  8
0
 10
4095.1483999802471772
 20
149.6839172713146979
 30
0.0
 40
0.1431302763138393
 50
218.6123104643114914
 51
244.659802472174988
  0
ARC
  5
8D70
  8
0
 10
4095.0802025236339432
 20
149.6294519623274937
 30
0.0
 40
0.0558527707839095
 50
137.083737991931514
 51
218.6123104643120882
  0
ARC
  5
8D71
  8
0
 10
4095.2252408058648143
 20
149.4719694748135055
 30
0.0
 40
0.2698152374707982
 50
106.2611928951911011
 51
133.5625302294168932
  0
ARC
  5
8D72
  8
0
 10
4095.4569797772292077
 20
148.7599181311109078
 30
0.0
 40
1.0185334161923061
 50
94.2022250292974661
 51
107.5597479519160942
  0
ARC
  5
8D73
  8
0
 10
4095.5611757486749411
 20
147.1493576524617879
 30
0.0
 40
2.6324370442847869
 50
90.9902469460354837
 51
93.8953095984418269
  0
ARC
  5
8D74
  8
0
 10
4095.4129609734368387
 20
150.3094059432503116
 30
0.0
 40
0.8117931356407627
 50
251.8853246444643901
 51
263.0677566593021197
  0
ARC
  5
8D75
  8
0
 10
4095.2803246568391842
 20
149.9039563217905027
 30
0.0
 40
0.3851999007878184
 50
238.0583066427670076
 51
251.8853246444641911
  0
ARC
  5
8D76
  8
0
 10
4095.1355849047108677
 20
149.6717989208125061
 30
0.0
 40
0.111618734266418
 50
210.851001944825299
 51
238.0583066427890913
  0
ARC
  5
8D77
  8
0
 10
4095.0821717824687767
 20
149.6398938337621018
 30
0.0
 40
0.0494022074643
 50
136.0451282258349011
 51
210.851001944825299
  0
ARC
  5
8D78
  8
0
 10
4095.2675813915279832
 20
149.807722568564202
 30
0.0
 40
0.2461919415825873
 50
225.3195715558406107
 51
259.8716869837717809
  0
ARC
  5
8D79
  8
0
 10
4095.1291371566539965
 20
149.6636649710854101
 30
0.0
 40
0.0465016749983433
 50
140.721785364278503
 51
221.7996221680332951
  0
ARC
  5
8D7A
  8
0
 10
4095.1807805991561509
 20
149.6259896658162916
 30
0.0
 40
0.1103861021656875
 50
115.504176219243206
 51
142.5548770742468037
  0
ARC
  5
8D7B
  8
0
 10
4095.1885376048539911
 20
149.7758642028042004
 30
0.0
 40
0.1878365357907822
 50
216.9663811805876037
 51
257.6012754582670823
  0
ARC
  5
8D7C
  8
0
 10
4095.5295362846031821
 20
151.2936318472598884
 30
0.0
 40
1.816122193796228
 50
268.6853208767042815
 51
269.5628967501183979
  0
ARC
  5
8D7D
  8
0
 10
4095.5145873234450846
 20
150.3510990669140028
 30
0.0
 40
0.873520082640281
 50
264.7585842174262893
 51
268.2471669518985777
  0
ARC
  5
8D7E
  8
0
 10
4095.4979319391768513
 20
150.1695413011885876
 30
0.0
 40
0.6911999682252717
 50
256.5154887792767795
 51
264.7585842174262893
  0
ARC
  5
8D7F
  8
0
 10
4095.4027474697099933
 20
149.7725967590938012
 30
0.0
 40
0.2830026474026423
 50
239.5196108660892946
 51
256.5154887792767795
  0
ARC
  5
8D80
  8
0
 10
4095.3463691592728537
 20
149.645817806324601
 30
0.0
 40
0.1459955364788373
 50
215.7049917691992107
 51
233.3380148018096918
  0
ARC
  5
8D81
  8
0
 10
4095.3988745610918158
 20
149.6912502143111112
 30
0.0
 40
0.2152372922953349
 50
198.2835691998525931
 51
217.3689163993921909
  0
ARC
  5
8D82
  8
0
 10
4095.2309626044711877
 20
149.6335754120028128
 30
0.0
 40
0.0377661805232322
 50
132.497372948705987
 51
195.1176289739746892
  0
ARC
  5
8D83
  8
0
 10
4095.3733810758858453
 20
149.4510166811568013
 30
0.0
 40
0.2692042075407708
 50
95.5181305537712007
 51
128.5947289203377011
  0
ARC
  5
8D84
  8
0
 10
4095.5104655813220234
 20
148.8145579171973907
 30
0.0
 40
0.9189814694277746
 50
90.3866768480252745
 51
100.2148101047060038
  0
ARC
  5
8D85
  8
0
 10
4095.5079215193659365
 20
150.1090346275659897
 30
0.0
 40
0.3755339842169627
 50
269.4419001457914078
 51
271.1840240175444023
  0
ARC
  5
8D86
  8
0
 10
4095.5378941552098695
 20
148.3139671584011126
 30
0.0
 40
1.429519074126357
 50
90.8903323979220232
 51
96.816905827618811
  0
ARC
  5
8D87
  8
0
 10
4095.4643099098270795
 20
149.0314643027689101
 30
0.0
 40
0.7084633784068555
 50
97.7955753945256845
 51
105.5993870213905979
  0
ARC
  5
8D88
  8
0
 10
4095.3664707626858217
 20
149.3818992256508125
 30
0.0
 40
0.3446266926692881
 50
105.5993870213905979
 51
118.4774771858818951
  0
ARC
  5
8D89
  8
0
 10
4095.2492317906981043
 20
149.5980291142741976
 30
0.0
 40
0.0987464264643532
 50
118.4774771858818951
 51
148.3766392476171916
  0
ARC
  5
8D8A
  8
0
 10
4095.1968420446878554
 20
149.6338350511410908
 30
0.0
 40
0.0354903123893353
 50
153.2573185586732052
 51
205.6629768735537027
  0
ARC
  5
8D8B
  8
0
 10
4095.2495762445128094
 20
149.6684580546939003
 30
0.0
 40
0.0983737719258434
 50
210.5436561846019003
 51
250.919474330090992
  0
ARC
  5
8D8C
  8
0
 10
4095.7115470622361499
 20
149.8690727021609916
 30
0.0
 40
0.6013975746557496
 50
201.3448092469243988
 51
204.6269758444043134
  0
ARC
  5
8D8D
  8
0
 10
4095.1863065842649121
 20
149.6638166368670966
 30
0.0
 40
0.0374759382206169
 50
165.3736116451285909
 51
201.3448092469243988
  0
ARC
  5
8D8E
  8
0
 10
4095.2151200302600955
 20
149.6495544620908049
 30
0.0
 40
0.0692649829217647
 50
123.5726323115481051
 51
159.9688411804715997
  0
ARC
  5
8D8F
  8
0
 10
4095.3958726202099569
 20
149.3404032490101088
 30
0.0
 40
0.4272855796986556
 50
95.4446155871018647
 51
120.8417142864690987
  0
ARC
  5
8D90
  8
0
 10
4095.5166450700608038
 20
148.6349172791344984
 30
0.0
 40
1.1422916299259069
 50
91.7604285379553914
 51
98.1184680266818532
  0
ARC
  5
8D91
  8
0
 10
4095.4836871561510634
 20
150.8135298512580107
 30
0.0
 40
1.036862281283655
 50
269.8820893387551791
 51
271.7682457938125822
  0
ARC
  5
8D92
  8
0
 10
4095.5174788845652074
 20
148.5706812657732883
 30
0.0
 40
1.080416985667481
 50
90.095321646939297
 51
94.1759211889474983
  0
ARC
  5
8D93
  8
0
 10
4095.4969339588142248
 20
148.9759405219085977
 30
0.0
 40
0.6747978531796619
 50
94.9418332146129842
 51
105.039936250468898
  0
ARC
  5
8D94
  8
0
 10
4095.3810116975419078
 20
149.40736522086479
 30
0.0
 40
0.2280705968721735
 50
105.039936250468898
 51
123.2480351028565053
  0
ARC
  5
8D95
  8
0
 10
4095.2859790369911934
 20
149.5523249584315977
 30
0.0
 40
0.0547370107246205
 50
123.2480351028559937
 51
154.180239212647308
  0
ARC
  5
8D96
  8
0
 10
4095.2624387049659163
 20
149.5637148174018023
 30
0.0
 40
0.0285859855212676
 50
154.1802392126479901
 51
223.8529465000032985
  0
LINE
  5
8D97
  8
0
 10
4095.0826354816558705
 20
149.6636649710854101
 30
0.0
 11
4095.0826354816558705
 21
149.7010196524578021
 31
0.0
  0
ARC
  5
8D98
  8
0
 10
4095.5153311636099716
 20
150.3001199356104962
 30
0.0
 40
0.8152564217618898
 50
265.8671045757546949
 51
269.7479245800370222
  0
ARC
  5
8D99
  8
0
 10
4095.5013421649159682
 20
150.1459771376738956
 30
0.0
 40
0.6604630907398651
 50
260.309491209056489
 51
264.7896716314451737
  0
ARC
  5
8D9A
  8
0
 10
4095.4639046835532099
 20
149.9415164874961874
 30
0.0
 40
0.4525884715947813
 50
253.978316085968487
 51
259.7474796967701991
  0
ARC
  5
8D9B
  8
0
 10
4095.4004835327400542
 20
149.7352586614699135
 30
0.0
 40
0.2367267062162573
 50
243.3630483692463997
 51
252.1331128372922876
  0
ARC
  5
8D9C
  8
0
 10
4095.3362758424309504
 20
149.6113158688685019
 30
0.0
 40
0.0970693583177264
 50
225.919977455736813
 51
241.805262785868905
  0
ARC
  5
8D9D
  8
0
 10
4095.2890664347851271
 20
149.5659591804567867
 30
0.0
 40
0.0313392020820879
 50
184.8070018625886064
 51
218.8870055534854941
  0
ARC
  5
8D9E
  8
0
 10
4095.3391309036378516
 20
149.5657478580953068
 30
0.0
 40
0.0243663308501108
 50
185.6877898388638073
 51
217.6817033227121101
  0
ARC
  5
8D9F
  8
0
 10
4095.3747320230781952
 20
149.5993938906634071
 30
0.0
 40
0.0735947921234591
 50
226.338912160512308
 51
241.7157031142646986
  0
ARC
  5
8DA0
  8
0
 10
4095.4223727017938472
 20
149.6888937114304099
 30
0.0
 40
0.1750426747123956
 50
243.3269874508715986
 51
251.987332431850291
  0
ARC
  5
8DA1
  8
0
 10
4095.4771379521080235
 20
149.865990671739695
 30
0.0
 40
0.3605088561445398
 50
254.2663487851154969
 51
259.5738665323195846
  0
ARC
  5
8DA2
  8
0
 10
4095.5043337526531104
 20
150.0162615323592092
 30
0.0
 40
0.513235617907327
 50
260.3971107803134828
 51
264.6127906481268042
  0
ARC
  5
8DA3
  8
0
 10
4095.5154175712009419
 20
150.1379425517426967
 30
0.0
 40
0.6354383893012601
 50
266.0242128035969245
 51
269.6687996708977835
  0
ARC
  5
8DA4
  8
0
 10
4095.5130928118169322
 20
150.068276505397904
 30
0.0
 40
0.5639380734873063
 50
260.6703123846020276
 51
269.8630037421858106
  0
ARC
  5
8DA5
  8
0
 10
4095.4562320134978108
 20
149.7638071351535984
 30
0.0
 40
0.2541833051567681
 50
245.0254154240957973
 51
260.6305089760743954
  0
ARC
  5
8DA6
  8
0
 10
4095.3609898522149706
 20
149.5737663814078928
 30
0.0
 40
0.0414840019789564
 50
194.5665600284935977
 51
247.290675460548897
  0
ARC
  5
8DA7
  8
0
 10
4095.4068503941161907
 20
149.5717462209973121
 30
0.0
 40
0.0301073869444995
 50
196.2268752874745132
 51
245.6303601898059981
  0
ARC
  5
8DA8
  8
0
 10
4095.4728660628329635
 20
149.7034747949126086
 30
0.0
 40
0.1776386784015095
 50
245.2033001144785089
 51
260.4526241249088798
  0
ARC
  5
8DA9
  8
0
 10
4095.5142130206299953
 20
149.9258582860543925
 30
0.0
 40
0.4038799591089706
 50
260.8835228084873279
 51
269.6497933440272163
  0
ARC
  5
8DAA
  8
0
 10
4095.5266487131630129
 20
150.0683736979030982
 30
0.0
 40
0.5446907305136099
 50
262.2477512822944163
 51
268.8462773680652163
  0
ARC
  5
8DAB
  8
0
 10
4095.4664462660680329
 20
149.6700755339305999
 30
0.0
 40
0.1416299127855621
 50
241.7104396298526865
 51
261.8452182060943869
  0
ARC
  5
8DAC
  8
0
 10
4095.4188958377430936
 20
149.5817262442982951
 30
0.0
 40
0.0412972649957325
 50
222.0453244585436892
 51
241.7104396298526865
  0
ARC
  5
8DAD
  8
0
 10
4095.4014258600232097
 20
149.5659711639387979
 30
0.0
 40
0.0177723276171087
 50
188.5367690664423037
 51
222.0453244585424954
  0
ARC
  5
8DAE
  8
0
 10
4095.4601302775431577
 20
149.5676157071893897
 30
0.0
 40
0.0139096478259707
 50
197.9325443684109018
 51
241.1774953800405967
  0
ARC
  5
8DAF
  8
0
 10
4095.4922050124469024
 20
149.6259051893630101
 30
0.0
 40
0.080441236948649
 50
241.1774953800405967
 51
259.7415547553654847
  0
ARC
  5
8DB0
  8
0
 10
4095.5210457024909374
 20
149.8285262396508131
 30
0.0
 40
0.2853176426256601
 50
262.6810732732944871
 51
268.9227136480827767
  0
ARC
  5
8DB1
  8
0
 10
4095.5207613167349336
 20
149.8093460312742025
 30
0.0
 40
0.2643109199056431
 50
262.8048314306404905
 51
268.8987420173236274
  0
ARC
  5
8DB2
  8
0
 10
4095.5184467538529134
 20
149.6888346374676075
 30
0.0
 40
0.1328300724963964
 50
264.3861167721954075
 51
268.8070973036553255
  0
ARC
  5
8DB3
  8
0
 10
4095.4960646479980824
 20
149.6285937829300963
 30
0.0
 40
0.0816923984631037
 50
245.7680948821283948
 51
259.2573792852717816
  0
ARC
  5
8DB4
  8
0
 10
4095.4730011408860264
 20
149.5773514867051972
 30
0.0
 40
0.0254989977586241
 50
226.4553180558098973
 51
245.7680948821283948
  0
ARC
  5
8DB5
  8
0
 10
4095.4618930838778397
 20
149.5656643039673952
 30
0.0
 40
0.0093751281598832
 50
194.3989725411331051
 51
226.4553180558083056
  0
LINE
  5
8DB6
  8
0
 10
4095.511744417016871
 20
149.4848714038897128
 30
0.0
 11
4095.5117444170277849
 21
149.5025147788713866
 31
0.0
  0
LINE
  5
8DB7
  8
0
 10
4095.4713595116081706
 20
149.504033383184094
 30
0.0
 11
4095.4565755545008869
 21
149.4869835315415116
 31
0.0
  0
LINE
  5
8DB8
  8
0
 10
4095.4413641241008008
 20
149.4882430509414917
 30
0.0
 11
4095.4561480812008085
 21
149.5052929026414859
 31
0.0
  0
LINE
  5
8DB9
  8
0
 10
4095.5117444170009549
 20
149.5043400439415109
 30
0.0
 11
4095.5117444170009549
 21
149.5219858713415135
 31
0.0
  0
LINE
  5
8DBA
  8
0
 10
4095.4216699147009422
 20
149.5117982896414901
 30
0.0
 11
4095.4502214631011157
 21
149.5270800244414886
 31
0.0
  0
LINE
  5
8DBB
  8
0
 10
4095.3901689935009927
 20
149.4949379528414966
 30
0.0
 11
4095.4187165738007934
 21
149.5102175637414916
 31
0.0
  0
LINE
  5
8DBC
  8
0
 10
4095.383349895801075
 20
149.4961545551414872
 30
0.0
 11
4095.4118974762009202
 21
149.5114341661414983
 31
0.0
  0
LINE
  5
8DBD
  8
0
 10
4095.414850817101069
 20
149.5130148920414968
 30
0.0
 11
4095.4434023655007877
 21
149.5282966267415077
 31
0.0
  0
LINE
  5
8DBE
  8
0
 10
4095.3389897535012096
 20
149.5065077693415105
 30
0.0
 11
4095.3793802755008073
 21
149.5189891270414932
 31
0.0
  0
LINE
  5
8DBF
  8
0
 10
4095.3278542136999931
 20
149.5099488404414956
 30
0.0
 11
4095.3682447356982266
 21
149.5224301981407109
 31
0.0
  0
LINE
  5
8DC0
  8
0
 10
4095.2943505088001075
 20
149.5236568782414963
 30
0.0
 11
4095.3437963684009446
 21
149.5324785657415134
 31
0.0
  0
LINE
  5
8DC1
  8
0
 10
4095.3398593606011673
 20
149.5345857828415035
 30
0.0
 11
4095.2904135009011952
 21
149.5257640953414864
 31
0.0
  0
LINE
  5
8DC2
  8
0
 10
4095.268748343200059
 20
149.5415842607415016
 30
0.0
 11
4095.3239228224010731
 21
149.546152754741513
 31
0.0
  0
LINE
  5
8DC3
  8
0
 10
4095.3198469319008836
 20
149.5508533452415065
 30
0.0
 11
4095.2646724528008235
 21
149.5462848512414951
 31
0.0
  0
LINE
  5
8DC4
  8
0
 10
4095.2578374644008363
 20
149.5633329672415073
 30
0.0
 11
4095.3148845352229728
 21
149.5633329672415073
 31
0.0
  0
LINE
  5
8DC5
  8
0
 10
4095.3489117049011838
 20
149.5333911982415032
 30
0.0
 11
4095.3983644374011419
 21
149.5422141119414903
 31
0.0
  0
LINE
  5
8DC6
  8
0
 10
4095.3449746971009517
 20
149.5354984153414932
 30
0.0
 11
4095.3944274295008654
 21
149.5443213290415088
 31
0.0
  0
LINE
  5
8DC7
  8
0
 10
4095.3208393069007798
 20
149.5633329672415073
 30
0.0
 11
4095.3779424037002173
 21
149.5633329672415073
 31
0.0
  0
LINE
  5
8DC8
  8
0
 10
4095.3838504355007899
 20
149.5633329672415073
 30
0.0
 11
4095.4468963650001569
 21
149.5633329672415925
 31
0.0
  0
LINE
  5
8DC9
  8
0
 10
4095.4463563814001645
 20
149.5298777139414881
 30
0.0
 11
4095.4778793461009627
 21
149.5467498491414915
 31
0.0
  0
LINE
  5
8DCA
  8
0
 10
4095.4531754790009472
 20
149.5286611116414974
 30
0.0
 11
4095.4846984437999708
 21
149.5455332468415008
 31
0.0
  0
LINE
  5
8DCB
  8
0
 10
4095.4876564866999615
 20
149.5471164894414926
 30
0.0
 11
4095.5054527784000129
 21
149.5566416544415063
 31
0.0
  0
ARC
  5
8DCC
  8
0
 10
4095.4999105811039044
 20
149.5725366210099878
 30
0.0
 40
0.0147337996538887
 50
218.6574283148221127
 51
265.0282412397830853
  0
LINE
  5
8DCD
  8
0
 10
4095.4528124508001383
 20
149.5633329672415925
 30
0.0
 11
4095.4884050342011506
 21
149.5633329672415073
 31
0.0
  0
LINE
  5
8DCE
  8
0
 10
4095.4808373890009534
 20
149.5483330917415117
 30
0.0
 11
4095.4986336807000953
 21
149.5578582567414969
 31
0.0
  0
ARC
  5
8DCF
  8
0
 10
4095.5153311636099716
 20
148.8289792035724872
 30
0.0
 40
0.8152564217618898
 50
90.2520754199630062
 51
94.1328954242453335
  0
ARC
  5
8DD0
  8
0
 10
4095.5013421649159682
 20
148.9831220015092015
 30
0.0
 40
0.6604630907398651
 50
95.2103283685548689
 51
99.6905087909434542
  0
ARC
  5
8DD1
  8
0
 10
4095.4639046835532099
 20
149.187582651686796
 30
0.0
 40
0.4525884715947813
 50
100.2525203032298009
 51
106.0216839140314988
  0
ARC
  5
8DD2
  8
0
 10
4095.4004835327400542
 20
149.3938404777130984
 30
0.0
 40
0.2367267062162573
 50
107.8668871627075987
 51
116.6369516307536003
  0
ARC
  5
8DD3
  8
0
 10
4095.3362758424309504
 20
149.51778327031451
 30
0.0
 40
0.0970693583177264
 50
118.1947372141314929
 51
134.080022544263187
  0
ARC
  5
8DD4
  8
0
 10
4095.2890664347851271
 20
149.5631399587261967
 30
0.0
 40
0.0313392020820879
 50
141.1129944465145059
 51
175.1929981374113083
  0
ARC
  5
8DD5
  8
0
 10
4095.3391309036378516
 20
149.563351281087705
 30
0.0
 40
0.0243663308501108
 50
142.3182966772878899
 51
174.3122101611361927
  0
ARC
  5
8DD6
  8
0
 10
4095.3747320230781952
 20
149.5297052485196048
 30
0.0
 40
0.0735947921234591
 50
118.2842968857353014
 51
133.661087839487692
  0
ARC
  5
8DD7
  8
0
 10
4095.4223727017938472
 20
149.440205427752602
 30
0.0
 40
0.1750426747123956
 50
108.0126675681496948
 51
116.6730125491284014
  0
ARC
  5
8DD8
  8
0
 10
4095.4771379521080235
 20
149.2631084674432884
 30
0.0
 40
0.3605088561445398
 50
100.4261334676804012
 51
105.7336512148844037
  0
ARC
  5
8DD9
  8
0
 10
4095.5043337526531104
 20
149.1128376068238879
 30
0.0
 40
0.513235617907327
 50
95.3872093518731958
 51
99.6028892196865172
  0
ARC
  5
8DDA
  8
0
 10
4095.5154175712009419
 20
148.9911565874402015
 30
0.0
 40
0.6354383893012601
 50
90.3312003291021739
 51
93.9757871964031182
  0
ARC
  5
8DDB
  8
0
 10
4095.5130928118169322
 20
149.0608226337851079
 30
0.0
 40
0.5639380734873063
 50
90.1369962578142321
 51
99.3296876153978729
  0
ARC
  5
8DDC
  8
0
 10
4095.4562320134978108
 20
149.3652920040294987
 30
0.0
 40
0.2541833051567681
 50
99.3694910238998119
 51
114.9745845759042027
  0
ARC
  5
8DDD
  8
0
 10
4095.3609898522149706
 20
149.5553327577750906
 30
0.0
 40
0.0414840019789564
 50
112.709324539451103
 51
165.4334399715064023
  0
ARC
  5
8DDE
  8
0
 10
4095.4068503941161907
 20
149.5573529181856998
 30
0.0
 40
0.0301073869444995
 50
114.3696398101940019
 51
163.7731247125246909
  0
ARC
  5
8DDF
  8
0
 10
4095.4728660628329635
 20
149.4256243442704033
 30
0.0
 40
0.1776386784015095
 50
99.5473758750911344
 51
114.7966998855214058
  0
ARC
  5
8DE0
  8
0
 10
4095.5142130206299953
 20
149.2032408531287047
 30
0.0
 40
0.4038799591089706
 50
90.3502066559728263
 51
99.116477191512729
  0
ARC
  5
8DE1
  8
0
 10
4095.5203225326890788
 20
149.141959332418196
 30
0.0
 40
0.4633696588049668
 50
90.5738842760738549
 51
98.3320870735489052
  0
ARC
  5
8DE2
  8
0
 10
4095.4664462660680329
 20
149.4590236052524119
 30
0.0
 40
0.1416299127855621
 50
98.1547817939055562
 51
118.2895603701471998
  0
ARC
  5
8DE3
  8
0
 10
4095.4188958377430936
 20
149.5473728948846883
 30
0.0
 40
0.0412972649957325
 50
118.2895603701471998
 51
137.9546755414563108
  0
ARC
  5
8DE4
  8
0
 10
4095.4014258600232097
 20
149.563127975244214
 30
0.0
 40
0.0177723276171087
 50
137.9546755414575046
 51
171.463230933557611
  0
ARC
  5
8DE5
  8
0
 10
4095.4601302775431577
 20
149.5614834319935937
 30
0.0
 40
0.0139096478259707
 50
118.8225046199594033
 51
162.0674556315890982
  0
ARC
  5
8DE6
  8
0
 10
4095.4922050124469024
 20
149.5031939498200018
 30
0.0
 40
0.080441236948649
 50
100.2584452446345011
 51
118.8225046199594033
  0
ARC
  5
8DE7
  8
0
 10
4095.5187577133278864
 20
149.3317434864011943
 30
0.0
 40
0.2541152454582119
 50
90.693633610703543
 51
97.7025794679197332
  0
ARC
  5
8DE8
  8
0
 10
4095.5242386501590772
 20
149.2718075762493015
 30
0.0
 40
0.3123248803716539
 50
91.5700141470851037
 51
96.7264124049517875
  0
ARC
  5
8DE9
  8
0
 10
4095.5167618511281944
 20
149.4685963011058902
 30
0.0
 40
0.1044750716303255
 50
90.5925355375881338
 51
96.2142503865474055
  0
ARC
  5
8DEA
  8
0
 10
4095.4960646479980824
 20
149.5005053562528872
 30
0.0
 40
0.0816923984631037
 50
100.7426207147282042
 51
114.2319051178713067
  0
ARC
  5
8DEB
  8
0
 10
4095.4730011408860264
 20
149.5517476524777862
 30
0.0
 40
0.0254989977586241
 50
114.2319051178716052
 51
133.5446819441899891
  0
ARC
  5
8DEC
  8
0
 10
4095.4618930838778397
 20
149.5634348352155882
 30
0.0
 40
0.0093751281598832
 50
133.5446819441916944
 51
165.6010274588668949
  0
LINE
  5
8DED
  8
0
 10
4095.511744417016871
 20
149.644227735293299
 30
0.0
 11
4095.5117444170277849
 21
149.6265843603115968
 31
0.0
  0
LINE
  5
8DEE
  8
0
 10
4095.4713595116081706
 20
149.6250657559988895
 30
0.0
 11
4095.4565755545008869
 21
149.6421156076415002
 31
0.0
  0
LINE
  5
8DEF
  8
0
 10
4095.4413641241008008
 20
149.6408560882414918
 30
0.0
 11
4095.4561480812008085
 21
149.6238062365414976
 31
0.0
  0
LINE
  5
8DF0
  8
0
 10
4095.5117444170009549
 20
149.624759095241501
 30
0.0
 11
4095.5117444170009549
 21
149.6071132678414983
 31
0.0
  0
LINE
  5
8DF1
  8
0
 10
4095.4216699147009422
 20
149.6173008495414933
 30
0.0
 11
4095.4502214631011157
 21
149.6020191147414948
 31
0.0
  0
LINE
  5
8DF2
  8
0
 10
4095.3901689935009927
 20
149.6341611863414869
 30
0.0
 11
4095.4187165738007934
 21
149.6188815754414918
 31
0.0
  0
LINE
  5
8DF3
  8
0
 10
4095.383349895801075
 20
149.6329445840414962
 30
0.0
 11
4095.4118974762009202
 21
149.6176649730415136
 31
0.0
  0
LINE
  5
8DF4
  8
0
 10
4095.414850817101069
 20
149.6160842471414867
 30
0.0
 11
4095.4434023655007877
 21
149.6008025124415042
 31
0.0
  0
LINE
  5
8DF5
  8
0
 10
4095.3389897535012096
 20
149.6225913698415013
 30
0.0
 11
4095.3793802755008073
 21
149.6101100121414902
 31
0.0
  0
LINE
  5
8DF6
  8
0
 10
4095.3278542136999931
 20
149.6191502987414879
 30
0.0
 11
4095.3682447356982266
 21
149.606668941042301
 31
0.0
  0
LINE
  5
8DF7
  8
0
 10
4095.2943505088001075
 20
149.6054422609414871
 30
0.0
 11
4095.3437963684009446
 21
149.5966205734414984
 31
0.0
  0
LINE
  5
8DF8
  8
0
 10
4095.3398593606011673
 20
149.5945133563415084
 30
0.0
 11
4095.2904135009011952
 21
149.6033350438414971
 31
0.0
  0
LINE
  5
8DF9
  8
0
 10
4095.268748343200059
 20
149.5875148784415103
 30
0.0
 11
4095.3239228224010731
 21
149.5829463844414988
 31
0.0
  0
LINE
  5
8DFA
  8
0
 10
4095.3198469319008836
 20
149.5782457939415053
 30
0.0
 11
4095.2646724528008235
 21
149.5828142879414884
 31
0.0
  0
LINE
  5
8DFB
  8
0
 10
4095.2578374644008363
 20
149.5657661719415046
 30
0.0
 11
4095.3148845352229728
 21
149.5657661719415046
 31
0.0
  0
LINE
  5
8DFC
  8
0
 10
4095.3489117049011838
 20
149.5957079409415087
 30
0.0
 11
4095.3983644374011419
 21
149.5868850272414932
 31
0.0
  0
LINE
  5
8DFD
  8
0
 10
4095.3449746971009517
 20
149.5936007238414902
 30
0.0
 11
4095.3944274295008654
 21
149.5847778101415031
 31
0.0
  0
LINE
  5
8DFE
  8
0
 10
4095.3208393069007798
 20
149.5657661719415046
 30
0.0
 11
4095.3779424037002173
 21
149.5657661719415046
 31
0.0
  0
LINE
  5
8DFF
  8
0
 10
4095.3838504355007899
 20
149.5657661719415046
 30
0.0
 11
4095.4468963650001569
 21
149.5657661719413909
 31
0.0
  0
LINE
  5
8E00
  8
0
 10
4095.4463563814001645
 20
149.5992214252414954
 30
0.0
 11
4095.4778793461009627
 21
149.5823492900414919
 31
0.0
  0
LINE
  5
8E01
  8
0
 10
4095.4531754790009472
 20
149.600438027541486
 30
0.0
 11
4095.4846984437999708
 21
149.583565892341511
 31
0.0
  0
LINE
  5
8E02
  8
0
 10
4095.4876564866999615
 20
149.5819826497414908
 30
0.0
 11
4095.5054527784000129
 21
149.5724574847415056
 31
0.0
  0
ARC
  5
8E03
  8
0
 10
4095.4999105811039044
 20
149.5565625181729104
 30
0.0
 40
0.0147337996538887
 50
94.9717587602168862
 51
141.3425716851778873
  0
LINE
  5
8E04
  8
0
 10
4095.4528124508001383
 20
149.5657661719413909
 30
0.0
 11
4095.4884050342011506
 21
149.5657661719415046
 31
0.0
  0
LINE
  5
8E05
  8
0
 10
4095.4808373890009534
 20
149.5807660474415002
 30
0.0
 11
4095.4986336807000953
 21
149.5712408824414865
 31
0.0
  0
LINE
  5
8E06
  8
0
 10
4095.4413641241008008
 20
149.4882430509414917
 30
0.0
 11
4095.4413641241008008
 21
149.508918707484014
 31
0.0
  0
LINE
  5
8E07
  8
0
 10
4095.383349895801075
 20
149.4961545551414872
 30
0.0
 11
4095.383349895801075
 21
149.5202966640430873
 31
0.0
  0
LINE
  5
8E08
  8
0
 10
4095.3278542136999931
 20
149.5099488404414956
 30
0.0
 11
4095.3278542136999931
 21
149.5296343092562097
 31
0.0
  0
LINE
  5
8E09
  8
0
 10
4095.2904135009011952
 20
149.5257640953414864
 30
0.0
 11
4095.2904135009011952
 21
149.5433781543023883
 31
0.0
  0
LINE
  5
8E0A
  8
0
 10
4095.2646724528008235
 20
149.5462848512414951
 30
0.0
 11
4095.2646724528008235
 21
149.5633329672415073
 31
0.0
  0
LINE
  5
8E0B
  8
0
 10
4095.414850817101069
 20
149.5130148920414968
 30
0.0
 11
4095.414850817101069
 21
149.5355768159880085
 31
0.0
  0
LINE
  5
8E0C
  8
0
 10
4095.3449746971009517
 20
149.5354984153414932
 30
0.0
 11
4095.3449746971009517
 21
149.5633329672415073
 31
0.0
  0
LINE
  5
8E0D
  8
0
 10
4095.3148845352229728
 20
149.5657661719415046
 30
0.0
 11
4095.3148845352229728
 21
149.5786566846252867
 31
0.0
  0
LINE
  5
8E0E
  8
0
 10
4095.3239228224010731
 20
149.5829463844414988
 30
0.0
 11
4095.3239228224010731
 21
149.5973566107755062
 31
0.0
  0
LINE
  5
8E0F
  8
0
 10
4095.3437963684009446
 20
149.5966205734414984
 30
0.0
 11
4095.3437963684009446
 21
149.6142239020161071
 31
0.0
  0
LINE
  5
8E10
  8
0
 10
4095.3793802755008073
 20
149.6101100121414902
 30
0.0
 11
4095.3793802755008073
 21
149.6322082796750124
 31
0.0
  0
LINE
  5
8E11
  8
0
 10
4095.4187165738007934
 20
149.6188815754414918
 30
0.0
 11
4095.4187165738007934
 21
149.6383963760443976
 31
0.0
  0
LINE
  5
8E12
  8
0
 10
4095.4713595116081706
 20
149.6250657559988895
 30
0.0
 11
4095.4713595116081706
 21
149.643048934642394
 31
0.0
  0
LINE
  5
8E13
  8
0
 10
4095.3779424037002173
 20
149.5657661719415046
 30
0.0
 11
4095.3779424037002173
 21
149.5877189208327991
 31
0.0
  0
LINE
  5
8E14
  8
0
 10
4095.3983644374011419
 20
149.5868850272414932
 30
0.0
 11
4095.3983644374011419
 21
149.612800582177897
 31
0.0
  0
LINE
  5
8E15
  8
0
 10
4095.4502214631011157
 20
149.6020191147414948
 30
0.0
 11
4095.4502214631011157
 21
149.6212451032126012
 31
0.0
  0
LINE
  5
8E16
  8
0
 10
4095.4468963650001569
 20
149.5657661719413909
 30
0.0
 11
4095.4468963650001569
 21
149.5989324081268137
 31
0.0
  0
LINE
  5
8E17
  8
0
 10
4095.4846984437999708
 20
149.583565892341511
 30
0.0
 11
4095.4846984437999708
 21
149.6039575629255012
 31
0.0
  0
LINE
  5
8E18
  8
0
 10
4095.4884050342011506
 20
149.5657661719415046
 30
0.0
 11
4095.4884050342011506
 21
149.5767155929756882
 31
0.0
  0
LINE
  5
8E19
  8
0
 10
4095.4463563814001645
 20
149.5298777139414881
 30
0.0
 11
4095.4463563814001645
 21
149.5633329672415925
 31
0.0
  0
LINE
  5
8E1A
  8
0
 10
4095.4808373890009534
 20
149.5483330917415117
 30
0.0
 11
4095.4808373890009534
 21
149.5633329672415073
 31
0.0
  0
LINE
  5
8E1B
  8
0
 10
4095.5054527784000129
 20
149.5724574847415056
 30
0.0
 11
4095.5054527784000129
 21
149.5835669737363105
 31
0.0
  0
ARC
  5
8E1C
  8
0
 10
4095.0591860659478698
 20
149.7506918268551885
 30
0.0
 40
0.1491218230284311
 50
181.1236171686676073
 51
205.2340340479969996
  0
ARC
  5
8E1D
  8
0
 10
4095.106188819243016
 20
149.7728437554702907
 30
0.0
 40
0.2010830273901277
 50
205.2340340479962038
 51
222.6909681022520999
  0
ARC
  5
8E1E
  8
0
 10
4095.3892117093409979
 20
150.0339271690920953
 30
0.0
 40
0.5861369264591976
 50
222.6909681022520999
 51
233.6722823950055101
  0
ARC
  5
8E1F
  8
0
 10
4095.4063567215948751
 20
150.080306142876907
 30
0.0
 40
0.6338057918556333
 50
234.907444673323397
 51
248.3309829782268991
  0
ARC
  5
8E20
  8
0
 10
4095.1926151272068637
 20
149.5457430074876868
 30
0.0
 40
0.0581096051660856
 50
249.5661452565632885
 51
264.6865558610199969
  0
ARC
  5
8E21
  8
0
 10
4095.5192076756611641
 20
152.7619009713907019
 30
0.0
 40
3.2908053105335888
 50
264.2102001544654968
 51
269.938604830144584
  0
ARC
  5
8E22
  8
0
 10
4095.7381974211971283
 20
147.3792659921938082
 30
0.0
 40
2.4319395318751198
 50
95.3132663608063666
 51
102.5215043352102953
  0
ARC
  5
8E23
  8
0
 10
4095.5055477123901255
 20
148.4268202202260909
 30
0.0
 40
1.3588618330683531
 50
102.5215043352102953
 51
112.4276369174211965
  0
ARC
  5
8E24
  8
0
 10
4094.9883329599610988
 20
149.6799612600404998
 30
0.0
 40
0.0031798770784214
 50
112.4276369174214949
 51
154.595934824004388
  0
ARC
  5
8E25
  8
0
 10
4095.1021146929751922
 20
149.6809063775671973
 30
0.0
 40
0.1166548840767559
 50
179.7941818547996036
 51
217.6635093893501107
  0
ARC
  5
8E26
  8
0
 10
4095.303439002900177
 20
149.8654737725753989
 30
0.0
 40
0.3894858716312746
 50
221.0624987039454084
 51
241.4709656958744119
  0
ARC
  5
8E27
  8
0
 10
4095.7496407464132062
 20
150.7458501606020889
 30
0.0
 40
1.3763645458426841
 50
242.6553568244736141
 51
246.1138983266868081
  0
ARC
  5
8E28
  8
0
 10
4095.6413536255599865
 20
147.906855267308913
 30
0.0
 40
1.9936554866704079
 50
94.0268588439972604
 51
111.2370748873214978
  0
ARC
  5
8E29
  8
0
 10
4094.9253318905421111
 20
149.7485496295851988
 30
0.0
 40
0.0176706240912563
 50
110.3176297788110958
 51
149.5860265856969136
  0
ARC
  5
8E2A
  8
0
 10
4094.985440105384896
 20
149.7218302026979018
 30
0.0
 40
0.0405047830218647
 50
226.6264286064462965
 51
270.0289361398320125
  0
ARC
  5
8E2B
  8
0
 10
4095.2781028913941554
 20
150.031598514450792
 30
0.0
 40
0.466659582691389
 50
220.2376393426700076
 51
226.6264286064462965
  0
ARC
  5
8E2C
  8
0
 10
4094.9615383537638991
 20
149.7637240677624106
 30
0.0
 40
0.0519671356017195
 50
188.1254448880997927
 51
220.2376393426694108
  0
ARC
  5
8E2D
  8
0
 10
4095.5200165115811615
 20
149.7865088729591889
 30
0.0
 40
0.1106655074691831
 50
92.2450171782771093
 51
99.7102868242099447
  0
ARC
  5
8E2E
  8
0
 10
4095.5156603032278326
 20
149.7729026405741024
 30
0.0
 40
0.0279805646614344
 50
89.9567572535944322
 51
95.4617972618597719
  0
ARC
  5
8E2F
  8
0
 10
4095.8169807515791945
 20
150.2819850942478013
 30
0.0
 40
1.0931008192325899
 50
106.6087909978955963
 51
145.420979613038412
  0
ARC
  5
8E30
  8
0
 10
4095.5156814209508411
 20
151.292107488054512
 30
0.0
 40
0.039
 50
73.3912090021043753
 51
106.6087909978955963
  0
ARC
  5
8E31
  8
0
 10
4094.9490929169510309
 20
150.880231902522894
 30
0.0
 40
0.039
 50
145.420979613033694
 51
179.9999999999974989
  0
LINE
  5
8E32
  8
0
 10
4101.7833955154501382
 20
150.0854932417126975
 30
0.0
 11
4101.7833955154501382
 21
151.6999888943703922
 31
0.0
  0
LINE
  5
8E33
  8
0
 10
4099.7676514209497327
 20
151.8290124321414964
 30
0.0
 11
4099.7676514209497327
 21
149.956469703941508
 31
0.0
  0
LINE
  5
8E34
  8
0
 10
4099.7676514209497327
 20
151.7017961861415074
 30
0.0
 11
4099.8148955154510986
 21
151.7017961861415074
 31
0.0
  0
LINE
  5
8E35
  8
0
 10
4101.6509973282181818
 20
149.9525246598427088
 30
0.0
 11
4099.8349737049666146
 21
149.9176552248333962
 31
0.0
  0
LINE
  5
8E36
  8
0
 10
4101.6509973283045838
 20
151.8329574761542062
 30
0.0
 11
4099.8349737049666146
 21
151.8678269111987049
 31
0.0
  0
LINE
  5
8E37
  8
0
 10
4101.7746087188861566
 20
151.7212020978060139
 30
0.0
 11
4101.6716346084649558
 21
151.8241762082261914
 31
0.0
  0
LINE
  5
8E38
  8
0
 10
4101.6716346083803728
 20
149.9613059277706952
 30
0.0
 11
4101.7746087188861566
 21
150.0642800382771043
 31
0.0
  0
ARC
  5
8E39
  8
0
 10
4101.6504214049436996
 20
149.9825191312062884
 30
0.0
 40
0.03
 50
271.1000000028917043
 51
315.0000000000017053
  0
ARC
  5
8E3A
  8
0
 10
4101.7533955154513023
 20
150.0854932417126975
 30
0.0
 40
0.03
 50
315.0000000000069917
 51
359.9999999999935199
  0
ARC
  5
8E3B
  8
0
 10
4101.7533955154513023
 20
151.6999888943703922
 30
0.0
 40
0.03
 50
0.0
 51
45.0000000000310934
  0
ARC
  5
8E3C
  8
0
 10
4101.6504214050310111
 20
151.8029630047905982
 30
0.0
 40
0.03
 50
45.0000000000356906
 51
88.8999999960659437
  0
LINE
  5
8E3D
  8
0
 10
4099.7284514209513873
 20
149.9172697039415141
 30
0.0
 11
4096.1212699249499565
 21
149.9172697039396951
 31
0.0
  0
ARC
  5
8E3E
  8
0
 10
4099.7284514209513873
 20
151.8290124321414964
 30
0.0
 40
0.0392
 50
0.0000000000024427
 51
90.0000000000260485
  0
ARC
  5
8E3F
  8
0
 10
4099.7284514209513873
 20
149.956469703941508
 30
0.0
 40
0.0392
 50
270.0000000000259774
 51
0.0
  0
LINE
  5
8E40
  8
0
 10
4099.7676514209497327
 20
150.083685949941497
 30
0.0
 11
4099.8148955154510986
 21
150.083685949941497
 31
0.0
  0
ARC
  5
8E41
  8
0
 10
4097.0333544358591098
 20
151.3590277474366133
 30
0.0
 40
2.7952001311565482
 50
325.959951758241175
 51
328.9492048612564759
  0
ARC
  5
8E42
  8
0
 10
4099.1861858160145857
 20
149.9047342267681984
 30
0.0
 40
0.197190778664126
 50
284.7752375376799137
 51
325.959951758241175
  0
ARC
  5
8E43
  8
0
 10
4098.4684373264526585
 20
152.4016765795182096
 30
0.0
 40
2.795200201876737
 50
254.0516823235577135
 51
285.9483183180162769
  0
ARC
  5
8E44
  8
0
 10
4097.7507347599967034
 20
149.9049082293622916
 30
0.0
 40
0.197370739948794
 50
212.7752470840781029
 51
255.2247631038802069
  0
ARC
  5
8E45
  8
0
 10
4116.5310560693851585
 20
161.9965194165646096
 30
0.0
 40
22.5336087756237191
 50
212.4154753704536915
 51
212.7752470840781029
  0
ARC
  5
8E46
  8
0
 10
4098.9813360642319822
 20
150.7687087334433045
 30
0.0
 40
1.593791668877395
 50
212.2911841588511095
 51
213.609047533849207
  0
ARC
  5
8E47
  8
0
 10
4097.8155562893462047
 20
149.9939011267424007
 30
0.0
 40
0.1940169330952142
 50
213.609047533849207
 51
254.3175126371899921
  0
ARC
  5
8E48
  8
0
 10
4098.4684372852898377
 20
152.4016768399665125
 30
0.0
 40
2.6887316914249819
 50
254.7918599621060025
 51
285.2081418859579003
  0
ARC
  5
8E49
  8
0
 10
4099.1169979926617088
 20
150.0000740378960131
 30
0.0
 40
0.2011432802296891
 50
286.3920608699939976
 51
325.6078919327773065
  0
ARC
  5
8E4A
  8
0
 10
4098.3433263356246243
 20
150.5127147567251882
 30
0.0
 40
1.1292238282342391
 50
326.3174635918668969
 51
328.1764742573864169
  0
ARC
  5
8E4B
  8
0
 10
4097.5815072876512204
 20
149.6719865977414941
 30
0.0
 40
2.795200199500028
 50
51.7866934085600832
 51
69.9483182815118738
  0
ARC
  5
8E4C
  8
0
 10
4098.4684373256613981
 20
152.1134201570787923
 30
0.0
 40
0.1976965255923189
 50
68.811909493711795
 51
111.1880981918278053
  0
ARC
  5
8E4D
  8
0
 10
4099.355368455298958
 20
149.6719846231378881
 30
0.0
 40
2.7952024281684178
 50
110.0516894040441969
 51
128.2132991851730992
  0
ARC
  5
8E4E
  8
0
 10
4097.5815072876512204
 20
149.6719865977414941
 30
0.0
 40
2.6887314286000339
 50
54.7683183694142599
 51
69.2081424582208058
  0
ARC
  5
8E4F
  8
0
 10
4098.4684372474248448
 20
152.0078461184855882
 30
0.0
 40
0.1901549430396994
 50
69.2081424582208058
 51
110.7918103714810059
  0
ARC
  5
8E50
  8
0
 10
4099.3553582802651363
 20
149.6720043133213096
 30
0.0
 40
2.6887116978982122
 50
110.7918103714810059
 51
125.2317406977536933
  0
LINE
  5
8E51
  8
0
 10
4101.6716346084649558
 20
151.8241762082261914
 30
0.0
 11
4101.6716346084649558
 21
149.9613059278566993
 31
0.0
  0
LINE
  5
8E52
  8
0
 10
4096.1212699249499565
 20
149.7477676131991018
 30
0.0
 11
4096.1212699249499565
 21
150.880231902522894
 31
0.0
  0
ARC
  5
8E53
  8
0
 10
4095.4882400483029414
 20
152.4602848999365108
 30
0.0
 40
2.9829772792865281
 50
270.5270898390070897
 51
272.0237863968380907
  0
ARC
  5
8E54
  8
0
 10
4095.5247588648780948
 20
150.8743864942767914
 30
0.0
 40
1.396914670072273
 50
272.8239925198540732
 51
280.2836789400345197
  0
ARC
  5
8E55
  8
0
 10
4095.6524268316998132
 20
150.1707357367073996
 30
0.0
 40
0.6817758734874987
 50
280.2836789400345197
 51
295.340197527825012
  0
ARC
  5
8E56
  8
0
 10
4095.8829628616549599
 20
149.6839172713146979
 30
0.0
 40
0.1431302763138393
 50
295.340197527825012
 51
321.3876895356884802
  0
ARC
  5
8E57
  8
0
 10
4095.9511603182681938
 20
149.6294519623274937
 30
0.0
 40
0.0558527707839095
 50
321.3876895356879118
 51
42.9162620080685073
  0
ARC
  5
8E58
  8
0
 10
4095.8061220360368679
 20
149.4719694748135055
 30
0.0
 40
0.2698152374707982
 50
46.4374697705830997
 51
73.7388071048088705
  0
ARC
  5
8E59
  8
0
 10
4095.5743830646729293
 20
148.7599181311109078
 30
0.0
 40
1.0185334161923061
 50
72.4402520480838632
 51
85.7977749707025055
  0
ARC
  5
8E5A
  8
0
 10
4095.4701870932271959
 20
147.1493576524617879
 30
0.0
 40
2.6324370442847869
 50
86.1046904015581731
 51
89.0097530539645163
  0
ARC
  5
8E5B
  8
0
 10
4095.6184018684648436
 20
150.3094059432503116
 30
0.0
 40
0.8117931356407627
 50
276.9322433406978234
 51
288.1146753555356099
  0
ARC
  5
8E5C
  8
0
 10
4095.7510381850620433
 20
149.9039563217905027
 30
0.0
 40
0.3851999007878184
 50
288.1146753555356099
 51
301.9416933572330208
  0
ARC
  5
8E5D
  8
0
 10
4095.8957779371899051
 20
149.6717989208125061
 30
0.0
 40
0.111618734266418
 50
301.9416933572109087
 51
329.1489980551746726
  0
ARC
  5
8E5E
  8
0
 10
4095.9491910594319961
 20
149.6398938337621018
 30
0.0
 40
0.0494022074643
 50
329.1489980551746726
 51
43.9548717741650776
  0
ARC
  5
8E5F
  8
0
 10
4095.7637814503727895
 20
149.807722568564202
 30
0.0
 40
0.2461919415825873
 50
280.1283130162282191
 51
314.6804284441594746
  0
ARC
  5
8E60
  8
0
 10
4095.9022256852467763
 20
149.6636649710854101
 30
0.0
 40
0.0465016749983433
 50
318.2003778319668186
 51
39.2782146357214472
  0
ARC
  5
8E61
  8
0
 10
4095.8505822427459862
 20
149.6259896658162916
 30
0.0
 40
0.1103861021656875
 50
37.4451229257531892
 51
64.4958237807567514
  0
ARC
  5
8E62
  8
0
 10
4095.8428252370481459
 20
149.7758642028042004
 30
0.0
 40
0.1878365357907822
 50
282.398724541732804
 51
323.0336188194124247
  0
ARC
  5
8E63
  8
0
 10
4095.5018265572989549
 20
151.2936318472598884
 30
0.0
 40
1.816122193796228
 50
270.4371032498816021
 51
271.3146791232956048
  0
ARC
  5
8E64
  8
0
 10
4095.5167755184570524
 20
150.3510990669140028
 30
0.0
 40
0.873520082640281
 50
271.7528330481014223
 51
275.241415782573597
  0
ARC
  5
8E65
  8
0
 10
4095.5334309027239215
 20
150.1695413011885876
 30
0.0
 40
0.6911999682252717
 50
275.241415782573597
 51
283.4845112207232205
  0
ARC
  5
8E66
  8
0
 10
4095.6286153721907795
 20
149.7725967590938012
 30
0.0
 40
0.2830026474026423
 50
283.4845112207232205
 51
300.4803891339108191
  0
ARC
  5
8E67
  8
0
 10
4095.684993682627919
 20
149.645817806324601
 30
0.0
 40
0.1459955364788373
 50
306.6619851981902798
 51
324.295008230800704
  0
ARC
  5
8E68
  8
0
 10
4095.6324882808098664
 20
149.6912502143111112
 30
0.0
 40
0.2152372922953349
 50
322.6310836006077807
 51
341.7164308001474069
  0
ARC
  5
8E69
  8
0
 10
4095.8004002374300399
 20
149.6335754120028128
 30
0.0
 40
0.0377661805232322
 50
344.8823710260252255
 51
47.5026270512939917
  0
ARC
  5
8E6A
  8
0
 10
4095.6579817660149274
 20
149.4510166811568013
 30
0.0
 40
0.2692042075407708
 50
51.4052710796623131
 51
84.4818694462288136
  0
ARC
  5
8E6B
  8
0
 10
4095.5208972605801137
 20
148.8145579171973907
 30
0.0
 40
0.9189814694277746
 50
79.785189895293982
 51
89.6133231519747255
  0
ARC
  5
8E6C
  8
0
 10
4095.5234413225362005
 20
150.1090346275659897
 30
0.0
 40
0.3755339842169627
 50
268.8159759824557113
 51
270.5580998542087059
  0
ARC
  5
8E6D
  8
0
 10
4095.4934686866909033
 20
148.3139671584011126
 30
0.0
 40
1.429519074126357
 50
83.1830941723812032
 51
89.1096676020779768
  0
ARC
  5
8E6E
  8
0
 10
4095.5670529320750575
 20
149.0314643027689101
 30
0.0
 40
0.7084633784068555
 50
74.4006129786093737
 51
82.2044246054743155
  0
ARC
  5
8E6F
  8
0
 10
4095.6648920792158606
 20
149.3818992256508125
 30
0.0
 40
0.3446266926692881
 50
61.5225228141180267
 51
74.4006129786093737
  0
ARC
  5
8E70
  8
0
 10
4095.7821310512040327
 20
149.5980291142741976
 30
0.0
 40
0.0987464264643532
 50
31.6233607523827516
 51
61.5225228141180267
  0
ARC
  5
8E71
  8
0
 10
4095.8345207972138269
 20
149.6338350511410908
 30
0.0
 40
0.0354903123893353
 50
334.3370231264462973
 51
26.742681441326809
  0
ARC
  5
8E72
  8
0
 10
4095.7817865973879634
 20
149.6684580546939003
 30
0.0
 40
0.0983737719258434
 50
289.0805256699089796
 51
329.4563438153980997
  0
ARC
  5
8E73
  8
0
 10
4095.3198157796650776
 20
149.8690727021609916
 30
0.0
 40
0.6013975746557496
 50
335.373024155595715
 51
338.6551907530756012
  0
ARC
  5
8E74
  8
0
 10
4095.8450562576372249
 20
149.6638166368670966
 30
0.0
 40
0.0374759382206169
 50
338.6551907530756012
 51
14.6263883548713398
  0
ARC
  5
8E75
  8
0
 10
4095.8162428116420415
 20
149.6495544620908049
 30
0.0
 40
0.0692649829217647
 50
20.0311588195283292
 51
56.4273676884518807
  0
ARC
  5
8E76
  8
0
 10
4095.6354902216921801
 20
149.3404032490101088
 30
0.0
 40
0.4272855796986556
 50
59.1582857135308799
 51
84.5553844128981353
  0
ARC
  5
8E77
  8
0
 10
4095.5147177718399689
 20
148.6349172791344984
 30
0.0
 40
1.1422916299259069
 50
81.881531973318161
 51
88.2395714620446086
  0
ARC
  5
8E78
  8
0
 10
4095.5476756857501641
 20
150.8135298512580107
 30
0.0
 40
1.036862281283655
 50
268.2317542061873041
 51
270.1179106612448209
  0
ARC
  5
8E79
  8
0
 10
4095.5138839573369296
 20
148.5706812657732883
 30
0.0
 40
1.0804169856674199
 50
85.8240788110525017
 51
89.904678353060703
  0
ARC
  5
8E7A
  8
0
 10
4095.5344288830870028
 20
148.9759405219085977
 30
0.0
 40
0.6747978531796619
 50
74.9600637495311162
 51
85.0581667853870016
  0
ARC
  5
8E7B
  8
0
 10
4095.650351144358865
 20
149.40736522086479
 30
0.0
 40
0.2280705968721735
 50
56.7519648971434876
 51
74.9600637495311162
  0
ARC
  5
8E7C
  8
0
 10
4095.7453838049109436
 20
149.5523249584315977
 30
0.0
 40
0.0547370107246205
 50
25.8197607873526884
 51
56.7519648971439423
  0
ARC
  5
8E7D
  8
0
 10
4095.7689241369348565
 20
149.5637148174018023
 30
0.0
 40
0.0285859855212676
 50
316.1470534999966731
 51
25.8197607873519708
  0
LINE
  5
8E7E
  8
0
 10
4095.9487273602449022
 20
149.6636649710854101
 30
0.0
 11
4095.9487273602449022
 21
149.7010196524578021
 31
0.0
  0
ARC
  5
8E7F
  8
0
 10
4095.5160316782921655
 20
150.3001199356104962
 30
0.0
 40
0.8152564217618898
 50
270.2520754199629778
 51
274.1328954242454188
  0
ARC
  5
8E80
  8
0
 10
4095.5300206769861688
 20
150.1459771376738956
 30
0.0
 40
0.6604630907398651
 50
275.2103283685548263
 51
279.6905087909433973
  0
ARC
  5
8E81
  8
0
 10
4095.5674581583480176
 20
149.9415164874961874
 30
0.0
 40
0.4525884715947813
 50
280.2525203032298009
 51
286.0216839140314846
  0
ARC
  5
8E82
  8
0
 10
4095.6308793091611733
 20
149.7352586614699135
 30
0.0
 40
0.2367267062162573
 50
287.8668871627075987
 51
296.6369516307536855
  0
ARC
  5
8E83
  8
0
 10
4095.6950869994711866
 20
149.6113158688685019
 30
0.0
 40
0.0970693583177264
 50
298.1947372141311234
 51
314.0800225442632154
  0
ARC
  5
8E84
  8
0
 10
4095.7422964071161005
 20
149.5659591804567867
 30
0.0
 40
0.0313392020820879
 50
321.1129944465146195
 51
355.1929981374112799
  0
ARC
  5
8E85
  8
0
 10
4095.6922319382638307
 20
149.5657478580953068
 30
0.0
 40
0.0243663308501108
 50
322.3182966772877762
 51
354.3122101611361927
  0
ARC
  5
8E86
  8
0
 10
4095.6566308188239418
 20
149.5993938906634071
 30
0.0
 40
0.0735947921234591
 50
298.284296885735273
 51
313.6610878394877204
  0
ARC
  5
8E87
  8
0
 10
4095.6089901401069255
 20
149.6888937114304099
 30
0.0
 40
0.1750426747123956
 50
288.0126675681498227
 51
296.6730125491284866
  0
ARC
  5
8E88
  8
0
 10
4095.5542248897932041
 20
149.865990671739695
 30
0.0
 40
0.3605088561445398
 50
280.4261334676804154
 51
285.7336512148843894
  0
ARC
  5
8E89
  8
0
 10
4095.5270290892490266
 20
150.0162615323592092
 30
0.0
 40
0.513235617907327
 50
275.3872093518731958
 51
279.6028892196865172
  0
ARC
  5
8E8A
  8
0
 10
4095.5159452707011951
 20
150.1379425517426967
 30
0.0
 40
0.6354383893012601
 50
270.3312003291022165
 51
273.9757871964030755
  0
ARC
  5
8E8B
  8
0
 10
4095.5182700300838405
 20
150.068276505397904
 30
0.0
 40
0.5639380734873063
 50
270.1369962578143031
 51
279.3296876153978019
  0
ARC
  5
8E8C
  8
0
 10
4095.5751308284038714
 20
149.7638071351535984
 30
0.0
 40
0.2541833051567681
 50
279.3694910238997977
 51
294.9745845759043164
  0
ARC
  5
8E8D
  8
0
 10
4095.6703729896858022
 20
149.5737663814078928
 30
0.0
 40
0.0414840019789564
 50
292.7093245394510745
 51
345.4334399715064023
  0
ARC
  5
8E8E
  8
0
 10
4095.6245124477850368
 20
149.5717462209973121
 30
0.0
 40
0.0301073869444995
 50
294.3696398101939735
 51
343.7731247125253731
  0
ARC
  5
8E8F
  8
0
 10
4095.5584967790691735
 20
149.7034747949126086
 30
0.0
 40
0.1776386784015095
 50
279.5473758750911202
 51
294.7966998855214911
  0
ARC
  5
8E90
  8
0
 10
4095.5171498212721417
 20
149.9258582860543925
 30
0.0
 40
0.4038799591089706
 50
270.3502066559727837
 51
279.1164771915126721
  0
ARC
  5
8E91
  8
0
 10
4095.5047141287391241
 20
150.0683736979030982
 30
0.0
 40
0.5446907305136099
 50
271.1537226319347837
 51
277.7522487177055837
  0
ARC
  5
8E92
  8
0
 10
4095.5649165758341042
 20
149.6700755339305999
 30
0.0
 40
0.1416299127855621
 50
278.1547817939056131
 51
298.2895603701472282
  0
ARC
  5
8E93
  8
0
 10
4095.6124670041590434
 20
149.5817262442982951
 30
0.0
 40
0.0412972649957325
 50
298.2895603701472282
 51
317.9546755414563108
  0
ARC
  5
8E94
  8
0
 10
4095.6299369818789273
 20
149.5659711639387979
 30
0.0
 40
0.0177723276171087
 50
317.9546755414575046
 51
351.463230933557611
  0
ARC
  5
8E95
  8
0
 10
4095.5712325643589793
 20
149.5676157071893897
 30
0.0
 40
0.0139096478259707
 50
298.8225046199593748
 51
342.0674556315890982
  0
ARC
  5
8E96
  8
0
 10
4095.5391578294547799
 20
149.6259051893630101
 30
0.0
 40
0.080441236948649
 50
280.2584452446345153
 51
298.8225046199593748
  0
ARC
  5
8E97
  8
0
 10
4095.5103171394098354
 20
149.8285262396508131
 30
0.0
 40
0.2853176426256601
 50
271.0772863519172233
 51
277.3189267267055129
  0
ARC
  5
8E98
  8
0
 10
4095.5106015251658391
 20
149.8093460312742025
 30
0.0
 40
0.2643109199056431
 50
271.1012579826763726
 51
277.1951685693593959
  0
ARC
  5
8E99
  8
0
 10
4095.5129160880478594
 20
149.6888346374676075
 30
0.0
 40
0.1328300724963964
 50
271.1929026963446745
 51
275.6138832278045925
  0
ARC
  5
8E9A
  8
0
 10
4095.5352981939031451
 20
149.6285937829300963
 30
0.0
 40
0.0816923984631037
 50
280.7426207147282184
 51
294.2319051178715767
  0
ARC
  5
8E9B
  8
0
 10
4095.5583617010152011
 20
149.5773514867051972
 30
0.0
 40
0.0254989977586241
 50
294.2319051178715767
 51
313.5446819441900175
  0
ARC
  5
8E9C
  8
0
 10
4095.5694697580238426
 20
149.5656643039673952
 30
0.0
 40
0.0093751281598832
 50
313.5446819441917228
 51
345.6010274588667812
  0
LINE
  5
8E9D
  8
0
 10
4095.5196184248839018
 20
149.4848714038897128
 30
0.0
 11
4095.5196184248738973
 21
149.5025147788713866
 31
0.0
  0
LINE
  5
8E9E
  8
0
 10
4095.5600033302939664
 20
149.504033383184094
 30
0.0
 11
4095.5747872873998858
 21
149.4869835315415116
 31
0.0
  0
LINE
  5
8E9F
  8
0
 10
4095.5899987178008814
 20
149.4882430509414917
 30
0.0
 11
4095.5752147606999642
 21
149.5052929026414859
 31
0.0
  0
LINE
  5
8EA0
  8
0
 10
4095.5196184248998179
 20
149.5043400439415109
 30
0.0
 11
4095.5196184248998179
 21
149.5219858713415135
 31
0.0
  0
LINE
  5
8EA1
  8
0
 10
4095.6096929272011948
 20
149.5117982896414901
 30
0.0
 11
4095.5811413788010213
 21
149.5270800244414886
 31
0.0
  0
LINE
  5
8EA2
  8
0
 10
4095.6411938483997801
 20
149.4949379528414966
 30
0.0
 11
4095.6126462681008888
 21
149.5102175637414916
 31
0.0
  0
LINE
  5
8EA3
  8
0
 10
4095.648012946101062
 20
149.4961545551414872
 30
0.0
 11
4095.6194653657012168
 21
149.5114341661414983
 31
0.0
  0
LINE
  5
8EA4
  8
0
 10
4095.6165120248001585
 20
149.5130148920414968
 30
0.0
 11
4095.5879604763999851
 21
149.5282966267415077
 31
0.0
  0
LINE
  5
8EA5
  8
0
 10
4095.6923730884000179
 20
149.5065077693415105
 30
0.0
 11
4095.6519825663999654
 21
149.5189891270414932
 31
0.0
  0
LINE
  5
8EA6
  8
0
 10
4095.7035086282007796
 20
149.5099488404414956
 30
0.0
 11
4095.6631181062030009
 21
149.5224301981407109
 31
0.0
  0
LINE
  5
8EA7
  8
0
 10
4095.73701233310112
 20
149.5236568782414963
 30
0.0
 11
4095.6875664735011924
 21
149.5324785657415134
 31
0.0
  0
LINE
  5
8EA8
  8
0
 10
4095.6915034813000602
 20
149.5345857828415035
 30
0.0
 11
4095.7409493410009418
 21
149.5257640953414864
 31
0.0
  0
LINE
  5
8EA9
  8
0
 10
4095.7626144987011685
 20
149.5415842607415016
 30
0.0
 11
4095.7074400195010639
 21
149.546152754741513
 31
0.0
  0
LINE
  5
8EAA
  8
0
 10
4095.7115159100007986
 20
149.5508533452415065
 30
0.0
 11
4095.7666903890999492
 21
149.5462848512414951
 31
0.0
  0
LINE
  5
8EAB
  8
0
 10
4095.7735253774999364
 20
149.5633329672415073
 30
0.0
 11
4095.7164783066778
 21
149.5633329672415073
 31
0.0
  0
LINE
  5
8EAC
  8
0
 10
4095.6824511370000437
 20
149.5333911982415032
 30
0.0
 11
4095.6329984045009951
 21
149.5422141119414903
 31
0.0
  0
LINE
  5
8EAD
  8
0
 10
4095.6863881448011853
 20
149.5354984153414932
 30
0.0
 11
4095.6369354123999074
 21
149.5443213290415088
 31
0.0
  0
LINE
  5
8EAE
  8
0
 10
4095.710523534999993
 20
149.5633329672415073
 30
0.0
 11
4095.6534204382010103
 21
149.5633329672415073
 31
0.0
  0
LINE
  5
8EAF
  8
0
 10
4095.6475124063999829
 20
149.5633329672415073
 30
0.0
 11
4095.5844664769010706
 21
149.5633329672415925
 31
0.0
  0
LINE
  5
8EB0
  8
0
 10
4095.585006460501063
 20
149.5298777139414881
 30
0.0
 11
4095.5534834958011743
 21
149.5467498491414915
 31
0.0
  0
LINE
  5
8EB1
  8
0
 10
4095.5781873629011898
 20
149.5286611116414974
 30
0.0
 11
4095.5466643981008019
 21
149.5455332468415008
 31
0.0
  0
LINE
  5
8EB2
  8
0
 10
4095.5437063552008112
 20
149.5471164894414926
 30
0.0
 11
4095.5259100635012146
 21
149.5566416544415063
 31
0.0
  0
ARC
  5
8EB3
  8
0
 10
4095.5314522607968684
 20
149.5725366210099878
 30
0.0
 40
0.0147337996538887
 50
274.9717587602169147
 51
321.3425716851779725
  0
LINE
  5
8EB4
  8
0
 10
4095.5785503911010892
 20
149.5633329672415925
 30
0.0
 11
4095.542957807700077
 21
149.5633329672415073
 31
0.0
  0
LINE
  5
8EB5
  8
0
 10
4095.5505254529011836
 20
149.5483330917415117
 30
0.0
 11
4095.5327291612020417
 21
149.5578582567414969
 31
0.0
  0
ARC
  5
8EB6
  8
0
 10
4095.5160316782921655
 20
148.8289792035724872
 30
0.0
 40
0.8152564217618898
 50
85.8671045757546523
 51
89.747924580037008
  0
ARC
  5
8EB7
  8
0
 10
4095.5300206769861688
 20
148.9831220015092015
 30
0.0
 40
0.6604630907398651
 50
80.3094912090565458
 51
84.7896716314451453
  0
ARC
  5
8EB8
  8
0
 10
4095.5674581583480176
 20
149.187582651686796
 30
0.0
 40
0.4525884715947813
 50
73.9783160859684443
 51
79.7474796967701849
  0
ARC
  5
8EB9
  8
0
 10
4095.6308793091611733
 20
149.3938404777130984
 30
0.0
 40
0.2367267062162573
 50
63.3630483692463926
 51
72.1331128372923729
  0
ARC
  5
8EBA
  8
0
 10
4095.6950869994711866
 20
149.51778327031451
 30
0.0
 40
0.0970693583177264
 50
45.9199774557367704
 51
61.8052627858684787
  0
ARC
  5
8EBB
  8
0
 10
4095.7422964071161005
 20
149.5631399587261967
 30
0.0
 40
0.0313392020820879
 50
4.8070018625886544
 51
38.8870055534854302
  0
ARC
  5
8EBC
  8
0
 10
4095.6922319382638307
 20
149.563351281087705
 30
0.0
 40
0.0243663308501108
 50
5.6877898388638046
 51
37.6817033227121172
  0
ARC
  5
8EBD
  8
0
 10
4095.6566308188239418
 20
149.5297052485196048
 30
0.0
 40
0.0735947921234591
 50
46.3389121605122867
 51
61.7157031142646701
  0
ARC
  5
8EBE
  8
0
 10
4095.6089901401069255
 20
149.440205427752602
 30
0.0
 40
0.1750426747123956
 50
63.3269874508715702
 51
71.9873324318502341
  0
ARC
  5
8EBF
  8
0
 10
4095.5542248897932041
 20
149.2631084674432884
 30
0.0
 40
0.3605088561445398
 50
74.2663487851155537
 51
79.5738665323195988
  0
ARC
  5
8EC0
  8
0
 10
4095.5270290892490266
 20
149.1128376068238879
 30
0.0
 40
0.513235617907327
 50
80.3971107803134828
 51
84.6127906481268042
  0
ARC
  5
8EC1
  8
0
 10
4095.5159452707011951
 20
148.9911565874402015
 30
0.0
 40
0.6354383893012601
 50
86.0242128035968676
 51
89.6687996708978545
  0
ARC
  5
8EC2
  8
0
 10
4095.5182700300838405
 20
149.0608226337851079
 30
0.0
 40
0.5639380734873063
 50
80.6703123846021271
 51
89.8630037421857537
  0
ARC
  5
8EC3
  8
0
 10
4095.5751308284038714
 20
149.3652920040294987
 30
0.0
 40
0.2541833051567681
 50
65.0254154240957831
 51
80.6305089761002023
  0
ARC
  5
8EC4
  8
0
 10
4095.6703729896858022
 20
149.5553327577750906
 30
0.0
 40
0.0414840019789564
 50
14.5665600284935799
 51
67.2906754605489397
  0
ARC
  5
8EC5
  8
0
 10
4095.6245124477850368
 20
149.5573529181856998
 30
0.0
 40
0.0301073869444995
 50
16.2268752874753197
 51
65.6303601898059839
  0
ARC
  5
8EC6
  8
0
 10
4095.5584967790691735
 20
149.4256243442704033
 30
0.0
 40
0.1776386784015095
 50
65.2033001144785516
 51
80.4526241249088798
  0
ARC
  5
8EC7
  8
0
 10
4095.5171498212721417
 20
149.2032408531287047
 30
0.0
 40
0.4038799591089706
 50
80.883522808487271
 51
89.6497933440271737
  0
ARC
  5
8EC8
  8
0
 10
4095.5110403092121487
 20
149.141959332418196
 30
0.0
 40
0.4633696588049668
 50
81.6679129264510664
 51
89.4261157239261451
  0
ARC
  5
8EC9
  8
0
 10
4095.5649165758341042
 20
149.4590236052524119
 30
0.0
 40
0.1416299127855621
 50
61.7104396298527718
 51
81.8452182060944722
  0
ARC
  5
8ECA
  8
0
 10
4095.6124670041590434
 20
149.5473728948846883
 30
0.0
 40
0.0412972649957325
 50
42.0453244585436821
 51
61.7104396298527718
  0
ARC
  5
8ECB
  8
0
 10
4095.6299369818789273
 20
149.563127975244214
 30
0.0
 40
0.0177723276171087
 50
8.5367690664423801
 51
42.0453244585424812
  0
ARC
  5
8ECC
  8
0
 10
4095.5712325643589793
 20
149.5614834319935937
 30
0.0
 40
0.0139096478259707
 50
17.9325443684108983
 51
61.1774953800405825
  0
ARC
  5
8ECD
  8
0
 10
4095.5391578294547799
 20
149.5031939498200018
 30
0.0
 40
0.080441236948649
 50
61.1774953800405825
 51
79.7415547553654989
  0
ARC
  5
8ECE
  8
0
 10
4095.5126051285737958
 20
149.3317434864011943
 30
0.0
 40
0.2541152454582119
 50
82.2974205320802952
 51
89.306366389296457
  0
ARC
  5
8ECF
  8
0
 10
4095.5071241917430598
 20
149.2718075762493015
 30
0.0
 40
0.3123248803716539
 50
83.2735875950481983
 51
88.4299858529149105
  0
ARC
  5
8ED0
  8
0
 10
4095.5146009907730331
 20
149.4685963011058902
 30
0.0
 40
0.1044750716303255
 50
83.7857496134525945
 51
89.4074644624118662
  0
ARC
  5
8ED1
  8
0
 10
4095.5352981939031451
 20
149.5005053562528872
 30
0.0
 40
0.0816923984631037
 50
65.768094882128338
 51
79.2573792852717958
  0
ARC
  5
8ED2
  8
0
 10
4095.5583617010152011
 20
149.5517476524777862
 30
0.0
 40
0.0254989977586241
 50
46.4553180558099612
 51
65.768094882128338
  0
ARC
  5
8ED3
  8
0
 10
4095.5694697580238426
 20
149.5634348352155882
 30
0.0
 40
0.0093751281598832
 50
14.3989725411331193
 51
46.4553180558082914
  0
LINE
  5
8ED4
  8
0
 10
4095.5196184248839018
 20
149.644227735293299
 30
0.0
 11
4095.5196184248738973
 21
149.6265843603115968
 31
0.0
  0
LINE
  5
8ED5
  8
0
 10
4095.5600033302939664
 20
149.6250657559988895
 30
0.0
 11
4095.5747872873998858
 21
149.6421156076415002
 31
0.0
  0
LINE
  5
8ED6
  8
0
 10
4095.5899987178008814
 20
149.6408560882414918
 30
0.0
 11
4095.5752147606999642
 21
149.6238062365414976
 31
0.0
  0
LINE
  5
8ED7
  8
0
 10
4095.5196184248998179
 20
149.624759095241501
 30
0.0
 11
4095.5196184248998179
 21
149.6071132678414983
 31
0.0
  0
LINE
  5
8ED8
  8
0
 10
4095.6096929272011948
 20
149.6173008495414933
 30
0.0
 11
4095.5811413788010213
 21
149.6020191147414948
 31
0.0
  0
LINE
  5
8ED9
  8
0
 10
4095.6411938483997801
 20
149.6341611863414869
 30
0.0
 11
4095.6126462681008888
 21
149.6188815754414918
 31
0.0
  0
LINE
  5
8EDA
  8
0
 10
4095.648012946101062
 20
149.6329445840414962
 30
0.0
 11
4095.6194653657012168
 21
149.6176649730415136
 31
0.0
  0
LINE
  5
8EDB
  8
0
 10
4095.6165120248001585
 20
149.6160842471414867
 30
0.0
 11
4095.5879604763999851
 21
149.6008025124415042
 31
0.0
  0
LINE
  5
8EDC
  8
0
 10
4095.6923730884000179
 20
149.6225913698415013
 30
0.0
 11
4095.6519825663999654
 21
149.6101100121414902
 31
0.0
  0
LINE
  5
8EDD
  8
0
 10
4095.7035086282007796
 20
149.6191502987414879
 30
0.0
 11
4095.6631181062030009
 21
149.606668941042301
 31
0.0
  0
LINE
  5
8EDE
  8
0
 10
4095.73701233310112
 20
149.6054422609414871
 30
0.0
 11
4095.6875664735011924
 21
149.5966205734414984
 31
0.0
  0
LINE
  5
8EDF
  8
0
 10
4095.6915034813000602
 20
149.5945133563415084
 30
0.0
 11
4095.7409493410009418
 21
149.6033350438414971
 31
0.0
  0
LINE
  5
8EE0
  8
0
 10
4095.7626144987011685
 20
149.5875148784415103
 30
0.0
 11
4095.7074400195010639
 21
149.5829463844414988
 31
0.0
  0
LINE
  5
8EE1
  8
0
 10
4095.7115159100007986
 20
149.5782457939415053
 30
0.0
 11
4095.7666903890999492
 21
149.5828142879414884
 31
0.0
  0
LINE
  5
8EE2
  8
0
 10
4095.7735253774999364
 20
149.5657661719415046
 30
0.0
 11
4095.7164783066778
 21
149.5657661719415046
 31
0.0
  0
LINE
  5
8EE3
  8
0
 10
4095.6824511370000437
 20
149.5957079409415087
 30
0.0
 11
4095.6329984045009951
 21
149.5868850272414932
 31
0.0
  0
LINE
  5
8EE4
  8
0
 10
4095.6863881448011853
 20
149.5936007238414902
 30
0.0
 11
4095.6369354123999074
 21
149.5847778101415031
 31
0.0
  0
LINE
  5
8EE5
  8
0
 10
4095.710523534999993
 20
149.5657661719415046
 30
0.0
 11
4095.6534204382010103
 21
149.5657661719415046
 31
0.0
  0
LINE
  5
8EE6
  8
0
 10
4095.6475124063999829
 20
149.5657661719415046
 30
0.0
 11
4095.5844664769010706
 21
149.5657661719413909
 31
0.0
  0
LINE
  5
8EE7
  8
0
 10
4095.585006460501063
 20
149.5992214252414954
 30
0.0
 11
4095.5534834958011743
 21
149.5823492900414919
 31
0.0
  0
LINE
  5
8EE8
  8
0
 10
4095.5781873629011898
 20
149.600438027541486
 30
0.0
 11
4095.5466643981008019
 21
149.583565892341511
 31
0.0
  0
LINE
  5
8EE9
  8
0
 10
4095.5437063552008112
 20
149.5819826497414908
 30
0.0
 11
4095.5259100635012146
 21
149.5724574847415056
 31
0.0
  0
ARC
  5
8EEA
  8
0
 10
4095.5314522607968684
 20
149.5565625181729104
 30
0.0
 40
0.0147337996538887
 50
38.657428314822063
 51
85.0282412397831138
  0
LINE
  5
8EEB
  8
0
 10
4095.5785503911010892
 20
149.5657661719413909
 30
0.0
 11
4095.542957807700077
 21
149.5657661719415046
 31
0.0
  0
LINE
  5
8EEC
  8
0
 10
4095.5505254529011836
 20
149.5807660474415002
 30
0.0
 11
4095.5327291612020417
 21
149.5712408824414865
 31
0.0
  0
LINE
  5
8EED
  8
0
 10
4095.5899987178008814
 20
149.4882430509414917
 30
0.0
 11
4095.5899987178008814
 21
149.508918707484014
 31
0.0
  0
LINE
  5
8EEE
  8
0
 10
4095.648012946101062
 20
149.4961545551414872
 30
0.0
 11
4095.648012946101062
 21
149.5202966640430873
 31
0.0
  0
LINE
  5
8EEF
  8
0
 10
4095.7035086282007796
 20
149.5099488404414956
 30
0.0
 11
4095.7035086282007796
 21
149.5296343092562097
 31
0.0
  0
LINE
  5
8EF0
  8
0
 10
4095.7409493410009418
 20
149.5257640953414864
 30
0.0
 11
4095.7409493410009418
 21
149.5433781543023883
 31
0.0
  0
LINE
  5
8EF1
  8
0
 10
4095.7666903890999492
 20
149.5462848512414951
 30
0.0
 11
4095.7666903890999492
 21
149.5633329672415073
 31
0.0
  0
LINE
  5
8EF2
  8
0
 10
4095.6165120248001585
 20
149.5130148920414968
 30
0.0
 11
4095.6165120248001585
 21
149.5355768159880085
 31
0.0
  0
LINE
  5
8EF3
  8
0
 10
4095.6863881448011853
 20
149.5354984153414932
 30
0.0
 11
4095.6863881448011853
 21
149.5633329672415073
 31
0.0
  0
LINE
  5
8EF4
  8
0
 10
4095.7164783066778
 20
149.5657661719415046
 30
0.0
 11
4095.7164783066778
 21
149.5786566846252867
 31
0.0
  0
LINE
  5
8EF5
  8
0
 10
4095.7074400195010639
 20
149.5829463844414988
 30
0.0
 11
4095.7074400195010639
 21
149.5973566107755062
 31
0.0
  0
LINE
  5
8EF6
  8
0
 10
4095.6875664735011924
 20
149.5966205734414984
 30
0.0
 11
4095.6875664735011924
 21
149.6142239020161071
 31
0.0
  0
LINE
  5
8EF7
  8
0
 10
4095.6519825663999654
 20
149.6101100121414902
 30
0.0
 11
4095.6519825663999654
 21
149.6322082796750124
 31
0.0
  0
LINE
  5
8EF8
  8
0
 10
4095.6126462681008888
 20
149.6188815754414918
 30
0.0
 11
4095.6126462681008888
 21
149.6383963760443976
 31
0.0
  0
LINE
  5
8EF9
  8
0
 10
4095.5600033302939664
 20
149.6250657559988895
 30
0.0
 11
4095.5600033302939664
 21
149.643048934642394
 31
0.0
  0
LINE
  5
8EFA
  8
0
 10
4095.6534204382010103
 20
149.5657661719415046
 30
0.0
 11
4095.6534204382010103
 21
149.5877189208327991
 31
0.0
  0
LINE
  5
8EFB
  8
0
 10
4095.6329984045009951
 20
149.5868850272414932
 30
0.0
 11
4095.6329984045009951
 21
149.612800582177897
 31
0.0
  0
LINE
  5
8EFC
  8
0
 10
4095.5811413788010213
 20
149.6020191147414948
 30
0.0
 11
4095.5811413788010213
 21
149.6212451032126012
 31
0.0
  0
LINE
  5
8EFD
  8
0
 10
4095.5844664769010706
 20
149.5657661719413909
 30
0.0
 11
4095.5844664769010706
 21
149.5989324081268137
 31
0.0
  0
LINE
  5
8EFE
  8
0
 10
4095.5466643981008019
 20
149.583565892341511
 30
0.0
 11
4095.5466643981008019
 21
149.6039575629255012
 31
0.0
  0
LINE
  5
8EFF
  8
0
 10
4095.542957807700077
 20
149.5657661719415046
 30
0.0
 11
4095.542957807700077
 21
149.5767155929756882
 31
0.0
  0
LINE
  5
8F00
  8
0
 10
4095.585006460501063
 20
149.5298777139414881
 30
0.0
 11
4095.585006460501063
 21
149.5633329672415925
 31
0.0
  0
LINE
  5
8F01
  8
0
 10
4095.5505254529011836
 20
149.5483330917415117
 30
0.0
 11
4095.5505254529011836
 21
149.5633329672415073
 31
0.0
  0
LINE
  5
8F02
  8
0
 10
4095.5259100635012146
 20
149.5724574847415056
 30
0.0
 11
4095.5259100635012146
 21
149.5835669737363105
 31
0.0
  0
ARC
  5
8F03
  8
0
 10
4095.9721767759538125
 20
149.7506918268551885
 30
0.0
 40
0.1491218230284311
 50
334.7659659520031141
 51
358.8763828313324211
  0
ARC
  5
8F04
  8
0
 10
4095.9251740226582115
 20
149.7728437554702907
 30
0.0
 40
0.2010830273901277
 50
317.3090318977480138
 51
334.7659659520037962
  0
ARC
  5
8F05
  8
0
 10
4095.6421511325597749
 20
150.0339271690920953
 30
0.0
 40
0.5861369264591976
 50
306.3277176049945183
 51
317.3090318977480138
  0
ARC
  5
8F06
  8
0
 10
4095.6250061203058976
 20
150.080306142876907
 30
0.0
 40
0.6338057918556333
 50
291.6690170217730156
 51
305.0925553266765746
  0
ARC
  5
8F07
  8
0
 10
4095.8387477146939091
 20
149.5457430074876868
 30
0.0
 40
0.0581096051660856
 50
275.3134441389800031
 51
290.4338547434367115
  0
ARC
  5
8F08
  8
0
 10
4095.5121551662409729
 20
152.7619009713907019
 30
0.0
 40
3.290805310533627
 50
270.061395169855416
 51
275.7897998455343895
  0
ARC
  5
8F09
  8
0
 10
4095.2931654207050087
 20
147.3792659921938082
 30
0.0
 40
2.4319395318751198
 50
77.4784956647897047
 51
84.6867336391936192
  0
ARC
  5
8F0A
  8
0
 10
4095.525815129511102
 20
148.4268202202260909
 30
0.0
 40
1.3588618330683531
 50
67.5723630825788035
 51
77.4784956647897047
  0
ARC
  5
8F0B
  8
0
 10
4096.0430298819401287
 20
149.6799612600404998
 30
0.0
 40
0.0031798770784214
 50
25.4040651759955693
 51
67.5723630825784909
  0
ARC
  5
8F0C
  8
0
 10
4095.9292481489269449
 20
149.6809063775671973
 30
0.0
 40
0.1166548840767559
 50
322.336490610650003
 51
0.2058181452003299
  0
ARC
  5
8F0D
  8
0
 10
4095.72792383900196
 20
149.8654737725753989
 30
0.0
 40
0.3894858716312746
 50
298.5290343041256165
 51
318.9375012960546201
  0
ARC
  5
8F0E
  8
0
 10
4095.2817220954880213
 20
150.7458501606020889
 30
0.0
 40
1.3763645458426841
 50
293.8861016733131919
 51
297.3446431755264143
  0
ARC
  5
8F0F
  8
0
 10
4095.3900092163407862
 20
147.906855267308913
 30
0.0
 40
1.9936554866704079
 50
68.7629251126784737
 51
85.9731411560027539
  0
ARC
  5
8F10
  8
0
 10
4096.1060309513595712
 20
149.7485496295851988
 30
0.0
 40
0.0176706240912563
 50
30.4139734143031184
 51
69.6823702211888616
  0
ARC
  5
8F11
  8
0
 10
4096.0459227365181505
 20
149.7218302026979018
 30
0.0
 40
0.0405047830218647
 50
269.9710638601678738
 51
313.3735713935536751
  0
ARC
  5
8F12
  8
0
 10
4095.7532599505079816
 20
150.031598514450792
 30
0.0
 40
0.466659582691389
 50
313.3735713935536751
 51
319.7623606573300208
  0
ARC
  5
8F13
  8
0
 10
4096.0698244881368737
 20
149.7637240677624106
 30
0.0
 40
0.0519671356017195
 50
319.7623606573305892
 51
351.8745551119001789
  0
ARC
  5
8F14
  8
0
 10
4095.5113463303209755
 20
149.7865088729591889
 30
0.0
 40
0.1106655074691813
 50
80.2897131757900553
 51
87.7549828217229049
  0
ARC
  5
8F15
  8
0
 10
4095.5157025386729401
 20
149.7729026405741024
 30
0.0
 40
0.0279805646614344
 50
84.5382027381402139
 51
90.0432427464055536
  0
ARC
  5
8F16
  8
0
 10
4095.2143820903229425
 20
150.2819850942478013
 30
0.0
 40
1.0931008192325899
 50
34.5790203869616093
 51
73.3912090021043753
  0
ARC
  5
8F17
  8
0
 10
4096.0822699249511061
 20
150.880231902522894
 30
0.0
 40
0.039
 50
0.0000000000024427
 51
34.5790203869663131
  0
LINE
  5
8F18
  8
0
 10
4099.8148955153510542
 20
149.9373515943622124
 30
0.0
 11
4099.8148955153510542
 21
151.8481305416698888
 31
0.0
  0
ARC
  5
8F19
  8
0
 10
4099.8345955153508839
 20
149.9373515943622124
 30
0.0
 40
0.0197
 50
179.9999999999893987
 51
271.1000000028656132
  0
ARC
  5
8F1A
  8
0
 10
4099.8345955153508839
 20
151.8481305416698888
 30
0.0
 40
0.0197
 50
88.899999996039881
 51
180.0
  0
ARC
  5
8F1B
  8
0
 10
4105.758826390871036
 20
160.1456712729300875
 30
0.0
 40
1.3942864155999899
 50
52.885056540792867
 51
74.1915537862674768
  0
ARC
  5
8F1C
  8
0
 10
4106.5648439526239599
 20
161.2112902345137968
 30
0.0
 40
0.0581702859845954
 50
356.7442838963663121
 51
52.6174481040184716
  0
ARC
  5
8F1D
  8
0
 10
4105.7007883661335654
 20
159.9988890810045916
 30
0.0
 40
0.6946946166286315
 50
290.7339777996933776
 51
319.3478223024022782
  0
ARC
  5
8F1E
  8
0
 10
4105.4643238267017296
 20
160.2019375329593061
 30
0.0
 40
1.0063741832509689
 50
319.3478223024022782
 51
340.2470981832278198
  0
ARC
  5
8F1F
  8
0
 10
4103.6083645705557501
 20
160.8684011109808125
 30
0.0
 40
2.9783677079124118
 50
340.2470981832278198
 51
350.8403051631228209
  0
ARC
  5
8F20
  8
0
 10
4099.6458392615713819
 20
161.4336976326997046
 30
0.0
 40
6.9807310516239607
 50
351.4369614718426078
 51
358.1471075741791878
  0
ARC
  5
8F21
  8
0
 10
4108.8711138312683033
 20
161.1739302250514072
 30
0.0
 40
2.750354839210245
 50
171.469594030283389
 51
176.3065383594469893
  0
ARC
  5
8F22
  8
0
 10
4096.6201398646053349
 20
163.0388728887861021
 30
0.0
 40
9.6417629514535932
 50
351.3087174750913277
 51
352.8152802133919863
  0
ARC
  5
8F23
  8
0
 10
4105.0207347829673381
 20
161.962723996792505
 30
0.0
 40
1.172660186611838
 50
353.6482725078024032
 51
0.4260081856835308
  0
LINE
  5
8F24
  8
0
 10
4106.1933625557148844
 20
161.9714429328101915
 30
0.0
 11
4106.1933625557148844
 21
164.8087082716706959
 31
0.0
  0
ARC
  5
8F25
  8
0
 10
4106.1146960541236695
 20
161.3518639026414974
 30
0.0
 40
0.0118
 50
270.0000000000259774
 51
356.3065383594015998
  0
LINE
  5
8F26
  8
0
 10
4106.264224727950932
 20
161.2731048475415037
 30
0.0
 11
4106.264224727950932
 21
159.9109599656414957
 31
0.0
  0
LINE
  5
8F27
  8
0
 10
4106.2248247279512725
 20
161.3125048475415042
 30
0.0
 11
4106.2130436255511086
 21
161.3125048475415042
 31
0.0
  0
ARC
  5
8F28
  8
0
 10
4106.2248247279512725
 20
161.2731048475415037
 30
0.0
 40
0.0394
 50
359.9999999999951115
 51
90.0
  0
ARC
  5
8F29
  8
0
 10
4106.2248247279512725
 20
159.9109599656414957
 30
0.0
 40
0.0394
 50
270.0
 51
0.0000000000048853
  0
ARC
  5
8F2A
  8
0
 10
4105.7796147302087775
 20
159.9431514365363114
 30
0.0
 40
1.486305324406741
 50
71.486510383944605
 51
76.4008621262677963
  0
ARC
  5
8F2B
  8
0
 10
4106.2407396089402027
 20
161.3202308782607872
 30
0.0
 40
0.0340712032660784
 50
24.9721428791123792
 51
71.486510383944605
  0
ARC
  5
8F2C
  8
0
 10
4106.174313633076963
 20
159.8174118547125886
 30
0.0
 40
0.098040220037681
 50
321.9671508533335214
 51
353.0121272978329898
  0
LINE
  5
8F2D
  8
0
 10
4106.2716256029507349
 20
159.805484354377711
 30
0.0
 11
4106.2716256029507349
 21
161.3346149759381944
 31
0.0
  0
LINE
  5
8F2E
  8
0
 10
4106.2130436255511086
 20
161.3203639026415033
 30
0.0
 11
4106.2130436255511086
 21
159.8715599656414952
 31
0.0
  0
ARC
  5
8F2F
  8
0
 10
4106.0858364692739997
 20
161.2979554442333097
 30
0.0
 40
0.1272858091332948
 50
340.8939719787430249
 51
357.985054550333416
  0
ARC
  5
8F30
  8
0
 10
4104.7773503604630605
 20
161.8538057729928994
 30
0.0
 40
1.5486697614238629
 50
328.3946372704073724
 51
337.3051267255398216
  0
ARC
  5
8F31
  8
0
 10
4111.7669944807821594
 20
159.5037836409491092
 30
0.0
 40
5.875653036123313
 50
164.8213717261604927
 51
164.9135582744544024
  0
ARC
  5
8F32
  8
0
 10
4106.1333669155274038
 20
161.2090366164530053
 30
0.0
 40
0.0370809751130411
 50
143.2259990678745112
 51
182.3882900928003039
  0
ARC
  5
8F33
  8
0
 10
4106.6554444397406769
 20
160.8188420880694025
 30
0.0
 40
0.6888606244340983
 50
136.9322647399663992
 51
143.2259990678745112
  0
ARC
  5
8F34
  8
0
 10
4105.4073083479515844
 20
161.9855095354681964
 30
0.0
 40
1.019634806185634
 50
316.9322647399662856
 51
318.3575584415787034
  0
ARC
  5
8F35
  8
0
 10
4106.1972021274541476
 20
161.2831620024323911
 30
0.0
 40
0.0373534813834469
 50
112.1971658333153954
 51
138.3575584415785897
  0
ARC
  5
8F36
  8
0
 10
4106.1984395845092877
 20
161.2801292776715911
 30
0.0
 40
0.0406289537824383
 50
97.8358972660633128
 51
112.1971658333153954
  0
ARC
  5
8F37
  8
0
 10
4106.130366389745177
 20
161.2707334976275888
 30
0.0
 40
0.0696259069530824
 50
95.2806342146913039
 51
110.3071148148602987
  0
ARC
  5
8F38
  8
0
 10
4106.1356596529540184
 20
161.2581994664083993
 30
0.0
 40
0.0832202015640835
 50
110.730056384509993
 51
131.2924657550701113
  0
ARC
  5
8F39
  8
0
 10
4109.6902015557998311
 20
157.8986012144897018
 30
0.0
 40
4.9738456499529562
 50
136.5260955566434973
 51
137.6178627787107871
  0
LINE
  5
8F3A
  8
0
 10
4106.0161932318505933
 20
161.2513319500415037
 30
0.0
 11
4106.0161932318505933
 21
159.8715599656414952
 31
0.0
  0
ARC
  5
8F3B
  8
0
 10
4106.1933436255512788
 20
161.3203639026415033
 30
0.0
 40
0.0197
 50
359.9999999999789111
 51
90.0000000000260485
  0
LINE
  5
8F3C
  8
0
 10
4106.2130436198704047
 20
161.3203788633414888
 30
0.0
 11
4106.1929003843124519
 21
161.3203788633414888
 31
0.0
  0
LINE
  5
8F3D
  8
0
 10
4106.0963181501510917
 20
161.2074913982415012
 30
0.0
 11
4106.0963181501510917
 21
161.0422011896415029
 31
0.0
  0
LINE
  5
8F3E
  8
0
 10
4106.0963181501510917
 20
161.2074913982415012
 30
0.0
 11
4106.0161932318505933
 21
161.2074913982415012
 31
0.0
  0
LINE
  5
8F3F
  8
0
 10
4106.0662577445318675
 20
161.0288274172145009
 30
0.0
 11
4106.0161932318505933
 21
161.0288274172145009
 31
0.0
  0
LINE
  5
8F40
  8
0
 10
4106.0938502407507258
 20
161.033075317741492
 30
0.0
 11
4106.0662577445318675
 21
161.0288274172145009
 31
0.0
  0
ARC
  5
8F41
  8
0
 10
4106.6635087553422636
 20
161.1828620359464139
 30
0.0
 40
0.0477353372448289
 50
148.2421378484795866
 51
170.7978702080148992
  0
ARC
  5
8F42
  8
0
 10
4106.531417244660588
 20
161.2349116620370921
 30
0.0
 40
0.0958788785994105
 50
296.8375917907122243
 51
332.4029752029031783
  0
ARC
  5
8F43
  8
0
 10
4106.2768135352862373
 20
161.9399374198787882
 30
0.0
 40
0.8448378146592055
 50
279.8558409397277273
 51
290.6464014265999936
  0
ARC
  5
8F44
  8
0
 10
4106.3693411407593885
 20
161.0662284873010037
 30
0.0
 40
0.0664952287595626
 50
38.4398744950156512
 51
70.6857657509211066
  0
ARC
  5
8F45
  8
0
 10
4105.3616509772991776
 20
157.8037626331949923
 30
0.0
 40
3.4809951102688972
 50
72.7943982531153893
 51
74.3261346457225329
  0
ARC
  5
8F46
  8
0
 10
4106.2967888468911042
 20
161.1262683973453136
 30
0.0
 40
0.0295269665100831
 50
79.6747402478944622
 51
148.453112477632601
  0
ARC
  5
8F47
  8
0
 10
4107.9953735329336268
 20
160.9585681741876044
 30
0.0
 40
1.580986178519783
 50
174.5921374256797094
 51
181.3735309483498099
  0
ARC
  5
8F48
  8
0
 10
4096.0826884717707799
 20
161.1446309283346068
 30
0.0
 40
10.3345801332564502
 50
356.4987635495622271
 51
358.7582523513809747
  0
ARC
  5
8F49
  8
0
 10
4055.0659244022981511
 20
162.8146086314048091
 30
0.0
 40
51.3836056888062132
 50
356.8640888458094196
 51
357.4332654397874762
  0
ARC
  5
8F4A
  8
0
 10
4106.242345099589329
 20
159.9318399308166931
 30
0.0
 40
0.1487444510401208
 50
347.0096568212180728
 51
28.8827568974285604
  0
ARC
  5
8F4B
  8
0
 10
4105.5828863546557841
 20
160.0848422822739963
 30
0.0
 40
0.8257196543926749
 50
321.3606930370492023
 51
346.9507407263470782
  0
ARC
  5
8F4C
  8
0
 10
4105.7125034288092138
 20
159.9668019840854924
 30
0.0
 40
0.6508680544091517
 50
291.0921609991563059
 51
322.352437159467172
  0
LINE
  5
8F4D
  8
0
 10
4105.9467307697514116
 20
159.7972059926414943
 30
0.0
 11
4105.9467307697514116
 21
131.0693370689415076
 31
0.0
  0
LINE
  5
8F4E
  8
0
 10
4106.0557928117514166
 20
159.8172059926415045
 30
0.0
 11
4106.0557928117514166
 21
159.8715599656414952
 31
0.0
  0
ARC
  5
8F4F
  8
0
 10
4106.03579281175098
 20
159.8172059926415045
 30
0.0
 40
0.02
 50
270.0
 51
359.9999999999797069
  0
LINE
  5
8F50
  8
0
 10
4106.2515357623497039
 20
159.7570079848414935
 30
0.0
 11
4106.2028905091756315
 21
159.7570079848414935
 31
0.0
  0
ARC
  5
8F51
  8
0
 10
4105.3885088179504237
 20
160.7504987289520102
 30
0.0
 40
1.2846172183330451
 50
295.7562441660070931
 51
309.3420720620156885
  0
ARC
  5
8F52
  8
0
 10
4106.2211058572656839
 20
159.8662598122961924
 30
0.0
 40
0.1107599049913768
 50
206.5534733724223031
 51
260.534262354890302
  0
ARC
  5
8F53
  8
0
 10
4106.2549646335337457
 20
159.8831806489556868
 30
0.0
 40
0.1486113441127524
 50
193.2994626150779993
 51
206.5534733724223031
  0
ARC
  5
8F54
  8
0
 10
4106.2967486002908117
 20
160.2637851171639909
 30
0.0
 40
0.4547529505907948
 50
239.5986344933949965
 51
245.8005527216928101
  0
ARC
  5
8F55
  8
0
 10
4105.6184612811421175
 20
167.0167023049573061
 30
0.0
 40
2.9648706453431899
 50
75.8688203045805096
 51
89.1612460996184382
  0
ARC
  5
8F56
  8
0
 10
4105.6735566566867419
 20
167.3917029686423916
 30
0.0
 40
2.5880474635011699
 50
52.1134823324537066
 51
75.0247430139947795
  0
ARC
  5
8F57
  8
0
 10
4105.7435040681275495
 20
167.4815980070279124
 30
0.0
 40
2.4741450566189118
 50
24.0302971077891492
 51
52.1134823324537066
  0
ARC
  5
8F58
  8
0
 10
4104.7341161921249295
 20
167.2735010003891887
 30
0.0
 40
3.4877982822063989
 50
1.4808679260481601
 51
20.3976955027549884
  0
ARC
  5
8F59
  8
0
 10
4105.3488124889681785
 20
167.4616729483591087
 30
0.0
 40
2.8736098893922022
 50
331.9400204490257806
 51
358.0449137943717801
  0
ARC
  5
8F5A
  8
0
 10
4105.7567958337767777
 20
167.3931371908554127
 30
0.0
 40
2.484822270816486
 50
303.3800719956806233
 51
328.9079651583854229
  0
ARC
  5
8F5B
  8
0
 10
4105.6749468992484253
 20
167.5139077305597937
 30
0.0
 40
2.630703594112628
 50
280.1522021461294116
 51
303.4214596500330003
  0
ARC
  5
8F5C
  8
0
 10
4105.6617491401730149
 20
167.5699862424272908
 30
0.0
 40
2.6882321643455129
 50
270.0024165962752249
 51
280.218413128478403
  0
ARC
  5
8F5D
  8
0
 10
4105.6391960510572972
 20
166.9034827903691962
 30
0.0
 40
2.6906019947231581
 50
75.5166761711556092
 51
89.5173167353104162
  0
ARC
  5
8F5E
  8
0
 10
4105.6767859311748907
 20
167.1324847212158033
 30
0.0
 40
2.4595650853382809
 50
53.6551948395341967
 51
75.0303229504127103
  0
ARC
  5
8F5F
  8
0
 10
4105.7662887990645686
 20
167.2541286227425985
 30
0.0
 40
2.3085419012261852
 50
25.8901051516874787
 51
53.6551948395341967
  0
ARC
  5
8F60
  8
0
 10
4105.8910859881862052
 20
167.3147002503023941
 30
0.0
 40
2.1698218216492422
 50
358.45778305971902
 51
25.8901051516874787
  0
ARC
  5
8F61
  8
0
 10
4105.8646798588642923
 20
167.3154111895402991
 30
0.0
 40
2.1962375196414299
 50
327.4478961424907766
 51
358.45778305971902
  0
ARC
  5
8F62
  8
0
 10
4105.7409101353905498
 20
167.3944195265881092
 30
0.0
 40
2.343075054936159
 50
299.0930573565345867
 51
327.4478961424907766
  0
ARC
  5
8F63
  8
0
 10
4105.6598670147195662
 20
167.5400668043866119
 30
0.0
 40
2.5097517387833319
 50
280.3101019798609173
 51
299.0930573565345867
  0
ARC
  5
8F64
  8
0
 10
4105.6512614048042451
 20
167.6697449559677011
 30
0.0
 40
2.6389174174494601
 50
270.2301705141658204
 51
279.9900117042494117
  0
ARC
  5
8F65
  8
0
 10
4105.6467355815930205
 20
167.766688658973294
 30
0.0
 40
2.8067766942649879
 50
270.3087933962207217
 51
278.3026035965494884
  0
ARC
  5
8F66
  8
0
 10
4105.6632889440334111
 20
167.5507675826511047
 30
0.0
 40
2.5907705825734251
 50
278.629898844549416
 51
291.7674077359391731
  0
ARC
  5
8F67
  8
0
 10
4105.6995520256714371
 20
167.4626812983526065
 30
0.0
 40
2.495517538916372
 50
291.7441835614089882
 51
312.156809816014686
  0
ARC
  5
8F68
  8
0
 10
4105.7909394452217384
 20
167.3632486549674923
 30
0.0
 40
2.3604715086784531
 50
312.1322681809110122
 51
335.5568252588661835
  0
ARC
  5
8F69
  8
0
 10
4105.8794301491698207
 20
167.3206009650623969
 30
0.0
 40
2.2622659068002871
 50
335.6127631423677826
 51
357.6634733762986116
  0
ARC
  5
8F6A
  8
0
 10
4105.8893106702862497
 20
167.3178339874156109
 30
0.0
 40
2.2522820323546129
 50
357.7235567299247236
 51
21.2118350662969988
  0
ARC
  5
8F6B
  8
0
 10
4105.8081700576540243
 20
167.2842096638451892
 30
0.0
 40
2.3400919954606771
 50
21.2605144958670387
 51
44.4408744853772291
  0
ARC
  5
8F6C
  8
0
 10
4105.7128863444213493
 20
167.1923720633978121
 30
0.0
 40
2.4724244895424801
 50
44.4143294495349679
 51
64.2874167585748353
  0
ARC
  5
8F6D
  8
0
 10
4105.6682600436552093
 20
167.1034746996830052
 30
0.0
 40
2.5718813463623009
 50
64.2509092322610229
 51
81.5723690240338755
  0
ARC
  5
8F6E
  8
0
 10
4105.6116685794204386
 20
166.3900766238139113
 30
0.0
 40
3.2862290621528989
 50
82.4193159422606811
 51
89.1248288179011041
  0
ARC
  5
8F6F
  8
0
 10
4105.6392366267537
 20
166.7716037791001895
 30
0.0
 40
2.8984172900415919
 50
81.8262952667942898
 51
89.5527277772665968
  0
ARC
  5
8F70
  8
0
 10
4105.6645676894950157
 20
167.0899330550014099
 30
0.0
 40
2.5797992641208451
 50
71.9294008513065393
 51
81.3780024818899079
  0
ARC
  5
8F71
  8
0
 10
4105.6791037965103897
 20
167.1344837321539103
 30
0.0
 40
2.5329371126348348
 50
57.6876241394611711
 51
71.9294008513065393
  0
ARC
  5
8F72
  8
0
 10
4105.7346376855521157
 20
167.2222876620805039
 30
0.0
 40
2.4290451353565619
 50
36.5767725839708007
 51
57.6876241394611711
  0
ARC
  5
8F73
  8
0
 10
4105.8485365239630482
 20
167.3068047847712023
 30
0.0
 40
2.2872139349123568
 50
13.5452307875820104
 51
36.5767725839708007
  0
ARC
  5
8F74
  8
0
 10
4105.8970326159378601
 20
167.3184881647310078
 30
0.0
 40
2.2373303473912398
 50
348.4427053494736128
 51
13.5452307875820104
  0
ARC
  5
8F75
  8
0
 10
4105.8516275687588859
 20
167.3277732191814096
 30
0.0
 40
2.283675040133204
 50
322.9473057645116114
 51
348.4427053494736128
  0
ARC
  5
8F76
  8
0
 10
4105.7256982934995904
 20
167.4228494413688964
 30
0.0
 40
2.441464996698234
 50
299.143384055974991
 51
322.9473057645116114
  0
ARC
  5
8F77
  8
0
 10
4105.6700631713429175
 20
167.5226281609103012
 30
0.0
 40
2.5557062313325658
 50
279.9448503019589225
 51
299.143384055974991
  0
ARC
  5
8F78
  8
0
 10
4105.6607000649164547
 20
167.5760294989347869
 30
0.0
 40
2.6099221945239042
 50
270.0255195188393031
 51
279.9448503019589225
  0
ARC
  5
8F79
  8
0
 10
4105.6551589483333373
 20
167.2039353939516104
 30
0.0
 40
0.938283879342782
 50
68.5467083519275917
 51
89.5906518264863934
  0
ARC
  5
8F7A
  8
0
 10
4105.6761661278196698
 20
167.2749200956774871
 30
0.0
 40
0.8645578242531177
 50
39.6659532211118702
 51
68.1218751179121966
  0
ARC
  5
8F7B
  8
0
 10
4105.7300299277221711
 20
167.3195846418130941
 30
0.0
 40
0.7945847535667415
 50
12.4099332577381407
 51
39.6659532211124883
  0
ARC
  5
8F7C
  8
0
 10
4105.7401897557620032
 20
167.3218202714868994
 30
0.0
 40
0.7841818623417902
 50
348.2833926162762168
 51
12.4099332577381407
  0
ARC
  5
8F7D
  8
0
 10
4105.725367716873734
 20
167.3248942489169906
 30
0.0
 40
0.7993193051257264
 50
313.2283582154749979
 51
348.2833926162762168
  0
ARC
  5
8F7E
  8
0
 10
4105.6616559111771494
 20
167.3926731734393059
 30
0.0
 40
0.8923417582999174
 50
289.2000649410991855
 51
313.2283582154749979
  0
ARC
  5
8F7F
  8
0
 10
4105.6684370558214141
 20
167.373200449593412
 30
0.0
 40
0.8717220857354085
 50
274.3364659431699124
 51
289.2000649410991855
  0
ARC
  5
8F80
  8
0
 10
4105.6573597471142421
 20
167.5192803900679905
 30
0.0
 40
1.0182214228577049
 50
270.2533740734584171
 51
274.3364659431699124
  0
ARC
  5
8F81
  8
0
 10
4105.6462849551826366
 20
167.1082277480340963
 30
0.0
 40
1.0547945618156389
 50
78.6885617424861152
 51
89.1538055040108759
  0
ARC
  5
8F82
  8
0
 10
4105.6650155178667774
 20
167.2695611007231946
 30
0.0
 40
0.8930198881368998
 50
57.2861509424717781
 51
77.8366515536202428
  0
ARC
  5
8F83
  8
0
 10
4105.6943449841810434
 20
167.3152221587560859
 30
0.0
 40
0.8387506536213866
 50
37.0829163984267822
 51
57.2861509424717781
  0
ARC
  5
8F84
  8
0
 10
4105.7084970005707873
 20
167.3259186129957925
 30
0.0
 40
0.8210110453620409
 50
13.4529845079803501
 51
37.0829163984267822
  0
ARC
  5
8F85
  8
0
 10
4105.7763388121429671
 20
167.3421471245549981
 30
0.0
 40
0.7512552141732157
 50
350.9539931714118097
 51
13.4529845079803501
  0
ARC
  5
8F86
  8
0
 10
4107.3027050857172071
 20
164.8229719040695045
 30
0.0
 40
1.1094342252164859
 50
174.1558641416816897
 51
180.7366533629347884
  0
CIRCLE
  5
8F87
  8
0
 10
4105.9624455307512108
 20
165.3186649053415067
 30
0.0
 40
0.0168133160489885
  0
CIRCLE
  5
8F88
  8
0
 10
4105.9624455307512108
 20
165.3211865616038097
 30
0.0
 40
0.0575752814997145
  0
CIRCLE
  5
8F89
  8
0
 10
4105.9615749549511747
 20
165.35334716519219
 30
0.0
 40
0.094950375129288
  0
CIRCLE
  5
8F8A
  8
0
 10
4106.539260098052182
 20
165.4797434819415116
 30
0.0
 40
0.0168133160489885
  0
CIRCLE
  5
8F8B
  8
0
 10
4106.539260098052182
 20
165.4822651382037861
 30
0.0
 40
0.0575752814997145
  0
CIRCLE
  5
8F8C
  8
0
 10
4106.5383895222512365
 20
165.5144257417921949
 30
0.0
 40
0.094950375129288
  0
CIRCLE
  5
8F8D
  8
0
 10
4106.1234437212833654
 20
165.8440232482375052
 30
0.0
 40
0.0168133160489885
  0
CIRCLE
  5
8F8E
  8
0
 10
4106.1234437212833654
 20
165.8465449044998081
 30
0.0
 40
0.0575752814997145
  0
CIRCLE
  5
8F8F
  8
0
 10
4106.1225731454842389
 20
165.8787055080881885
 30
0.0
 40
0.094950375129288
  0
CIRCLE
  5
8F90
  8
0
 10
4106.5485433260882928
 20
166.0290952464461043
 30
0.0
 40
0.0168133160489885
  0
CIRCLE
  5
8F91
  8
0
 10
4106.5485433260882928
 20
166.0316169027084925
 30
0.0
 40
0.0575752814997145
  0
CIRCLE
  5
8F92
  8
0
 10
4106.5476727502891663
 20
166.0637775062967876
 30
0.0
 40
0.094950375129288
  0
CIRCLE
  5
8F93
  8
0
 10
4107.0440769403558079
 20
165.7889216679261892
 30
0.0
 40
0.0168133160489885
  0
CIRCLE
  5
8F94
  8
0
 10
4107.0440769403558079
 20
165.7914433241884922
 30
0.0
 40
0.0575752814997145
  0
CIRCLE
  5
8F95
  8
0
 10
4107.0432063645557719
 20
165.8236039277769009
 30
0.0
 40
0.094950375129288
  0
CIRCLE
  5
8F96
  8
0
 10
4107.4386731497497749
 20
166.2209454269415119
 30
0.0
 40
0.0168133160489885
  0
CIRCLE
  5
8F97
  8
0
 10
4107.4386731497497749
 20
166.2234670832037864
 30
0.0
 40
0.0575752814997145
  0
CIRCLE
  5
8F98
  8
0
 10
4107.4378025739506484
 20
166.2556276867921952
 30
0.0
 40
0.094950375129288
  0
CIRCLE
  5
8F99
  8
0
 10
4106.9004111008161999
 20
166.320677011184614
 30
0.0
 40
0.0168133160489885
  0
CIRCLE
  5
8F9A
  8
0
 10
4106.9004111008161999
 20
166.3231986674470022
 30
0.0
 40
0.0575752814997145
  0
CIRCLE
  5
8F9B
  8
0
 10
4106.8995405250170734
 20
166.3553592710352973
 30
0.0
 40
0.094950375129288
  0
CIRCLE
  5
8F9C
  8
0
 10
4106.5560740516093574
 20
166.6590472138842074
 30
0.0
 40
0.0168133160489885
  0
CIRCLE
  5
8F9D
  8
0
 10
4106.5560740516093574
 20
166.6615688701465103
 30
0.0
 40
0.0575752814997145
  0
CIRCLE
  5
8F9E
  8
0
 10
4106.5552034758102309
 20
166.6937294737348907
 30
0.0
 40
0.094950375129288
  0
CIRCLE
  5
8F9F
  8
0
 10
4107.1547746996511705
 20
166.6938301009415113
 30
0.0
 40
0.0168133160489885
  0
CIRCLE
  5
8FA0
  8
0
 10
4107.1547746996511705
 20
166.6963517572037858
 30
0.0
 40
0.0575752814997145
  0
CIRCLE
  5
8FA1
  8
0
 10
4107.153904123850225
 20
166.7285123607921946
 30
0.0
 40
0.094950375129288
  0
CIRCLE
  5
8FA2
  8
0
 10
4107.6887622816557268
 20
166.740718666230606
 30
0.0
 40
0.0168133160489885
  0
CIRCLE
  5
8FA3
  8
0
 10
4107.6887622816557268
 20
166.7432403224929089
 30
0.0
 40
0.0575752814997145
  0
CIRCLE
  5
8FA4
  8
0
 10
4107.6878917058566003
 20
166.775400926081204
 30
0.0
 40
0.094950375129288
  0
CIRCLE
  5
8FA5
  8
0
 10
4106.7582782150811909
 20
166.99278132996659
 30
0.0
 40
0.0168133160489885
  0
CIRCLE
  5
8FA6
  8
0
 10
4106.7582782150811909
 20
166.9953029862288929
 30
0.0
 40
0.0575752814997145
  0
CIRCLE
  5
8FA7
  8
0
 10
4106.7574076392811548
 20
167.0274635898173017
 30
0.0
 40
0.094950375129288
  0
CIRCLE
  5
8FA8
  8
0
 10
4107.2850700528515517
 20
167.1188552032238874
 30
0.0
 40
0.0168133160489885
  0
CIRCLE
  5
8FA9
  8
0
 10
4107.2850700528515517
 20
167.1213768594861904
 30
0.0
 40
0.0575752814997145
  0
CIRCLE
  5
8FAA
  8
0
 10
4107.2841994770506062
 20
167.1535374630745991
 30
0.0
 40
0.094950375129288
  0
CIRCLE
  5
8FAB
  8
0
 10
4107.7739613819503575
 20
167.3069443598415091
 30
0.0
 40
0.0168133160489885
  0
CIRCLE
  5
8FAC
  8
0
 10
4107.7739613819503575
 20
167.3094660161038121
 30
0.0
 40
0.0575752814997145
  0
CIRCLE
  5
8FAD
  8
0
 10
4107.7730908061503214
 20
167.3416266196921924
 30
0.0
 40
0.094950375129288
  0
CIRCLE
  5
8FAE
  8
0
 10
4107.2844466156529961
 20
167.5631004425947026
 30
0.0
 40
0.0168133160489885
  0
CIRCLE
  5
8FAF
  8
0
 10
4107.2844466156529961
 20
167.5656220988570055
 30
0.0
 40
0.0575752814997145
  0
CIRCLE
  5
8FB0
  8
0
 10
4107.2835760398529601
 20
167.5977827024453859
 30
0.0
 40
0.094950375129288
  0
CIRCLE
  5
8FB1
  8
0
 10
4107.68840653774987
 20
167.8728676979415013
 30
0.0
 40
0.0168133160489885
  0
CIRCLE
  5
8FB2
  8
0
 10
4107.68840653774987
 20
167.8753893542038043
 30
0.0
 40
0.0575752814997145
  0
CIRCLE
  5
8FB3
  8
0
 10
4107.6875359619507435
 20
167.907549957792213
 30
0.0
 40
0.094950375129288
  0
CIRCLE
  5
8FB4
  8
0
 10
4106.7586902413968346
 20
167.7528482943712902
 30
0.0
 40
0.0168133160489885
  0
CIRCLE
  5
8FB5
  8
0
 10
4106.7586902413968346
 20
167.7553699506337068
 30
0.0
 40
0.0575752814997145
  0
CIRCLE
  5
8FB6
  8
0
 10
4106.7578196655958891
 20
167.7875305542220019
 30
0.0
 40
0.094950375129288
  0
CIRCLE
  5
8FB7
  8
0
 10
4107.1540034022891632
 20
167.9886151398509924
 30
0.0
 40
0.0168133160489885
  0
CIRCLE
  5
8FB8
  8
0
 10
4107.1540034022891632
 20
167.9911367961132953
 30
0.0
 40
0.0575752814997145
  0
CIRCLE
  5
8FB9
  8
0
 10
4107.1531328264882177
 20
168.0232973997015904
 30
0.0
 40
0.094950375129288
  0
CIRCLE
  5
8FBA
  8
0
 10
4106.5564267029540133
 20
168.0864393727391075
 30
0.0
 40
0.0168133160489885
  0
CIRCLE
  5
8FBB
  8
0
 10
4106.5564267029540133
 20
168.0889610290014105
 30
0.0
 40
0.0575752814997145
  0
CIRCLE
  5
8FBC
  8
0
 10
4106.5555561271539773
 20
168.1211216325897908
 30
0.0
 40
0.094950375129288
  0
CIRCLE
  5
8FBD
  8
0
 10
4106.9000584494724535
 20
168.3625770718194019
 30
0.0
 40
0.0168133160489885
  0
CIRCLE
  5
8FBE
  8
0
 10
4106.9000584494724535
 20
168.3650987280817048
 30
0.0
 40
0.0575752814997145
  0
CIRCLE
  5
8FBF
  8
0
 10
4106.8991878736724175
 20
168.3972593316699999
 30
0.0
 40
0.094950375129288
  0
CIRCLE
  5
8FC0
  8
0
 10
4107.4386731497497749
 20
168.3929432927415064
 30
0.0
 40
0.0168133160489885
  0
CIRCLE
  5
8FC1
  8
0
 10
4107.4386731497497749
 20
168.3954649490038094
 30
0.0
 40
0.0575752814997145
  0
CIRCLE
  5
8FC2
  8
0
 10
4107.4378025739506484
 20
168.4276255525921897
 30
0.0
 40
0.094950375129288
  0
CIRCLE
  5
8FC3
  8
0
 10
4107.0445654344366631
 20
168.8251188078257883
 30
0.0
 40
0.0168133160489885
  0
CIRCLE
  5
8FC4
  8
0
 10
4107.0445654344366631
 20
168.8276404640880912
 30
0.0
 40
0.0575752814997145
  0
CIRCLE
  5
8FC5
  8
0
 10
4107.043694858638446
 20
168.8598010676765
 30
0.0
 40
0.094950375129288
  0
CIRCLE
  5
8FC6
  8
0
 10
4106.5474592830532856
 20
168.6539109867246964
 30
0.0
 40
0.0168133160489885
  0
CIRCLE
  5
8FC7
  8
0
 10
4106.5474592830532856
 20
168.656432642987113
 30
0.0
 40
0.0575752814997145
  0
CIRCLE
  5
8FC8
  8
0
 10
4106.5465887072532496
 20
168.6885932465754081
 30
0.0
 40
0.094950375129288
  0
CIRCLE
  5
8FC9
  8
0
 10
4106.1238296585970602
 20
168.8379129765120013
 30
0.0
 40
0.0168133160489885
  0
CIRCLE
  5
8FCA
  8
0
 10
4106.1238296585970602
 20
168.8404346327743042
 30
0.0
 40
0.0575752814997145
  0
CIRCLE
  5
8FCB
  8
0
 10
4106.1229590827970242
 20
168.872595236362713
 30
0.0
 40
0.094950375129288
  0
CIRCLE
  5
8FCC
  8
0
 10
4106.539260098052182
 20
169.1341452377415067
 30
0.0
 40
0.0168133160489885
  0
CIRCLE
  5
8FCD
  8
0
 10
4106.539260098052182
 20
169.1366668940038096
 30
0.0
 40
0.0575752814997145
  0
CIRCLE
  5
8FCE
  8
0
 10
4106.5383895222512365
 20
169.16882749759219
 30
0.0
 40
0.094950375129288
  0
CIRCLE
  5
8FCF
  8
0
 10
4105.9624455307512108
 20
169.2952238144414991
 30
0.0
 40
0.0168133160489885
  0
CIRCLE
  5
8FD0
  8
0
 10
4105.9624455307512108
 20
169.2977454707038021
 30
0.0
 40
0.0575752814997145
  0
CIRCLE
  5
8FD1
  8
0
 10
4105.9615749549511747
 20
169.3299060742922109
 30
0.0
 40
0.094950375129288
  0
CIRCLE
  5
8FD2
  8
0
 10
4105.6618625232513295
 20
168.9002499839789095
 30
0.0
 40
0.0168133160489885
  0
CIRCLE
  5
8FD3
  8
0
 10
4105.6618625232513295
 20
168.9027716402412125
 30
0.0
 40
0.0575752814997145
  0
CIRCLE
  5
8FD4
  8
0
 10
4105.8637160061152827
 20
168.4665312722839019
 30
0.0
 40
0.0168133160489885
  0
CIRCLE
  5
8FD5
  8
0
 10
4105.8637160061152827
 20
168.4690529285462048
 30
0.0
 40
0.0575752814997145
  0
CIRCLE
  5
8FD6
  8
0
 10
4105.8628454303152466
 20
168.5012135321346136
 30
0.0
 40
0.094950375129288
  0
CIRCLE
  5
8FD7
  8
0
 10
4105.8644051156297792
 20
166.2810321356400038
 30
0.0
 40
0.0168133160489885
  0
CIRCLE
  5
8FD8
  8
0
 10
4105.8644051156297792
 20
166.2835537919023068
 30
0.0
 40
0.0575752814997145
  0
CIRCLE
  5
8FD9
  8
0
 10
4105.8635345398306526
 20
166.3157143954906019
 30
0.0
 40
0.094950375129288
  0
CIRCLE
  5
8FDA
  8
0
 10
4106.2460099347608775
 20
166.4373788479925054
 30
0.0
 40
0.0281701395609016
  0
CIRCLE
  5
8FDB
  8
0
 10
4106.2445358377835873
 20
166.4339510405791884
 30
0.0
 40
0.0577859650669254
  0
ARC
  5
8FDC
  8
0
 10
4106.2460099347608775
 20
166.4655489875534045
 30
0.0
 40
0.0282915266551924
 50
210.1426455436715059
 51
329.8573544563283804
  0
CIRCLE
  5
8FDD
  8
0
 10
4106.8290928437636467
 20
167.3974011314302004
 30
0.0
 40
0.0281701395609016
  0
CIRCLE
  5
8FDE
  8
0
 10
4106.827618746787266
 20
167.3939733240169119
 30
0.0
 40
0.0577859650669254
  0
ARC
  5
8FDF
  8
0
 10
4106.8290928437636467
 20
167.4255712709910995
 30
0.0
 40
0.0282915266551924
 50
210.1426455436715059
 51
329.8573544563283804
  0
CIRCLE
  5
8FE0
  8
0
 10
4106.2447540641578598
 20
168.3573648433898882
 30
0.0
 40
0.0281701395609016
  0
CIRCLE
  5
8FE1
  8
0
 10
4106.2432799671787507
 20
168.3539370359765996
 30
0.0
 40
0.0577859650669254
  0
ARC
  5
8FE2
  8
0
 10
4106.2447540641578598
 20
168.3855349829507873
 30
0.0
 40
0.0282915266551924
 50
210.1426455436715059
 51
329.8573544563283804
  0
ARC
  5
8FE3
  8
0
 10
4105.6618625232513295
 20
166.937777610796303
 30
0.0
 40
0.0960360119974085
 50
145.544380275017204
 51
34.4556197249826965
  0
ARC
  5
8FE4
  8
0
 10
4105.6639547500017215
 20
166.8924754832736994
 30
0.0
 40
0.1284988967187075
 50
90.932934546170614
 51
138.575360369047587
  0
ARC
  5
8FE5
  8
0
 10
4105.6463577877675561
 20
166.908929232862107
 30
0.0
 40
0.1044201706904648
 50
138.9565501250098976
 51
206.3479200813555963
  0
ARC
  5
8FE6
  8
0
 10
4105.6588849881127317
 20
166.915133602811693
 30
0.0
 40
0.1183996182819889
 50
206.3479200813555963
 51
250.8040200386062963
  0
ARC
  5
8FE7
  8
0
 10
4105.6637536720290882
 20
166.9304579369259045
 30
0.0
 40
0.1344734580433722
 50
250.9917765440631001
 51
269.1942022088637145
  0
ARC
  5
8FE8
  8
0
 10
4105.6659417731643771
 20
166.9346684738783892
 30
0.0
 40
0.1307332657504664
 50
237.8410186044845034
 51
268.211918403830623
  0
ARC
  5
8FE9
  8
0
 10
4105.6558311511344073
 20
166.9163340560589006
 30
0.0
 40
0.1098367816158696
 50
157.6240536146461864
 51
237.2153075682765859
  0
ARC
  5
8FEA
  8
0
 10
4105.6640865950494117
 20
166.9360326954719085
 30
0.0
 40
0.1241294577416432
 50
225.5980093897449876
 51
268.9733561328532119
  0
ARC
  5
8FEB
  8
0
 10
4105.6522052069785786
 20
166.9228774871706946
 30
0.0
 40
0.1064198820477251
 50
183.5924472394962095
 51
225.2125677436841897
  0
ARC
  5
8FEC
  8
0
 10
4105.6633713556848306
 20
166.9414913873891919
 30
0.0
 40
0.1119212013991895
 50
230.5338264005443136
 51
269.2275605670449181
  0
ARC
  5
8FED
  8
0
 10
4105.6590621497871325
 20
166.9354297720360023
 30
0.0
 40
0.1045039307476148
 50
162.6349379822991921
 51
230.2453325464963996
  0
CIRCLE
  5
8FEE
  8
0
 10
4105.6305222562932613
 20
166.8803324983614971
 30
0.0
 40
0.0274074667539621
  0
ARC
  5
8FEF
  8
0
 10
4105.6597702965000281
 20
166.8924754832736994
 30
0.0
 40
0.1284988967186999
 50
41.4246396309517522
 51
89.0670654538293576
  0
ARC
  5
8FF0
  8
0
 10
4105.6773672587341935
 20
166.908929232862107
 30
0.0
 40
0.1044201706904648
 50
333.65207991864429
 51
41.0434498749900811
  0
ARC
  5
8FF1
  8
0
 10
4105.6648400583890179
 20
166.915133602811693
 30
0.0
 40
0.1183996182819889
 50
289.195979961393391
 51
333.6520799186450859
  0
ARC
  5
8FF2
  8
0
 10
4105.6599713744717519
 20
166.9304579369259045
 30
0.0
 40
0.134473458043358
 50
270.8057977911362855
 51
289.0082234559370136
  0
ARC
  5
8FF3
  8
0
 10
4105.657783273338282
 20
166.9346684738783892
 30
0.0
 40
0.1307332657504985
 50
271.788081596169377
 51
302.1589813955138197
  0
ARC
  5
8FF4
  8
0
 10
4105.6678938953673423
 20
166.9163340560589006
 30
0.0
 40
0.1098367816158696
 50
302.7846924317234993
 51
22.3759463853538101
  0
ARC
  5
8FF5
  8
0
 10
4105.6596384514532474
 20
166.9360326954719085
 30
0.0
 40
0.1241294577416431
 50
271.0266438671467881
 51
314.4019906102549271
  0
ARC
  5
8FF6
  8
0
 10
4105.6715198395222615
 20
166.9228774871706946
 30
0.0
 40
0.1064198820477251
 50
314.787432256315924
 51
356.4075527605036768
  0
ARC
  5
8FF7
  8
0
 10
4105.6603536908160095
 20
166.9414913873891919
 30
0.0
 40
0.1119212013991934
 50
270.7724394329550819
 51
309.4661735994557148
  0
ARC
  5
8FF8
  8
0
 10
4105.6646628967164361
 20
166.9354297720360023
 30
0.0
 40
0.1045039307476148
 50
309.7546674535036004
 51
17.3650620177007511
  0
CIRCLE
  5
8FF9
  8
0
 10
4105.7245734415328116
 20
166.9336907154016956
 30
0.0
 40
0.0274074667539621
  0
CIRCLE
  5
8FFA
  8
0
 10
4105.6309019959699071
 20
166.9863805317255014
 30
0.0
 40
0.0274074667539621
  0
ARC
  5
8FFB
  8
0
 10
4105.2279430191438223
 20
167.348000109522502
 30
0.0
 40
0.0960360119974085
 50
145.544380275017204
 51
34.4556197249826965
  0
ARC
  5
8FFC
  8
0
 10
4105.2300352458960333
 20
167.3026979819998985
 30
0.0
 40
0.1284988967187075
 50
90.932934546170614
 51
138.575360369047587
  0
ARC
  5
8FFD
  8
0
 10
4105.2124382836609584
 20
167.3191517315883914
 30
0.0
 40
0.1044201706904648
 50
138.9565501250098976
 51
206.3479200813555963
  0
ARC
  5
8FFE
  8
0
 10
4105.2249654840070434
 20
167.3253561015378921
 30
0.0
 40
0.1183996182819889
 50
206.3479200813555963
 51
250.8040200386062963
  0
ARC
  5
8FFF
  8
0
 10
4105.2298341679233999
 20
167.3406804356521889
 30
0.0
 40
0.1344734580433722
 50
250.9917765440631001
 51
269.1942022088637145
  0
ARC
  5
9000
  8
0
 10
4105.2320222690568698
 20
167.3448909726045883
 30
0.0
 40
0.1307332657504664
 50
237.8410186044845034
 51
268.211918403830623
  0
ARC
  5
9001
  8
0
 10
4105.2219116470269
 20
167.3265565547850997
 30
0.0
 40
0.1098367816158696
 50
157.6240536146461864
 51
237.2153075682765859
  0
ARC
  5
9002
  8
0
 10
4105.230167090942814
 20
167.3462551941981928
 30
0.0
 40
0.1241294577416432
 50
225.5980093897449876
 51
268.9733561328532119
  0
ARC
  5
9003
  8
0
 10
4105.2182857028737999
 20
167.3330999858970074
 30
0.0
 40
0.1064198820477251
 50
183.5924472394962095
 51
225.2125677436841897
  0
ARC
  5
9004
  8
0
 10
4105.2294518515800519
 20
167.351713886115391
 30
0.0
 40
0.1119212013991895
 50
230.5338264005443136
 51
269.2275605670449181
  0
ARC
  5
9005
  8
0
 10
4105.2251426456796253
 20
167.3456522707622014
 30
0.0
 40
0.1045039307476148
 50
162.6349379822991921
 51
230.2453325464963996
  0
CIRCLE
  5
9006
  8
0
 10
4105.1966027521875731
 20
167.2905549970876962
 30
0.0
 40
0.0274074667539621
  0
ARC
  5
9007
  8
0
 10
4105.2258507923934303
 20
167.3026979819998985
 30
0.0
 40
0.1284988967186999
 50
41.4246396309517522
 51
89.0670654538293576
  0
ARC
  5
9008
  8
0
 10
4105.2434477546275957
 20
167.3191517315883914
 30
0.0
 40
0.1044201706904648
 50
333.65207991864429
 51
41.0434498749900811
  0
ARC
  5
9009
  8
0
 10
4105.2309205542833297
 20
167.3253561015378921
 30
0.0
 40
0.1183996182819889
 50
289.195979961393391
 51
333.6520799186450859
  0
ARC
  5
900A
  8
0
 10
4105.2260518703660637
 20
167.3406804356521036
 30
0.0
 40
0.134473458043358
 50
270.8057977911362855
 51
289.0082234559370136
  0
ARC
  5
900B
  8
0
 10
4105.2238637692307748
 20
167.3448909726045883
 30
0.0
 40
0.1307332657504985
 50
271.788081596169377
 51
302.1589813955138197
  0
ARC
  5
900C
  8
0
 10
4105.2339743912616541
 20
167.3265565547850997
 30
0.0
 40
0.1098367816158696
 50
302.7846924317234993
 51
22.3759463853538101
  0
ARC
  5
900D
  8
0
 10
4105.2257189473457402
 20
167.3462551941981928
 30
0.0
 40
0.1241294577416431
 50
271.0266438671467881
 51
314.4019906102549271
  0
ARC
  5
900E
  8
0
 10
4105.2376003354156637
 20
167.3330999858970074
 30
0.0
 40
0.1064198820477251
 50
314.787432256315924
 51
356.4075527605036768
  0
ARC
  5
900F
  8
0
 10
4105.2264341867094117
 20
167.351713886115391
 30
0.0
 40
0.1119212013991934
 50
270.7724394329550819
 51
309.4661735994557148
  0
ARC
  5
9010
  8
0
 10
4105.2307433926089288
 20
167.3456522707622014
 30
0.0
 40
0.1045039307476148
 50
309.7546674535036004
 51
17.3650620177007511
  0
CIRCLE
  5
9011
  8
0
 10
4105.2906539374262138
 20
167.3439132141278947
 30
0.0
 40
0.0274074667539621
  0
CIRCLE
  5
9012
  8
0
 10
4105.1969824918651284
 20
167.3966030304517858
 30
0.0
 40
0.0274074667539621
  0
ARC
  5
9013
  8
0
 10
4106.0942377817364104
 20
167.3500132296952074
 30
0.0
 40
0.0960360119974085
 50
145.544380275017204
 51
34.4556197249826965
  0
ARC
  5
9014
  8
0
 10
4106.0963300084877119
 20
167.3047111021724902
 30
0.0
 40
0.1284988967187075
 50
90.932934546170614
 51
138.575360369047587
  0
ARC
  5
9015
  8
0
 10
4106.0787330462517275
 20
167.3211648517610115
 30
0.0
 40
0.1044201706904648
 50
138.9565501250098976
 51
206.3479200813555963
  0
ARC
  5
9016
  8
0
 10
4106.091260246596903
 20
167.3273692217105122
 30
0.0
 40
0.1183996182819889
 50
206.3479200813549141
 51
250.8040200386062963
  0
ARC
  5
9017
  8
0
 10
4106.096128930514169
 20
167.342693555824809
 30
0.0
 40
0.1344734580433722
 50
250.9917765440631001
 51
269.1942022088637145
  0
ARC
  5
9018
  8
0
 10
4106.0983170316503674
 20
167.3469040927772085
 30
0.0
 40
0.1307332657504664
 50
237.8410186044845034
 51
268.211918403830623
  0
ARC
  5
9019
  8
0
 10
4106.0882064096176691
 20
167.3285696749578051
 30
0.0
 40
0.1098367816158696
 50
157.6240536146461864
 51
237.2153075682765859
  0
ARC
  5
901A
  8
0
 10
4106.0964618535335831
 20
167.348268314370813
 30
0.0
 40
0.1241294577416432
 50
225.5980093897449876
 51
268.9733561328532119
  0
ARC
  5
901B
  8
0
 10
4106.084580465464569
 20
167.3351131060695138
 30
0.0
 40
0.1064198820477251
 50
183.5924472394962095
 51
225.2125677436841897
  0
ARC
  5
901C
  8
0
 10
4106.095746614170821
 20
167.3537270062880111
 30
0.0
 40
0.1119212013991895
 50
230.5338264005443136
 51
269.2275605670449181
  0
ARC
  5
901D
  8
0
 10
4106.0914374082722134
 20
167.3476653909349068
 30
0.0
 40
0.1045039307476148
 50
162.6349379822991921
 51
230.2453325464963996
  0
CIRCLE
  5
901E
  8
0
 10
4106.0628975147792517
 20
167.2925681172604016
 30
0.0
 40
0.0274074667539621
  0
ARC
  5
901F
  8
0
 10
4106.0921455549851089
 20
167.3047111021724902
 30
0.0
 40
0.1284988967186999
 50
41.4246396309517522
 51
89.0670654538293576
  0
ARC
  5
9020
  8
0
 10
4106.1097425172192743
 20
167.3211648517610115
 30
0.0
 40
0.1044201706904648
 50
333.65207991864429
 51
41.0434498749900811
  0
ARC
  5
9021
  8
0
 10
4106.0972153168740988
 20
167.3273692217105122
 30
0.0
 40
0.1183996182819889
 50
289.195979961393391
 51
333.6520799186450859
  0
ARC
  5
9022
  8
0
 10
4106.0923466329577423
 20
167.342693555824809
 30
0.0
 40
0.134473458043358
 50
270.8057977911362855
 51
289.0082234559370136
  0
ARC
  5
9023
  8
0
 10
4106.0901585318233629
 20
167.3469040927772937
 30
0.0
 40
0.1307332657504985
 50
271.788081596169377
 51
302.1589813955138197
  0
ARC
  5
9024
  8
0
 10
4106.1002691538533327
 20
167.3285696749578051
 30
0.0
 40
0.1098367816158696
 50
302.7846924317234993
 51
22.3759463853538101
  0
ARC
  5
9025
  8
0
 10
4106.0920137099392377
 20
167.348268314370813
 30
0.0
 40
0.1241294577416431
 50
271.0266438671467881
 51
314.4019906102549271
  0
ARC
  5
9026
  8
0
 10
4106.1038950980082518
 20
167.3351131060695138
 30
0.0
 40
0.1064198820477251
 50
314.787432256315924
 51
356.4075527605036768
  0
ARC
  5
9027
  8
0
 10
4106.0927289493010903
 20
167.3537270062880964
 30
0.0
 40
0.1119212013991934
 50
270.7724394329550819
 51
309.4661735994557148
  0
ARC
  5
9028
  8
0
 10
4106.0970381551996979
 20
167.3476653909349068
 30
0.0
 40
0.1045039307476148
 50
309.7546674535036004
 51
17.3650620177007511
  0
CIRCLE
  5
9029
  8
0
 10
4106.1569487000188019
 20
167.3459263343006
 30
0.0
 40
0.0274074667539621
  0
CIRCLE
  5
902A
  8
0
 10
4106.063277254454988
 20
167.3986161506244059
 30
0.0
 40
0.0274074667539621
  0
ARC
  5
902B
  8
0
 10
4105.6618625232513295
 20
167.7644191382372014
 30
0.0
 40
0.0960360119974085
 50
145.544380275017204
 51
34.4556197249826965
  0
ARC
  5
902C
  8
0
 10
4105.6639547500017215
 20
167.7191170107145979
 30
0.0
 40
0.1284988967187075
 50
90.932934546170614
 51
138.575360369047587
  0
ARC
  5
902D
  8
0
 10
4105.6463577877675561
 20
167.7355707603030908
 30
0.0
 40
0.1044201706904648
 50
138.9565501250098976
 51
206.3479200813555963
  0
ARC
  5
902E
  8
0
 10
4105.6588849881127317
 20
167.7417751302525915
 30
0.0
 40
0.1183996182819889
 50
206.3479200813549141
 51
250.8040200386062963
  0
ARC
  5
902F
  8
0
 10
4105.6637536720290882
 20
167.757099464366803
 30
0.0
 40
0.1344734580433722
 50
250.9917765440631001
 51
269.1942022088637145
  0
ARC
  5
9030
  8
0
 10
4105.6659417731643771
 20
167.7613100013192877
 30
0.0
 40
0.1307332657504664
 50
237.8410186044845034
 51
268.211918403830623
  0
ARC
  5
9031
  8
0
 10
4105.6558311511344073
 20
167.7429755834997991
 30
0.0
 40
0.1098367816158696
 50
157.6240536146461864
 51
237.2153075682765859
  0
ARC
  5
9032
  8
0
 10
4105.6640865950494117
 20
167.7626742229128922
 30
0.0
 40
0.1241294577416432
 50
225.5980093897449876
 51
268.9733561328532119
  0
ARC
  5
9033
  8
0
 10
4105.6522052069785786
 20
167.7495190146115931
 30
0.0
 40
0.1064198820477251
 50
183.5924472394962095
 51
225.2125677436841897
  0
ARC
  5
9034
  8
0
 10
4105.6633713556848306
 20
167.7681329148300904
 30
0.0
 40
0.1119212013991895
 50
230.5338264005443136
 51
269.2275605670449181
  0
ARC
  5
9035
  8
0
 10
4105.6590621497871325
 20
167.762071299476986
 30
0.0
 40
0.1045039307476148
 50
162.6349379822991921
 51
230.2453325464963996
  0
CIRCLE
  5
9036
  8
0
 10
4105.6304642707864332
 20
167.7071822847649969
 30
0.0
 40
0.0274074667539621
  0
ARC
  5
9037
  8
0
 10
4105.6597702965000281
 20
167.7191170107145979
 30
0.0
 40
0.1284988967186999
 50
41.4246396309517522
 51
89.0670654538293576
  0
ARC
  5
9038
  8
0
 10
4105.6773672587341935
 20
167.7355707603030908
 30
0.0
 40
0.1044201706904648
 50
333.65207991864429
 51
41.0434498749900811
  0
ARC
  5
9039
  8
0
 10
4105.6648400583890179
 20
167.7417751302525915
 30
0.0
 40
0.1183996182819889
 50
289.195979961393391
 51
333.6520799186450859
  0
ARC
  5
903A
  8
0
 10
4105.6599713744717519
 20
167.757099464366803
 30
0.0
 40
0.134473458043358
 50
270.8057977911362855
 51
289.0082234559370136
  0
ARC
  5
903B
  8
0
 10
4105.657783273338282
 20
167.7613100013194014
 30
0.0
 40
0.1307332657504985
 50
271.788081596169377
 51
302.1589813955138197
  0
ARC
  5
903C
  8
0
 10
4105.6678938953673423
 20
167.7429755834997991
 30
0.0
 40
0.1098367816158696
 50
302.7846924317234993
 51
22.3759463853538101
  0
ARC
  5
903D
  8
0
 10
4105.6596384514532474
 20
167.7626742229128922
 30
0.0
 40
0.1241294577416431
 50
271.0266438671467881
 51
314.4019906102549271
  0
ARC
  5
903E
  8
0
 10
4105.6715198395222615
 20
167.7495190146115931
 30
0.0
 40
0.1064198820477251
 50
314.787432256315924
 51
356.4075527605036768
  0
ARC
  5
903F
  8
0
 10
4105.6603536908160095
 20
167.7681329148300904
 30
0.0
 40
0.1119212013991934
 50
270.7724394329550819
 51
309.4661735994557148
  0
ARC
  5
9040
  8
0
 10
4105.6646628967164361
 20
167.762071299476986
 30
0.0
 40
0.1045039307476148
 50
309.7546674535036004
 51
17.3650620177007511
  0
CIRCLE
  5
9041
  8
0
 10
4105.7252906307039666
 20
167.7598021834457995
 30
0.0
 40
0.0274074667539621
  0
CIRCLE
  5
9042
  8
0
 10
4105.6300727596153592
 20
167.8126349723860073
 30
0.0
 40
0.0274074667539621
  0
CIRCLE
  5
9043
  8
0
 10
4105.6618625232513295
 20
165.7816654786479944
 30
0.0
 40
0.0168133160489885
  0
CIRCLE
  5
9044
  8
0
 10
4105.6618625232513295
 20
165.7841871349102973
 30
0.0
 40
0.0575752814997145
  0
CIRCLE
  5
9045
  8
0
 10
4105.6609919474512935
 20
165.8163477384985924
 30
0.0
 40
0.094950375129288
  0
LINE
  5
9046
  8
0
 10
4095.890485948323203
 20
148.184079650741495
 30
0.0
 11
4095.140876893479799
 21
148.184079650741495
 31
0.0
  0
LINE
  5
9047
  8
0
 10
4095.1211939719401016
 20
148.2029595290105135
 30
0.0
 11
4095.0652284230832265
 21
149.5461327012448862
 31
0.0
  0
LINE
  5
9048
  8
0
 10
4095.910168869861991
 20
148.2029595290103998
 30
0.0
 11
4095.9661344187188661
 21
149.5461327011821027
 31
0.0
  0
ARC
  5
9049
  8
0
 10
4095.890485948323203
 20
148.2037796507414953
 30
0.0
 40
0.0197
 50
270.0
 51
357.6140559689055749
  0
ARC
  5
904A
  8
0
 10
4095.140876893479799
 20
148.2037796507414953
 30
0.0
 40
0.0197
 50
182.3859440309244064
 51
270.0
  0
LINE
  5
904B
  8
0
 10
4095.8011055202509851
 20
148.184079650741495
 30
0.0
 11
4095.8011055202509851
 21
131.0693370689415076
 31
0.0
  0
LINE
  5
904C
  8
0
 10
4095.2302573215511075
 20
148.184079650741495
 30
0.0
 11
4095.2302573215511075
 21
131.0693370689415076
 31
0.0
  0
ARC
  5
904D
  8
0
 10
4100.5884940456508048
 20
131.0693370689415076
 30
0.0
 40
5.3582367241000011
 50
180.0
 51
0.0
  0
ARC
  5
904E
  8
0
 10
4100.589049898500889
 20
131.0693370689415076
 30
0.0
 40
4.7879443782499971
 50
180.0
 51
0.0
  0
LINE
  5
904F
  8
0
 10
4089.2479673264510893
 20
150.8834043952415129
 30
0.0
 11
4090.8039644264508752
 21
150.8834043952415129
 31
0.0
  0
LINE
  5
9050
  8
0
 10
4091.2637114209510401
 20
150.8834043952415129
 30
0.0
 11
4094.9102221658649796
 21
150.8834043952415129
 31
0.0
  0
LINE
  5
9051
  8
0
 10
4096.1211406760367026
 20
150.8834043952415129
 30
0.0
 11
4099.7676514209497327
 21
150.8834043952415129
 31
0.0
  0
LINE
  5
9052
  8
0
 10
4099.8148955153510542
 20
150.8834043952415129
 30
0.0
 11
4101.7833955154501382
 21
150.8834043952415129
 31
0.0
  0
LINE
  5
9054
  8
0
 10
4095.5156814209508411
 20
151.3311074880544993
 30
0.0
 11
4095.5156814209508411
 21
149.8970894387591102
 31
0.0
  0
ENDSEC
  0
EOF
