  0
SECTION
  2
HEADER
  9
$ACADVER
  1
AC1009
  9
$INSBASE
 10
4350.1393054944855976
 20
186.8643071441669861
 30
0.0
  9
$EXTMIN
 10
4344.9359594526031287
 20
160.2554491938176966
 30
-0.0000000000000058
  9
$EXTMAX
 10
4358.2358287226870743
 20
221.611242328524412
 30
0.0000000000000104
  9
$LIMMIN
 10
0.0
 20
0.0
  9
$LIMMAX
 10
11.6929133858000007
 20
8.2677165353999982
  9
$ORTHOMODE
 70
     0
  9
$REGENMODE
 70
     1
  9
$FILLMODE
 70
     1
  9
$QTEXTMODE
 70
     0
  9
$MIRRTEXT
 70
     0
  9
$DRAGMODE
 70
     2
  9
$LTSCALE
 40
0.6431102362
  9
$OSMODE
 70
     7
  9
$ATTMODE
 70
     1
  9
$TEXTSIZE
 40
0.2
  9
$TRACEWID
 40
0.05
  9
$TEXTSTYLE
  7
STANDARD
  9
$CLAYER
  8
0
  9
$CELTYPE
  6
BYLAYER
  9
$CECOLOR
 62
   256
  9
$DIMSCALE
 40
1.0
  9
$DIMASZ
 40
0.1875
  9
$DIMEXO
 40
0.0625
  9
$DIMDLI
 40
0.4443307087
  9
$DIMRND
 40
0.0
  9
$DIMDLE
 40
0.0
  9
$DIMEXE
 40
0.125
  9
$DIMTP
 40
0.01
  9
$DIMTM
 40
0.01
  9
$DIMTXT
 40
2.0
  9
$DIMCEN
 40
0.1052362205
  9
$DIMTSZ
 40
0.0
  9
$DIMTOL
 70
     1
  9
$DIMLIM
 70
     0
  9
$DIMTIH
 70
     1
  9
$DIMTOH
 70
     1
  9
$DIMSE1
 70
     0
  9
$DIMSE2
 70
     0
  9
$DIMTAD
 70
     0
  9
$DIMZIN
 70
     0
  9
$DIMBLK
  1

  9
$DIMASO
 70
     1
  9
$DIMSHO
 70
     1
  9
$DIMPOST
  1
\X
  9
$DIMAPOST
  1

  9
$DIMALT
 70
     1
  9
$DIMALTD
 70
     2
  9
$DIMALTF
 40
25.3999999999999986
  9
$DIMLFAC
 40
1.0
  9
$DIMTOFL
 70
     0
  9
$DIMTVP
 40
0.0
  9
$DIMTIX
 70
     0
  9
$DIMSOXD
 70
     0
  9
$DIMSAH
 70
     0
  9
$DIMBLK1
  1

  9
$DIMBLK2
  1

  9
$DIMSTYLE
  2
STANDARD
  9
$DIMCLRD
 70
     0
  9
$DIMCLRE
 70
     0
  9
$DIMCLRT
 70
     0
  9
$DIMTFAC
 40
1.0
  9
$DIMGAP
 40
0.09
  9
$LUNITS
 70
     2
  9
$LUPREC
 70
     4
  9
$SKETCHINC
 40
0.1
  9
$FILLETRAD
 40
0.0
  9
$AUNITS
 70
     0
  9
$AUPREC
 70
     0
  9
$MENU
  1
.
  9
$ELEVATION
 40
0.0
  9
$PELEVATION
 40
0.0
  9
$THICKNESS
 40
0.0
  9
$LIMCHECK
 70
     0
  9
$BLIPMODE
 70
     0
  9
$CHAMFERA
 40
0.0
  9
$CHAMFERB
 40
0.0
  9
$SKPOLY
 70
     0
  9
$TDCREATE
 40
2458060.468368056230247
  9
$TDUPDATE
 40
2459571.4426504629664123
  9
$TDINDWG
 40
0.4233519676
  9
$TDUSRTIMER
 40
0.4233519676
  9
$USRTIMER
 70
     1
  9
$ANGBASE
 50
0.0
  9
$ANGDIR
 70
     0
  9
$PDMODE
 70
     0
  9
$PDSIZE
 40
0.3125
  9
$PLINEWID
 40
0.0
  9
$COORDS
 70
     1
  9
$SPLFRAME
 70
     0
  9
$SPLINETYPE
 70
     6
  9
$SPLINESEGS
 70
     8
  9
$ATTDIA
 70
     1
  9
$ATTREQ
 70
     1
  9
$HANDLING
 70
     1
  9
$HANDSEED
  5
BE08
  9
$SURFTAB1
 70
     6
  9
$SURFTAB2
 70
     6
  9
$SURFTYPE
 70
     6
  9
$SURFU
 70
     6
  9
$SURFV
 70
     6
  9
$UCSNAME
  2

  9
$UCSORG
 10
0.0
 20
0.0
 30
0.0
  9
$UCSXDIR
 10
1.0
 20
0.0
 30
0.0
  9
$UCSYDIR
 10
0.0
 20
1.0
 30
0.0
  9
$PUCSNAME
  2

  9
$PUCSORG
 10
0.0
 20
0.0
 30
0.0
  9
$PUCSXDIR
 10
1.0
 20
0.0
 30
0.0
  9
$PUCSYDIR
 10
0.0
 20
1.0
 30
0.0
  9
$USERI1
 70
     0
  9
$USERI2
 70
     0
  9
$USERI3
 70
     0
  9
$USERI4
 70
     0
  9
$USERI5
 70
     0
  9
$USERR1
 40
0.0
  9
$USERR2
 40
0.0
  9
$USERR3
 40
0.0
  9
$USERR4
 40
0.0
  9
$USERR5
 40
0.0
  9
$WORLDVIEW
 70
     1
  9
$SHADEDGE
 70
     3
  9
$SHADEDIF
 70
    70
  9
$TILEMODE
 70
     1
  9
$MAXACTVP
 70
    64
  9
$PLIMCHECK
 70
     0
  9
$PEXTMIN
 10
1.0000000000000000E+20
 20
1.0000000000000000E+20
 30
1.0000000000000000E+20
  9
$PEXTMAX
 10
-1.0000000000000000E+20
 20
-1.0000000000000000E+20
 30
-1.0000000000000000E+20
  9
$PLIMMIN
 10
0.0
 20
0.0
  9
$PLIMMAX
 10
12.0
 20
9.0
  9
$UNITMODE
 70
     0
  9
$VISRETAIN
 70
     1
  9
$PLINEGEN
 70
     0
  9
$PSLTSCALE
 70
     1
  0
ENDSEC
  0
SECTION
  2
TABLES
  0
TABLE
  2
VPORT
 70
     1
  0
VPORT
  2
*ACTIVE
 70
     0
 10
0.0
 20
0.0
 11
1.0
 21
1.0
 12
548.0418267048324878
 22
64.9380835644211771
 13
0.0
 23
0.0
 14
1.0
 24
1.0
 15
0.0
 25
0.0
 16
0.0
 26
0.0
 36
17.1152628219792007
 17
3803.5440673828129547
 27
125.9952621967499056
 37
0.0
 40
61.795094756196228
 41
1.8876941457586609
 42
50.0
 43
0.0
 44
0.0
 50
0.0
 51
0.0
 71
     0
 72
   100
 73
     1
 74
     1
 75
     0
 76
     1
 77
     0
 78
     0
  0
ENDTAB
  0
TABLE
  2
LTYPE
 70
     2
  0
LTYPE
  2
CONTINUOUS
 70
     0
  3
Solid line
 72
    65
 73
     0
 40
0.0
  0
LTYPE
  2
PHANTOM2
 70
     0
  3
___ _ _ ___ _ _ ___ _ _ ___ _ _
 72
    65
 73
     6
 40
1.25
 49
0.625
 49
-0.125
 49
0.125
 49
-0.125
 49
0.125
 49
-0.125
  0
ENDTAB
  0
TABLE
  2
LAYER
 70
     2
  0
LAYER
  2
0
 70
     0
 62
   255
  6
CONTINUOUS
  0
LAYER
  2
DEFPOINTS
 70
     0
 62
     7
  6
CONTINUOUS
  0
ENDTAB
  0
TABLE
  2
STYLE
 70
     1
  0
STYLE
  2
STANDARD
 70
     0
 40
0.0
 41
0.8
 50
0.0
 71
     0
 42
0.2
  3
txt
  4

  0
ENDTAB
  0
TABLE
  2
VIEW
 70
     0
  0
ENDTAB
  0
TABLE
  2
UCS
 70
     0
  0
ENDTAB
  0
TABLE
  2
APPID
 70
     9
  0
APPID
  2
ACAD
 70
     0
  0
APPID
  2
ACAD_MLEADERVER
 70
     0
  0
APPID
  2
ACAD_EXEMPT_FROM_CAD_STANDARDS
 70
     0
  0
APPID
  2
ACAD_NAV_VCDISPLAY
 70
     0
  0
APPID
  2
ACAECLAYERSTANDARD
 70
     0
  0
APPID
  2
ACCMTRANSPARENCY
 70
     0
  0
APPID
  2
ACAD_DSTYLE_DIMJAG
 70
     0
  0
APPID
  2
ACAD_DSTYLE_DIMTALN
 70
     0
  0
APPID
  2
ACDBATTR
 70
     0
  0
ENDTAB
  0
TABLE
  2
DIMSTYLE
 70
     1
  0
DIMSTYLE
  2
STANDARD
 70
     0
  3

  4

  5

  6

  7

 40
1.0
 41
0.1875
 42
0.0625
 43
0.38
 44
0.125
 45
0.0
 46
0.0
 47
0.01
 48
0.01
140
0.15625
141
0.09
142
0.0
143
25.3999999999999986
144
1.0
145
0.0
146
1.0
147
0.09
 71
     1
 72
     0
 73
     1
 74
     1
 75
     0
 76
     0
 77
     0
 78
     4
170
     0
171
     2
172
     0
173
     0
174
     0
175
     0
176
     0
177
     0
178
     0
  0
ENDTAB
  0
ENDSEC
  0
SECTION
  2
BLOCKS
  0
BLOCK
  8
0
  2
$MODEL_SPACE
 70
     0
 10
0.0
 20
0.0
 30
0.0
  3
$MODEL_SPACE
  1

  0
ENDBLK
  5
21
  8
0
  0
BLOCK
 67
     1
  8
0
  2
$PAPER_SPACE
 70
     0
 10
0.0
 20
0.0
 30
0.0
  3
$PAPER_SPACE
  1

  0
ENDBLK
  5
1D
 67
     1
  8
0
  0
ENDSEC
  0
SECTION
  2
ENTITIES
  0
ATTDEF
  5
3930
  8
DEFPOINTS
 10
4350.1361461322858304
 20
186.8688267302146073
 30
0.0
 40
0.001
  1
K-EX27030T-4E2
  3

  2
MODELNUMBER
 70
     0
1001
ACDBATTR
1070
     0
1070
     1
  0
ATTDEF
  5
3931
  8
DEFPOINTS
 10
4350.1361461322858304
 20
186.8671600635479138
 30
0.0
 40
0.001
  1
OCCASION
  3

  2
TRADENAME
 70
     0
1001
ACDBATTR
1070
     0
1070
     1
  0
ATTDEF
  5
3932
  8
DEFPOINTS
 10
4350.1361461322858304
 20
186.8654933968811918
 30
0.0
 40
0.001
  1
SHOWER COLUMN KIT
  3

  2
PRODUCT
 70
     0
1001
ACDBATTR
1070
     0
1070
     1
  0
LINE
  5
B65A
  8
0
 10
4349.5417610923359462
 20
188.1614565600281139
 30
0.0
 11
4350.7369850071363544
 21
188.1614565600281139
 31
0.0
  0
ARC
  5
B65B
  8
0
 10
4350.7369850071363544
 20
188.200826638726312
 30
0.0
 40
0.0393700786982247
 50
270.0
 51
359.0000003153926968
  0
LINE
  5
B65C
  8
0
 10
4350.7763490895840732
 20
188.2001395363280949
 30
0.0
 11
4350.7878494343831335
 21
188.8589940564079086
 31
0.0
  0
ARC
  5
B65D
  8
0
 10
4350.8272135166471344
 20
188.8583069540127894
 30
0.0
 40
0.0393700785152473
 50
89.9999943418475539
 51
179.0000003153942885
  0
LINE
  5
B65E
  8
0
 10
4349.5101404313372768
 20
190.0512203395281006
 30
0.0
 11
4351.7220456455706881
 21
190.0512203396280881
 31
0.0
  0
ARC
  5
B65F
  8
0
 10
4351.7220456455715976
 20
190.0118571151278957
 30
0.0
 40
0.0393632245001792
 50
359.9668303624969212
 51
90.0000000025794549
  0
LINE
  5
B660
  8
0
 10
4351.7614088634772997
 20
190.0118343269953982
 30
0.0
 11
4351.7614157391362824
 21
188.9370472418281111
 31
0.0
  0
ARC
  5
B661
  8
0
 10
4351.7220456520362859
 20
188.9370471112281109
 30
0.0
 40
0.0393700786999975
 50
270.0
 51
0.0000000000065138
  0
LINE
  5
B662
  8
0
 10
4351.7220456520362859
 20
188.8976770325280938
 30
0.0
 11
4350.8272135205361337
 21
188.8976770325280938
 31
0.0
  0
ARC
  5
B663
  8
0
 10
4349.5199251935673601
 20
190.0022424595325958
 30
0.0
 40
0.0499448669444042
 50
101.2929052786032997
 51
169.7957746929612881
  0
LINE
  5
B664
  8
0
 10
4349.4707703272533763
 20
190.0110905583009924
 30
0.0
 11
4349.5023830673180782
 21
188.2004154686694051
 31
0.0
  0
ARC
  5
B665
  8
0
 10
4349.5417519682387137
 20
188.2008266396886995
 30
0.0
 40
0.0393700807179033
 50
181.0000013368286886
 51
270.0132784143348204
  0
ARC
  5
B666
  8
0
 10
4353.2057475408582832
 20
188.9930307716585105
 30
0.0
 40
2.3538124834633152
 50
182.3217067062232957
 51
203.4686489137052092
  0
ARC
  5
B667
  8
0
 10
4351.0648642420537726
 20
188.0633720209972068
 30
0.0
 40
0.0197936658345261
 50
203.0204684629503049
 51
270.155895155073722
  0
LINE
  5
B668
  8
0
 10
4351.073117727335557
 20
188.0453277575280993
 30
0.0
 11
4351.1098510377369166
 21
188.061569584765607
 31
0.0
  0
ARC
  5
B669
  8
0
 10
4351.1014190715668519
 20
188.0799112112607929
 30
0.0
 40
0.0200980059893187
 50
294.2297233418448741
 51
17.9140148321761004
  0
ARC
  5
B66A
  8
0
 10
4353.2045052792709612
 20
188.9925065588857933
 30
0.0
 40
2.2725503884546412
 50
182.3915463843509031
 51
203.5064900804798924
  0
LINE
  5
B66B
  8
0
 10
4351.7627543134358348
 20
189.8321652215281006
 30
0.0
 11
4351.7827543134362713
 21
189.8321652215281006
 31
0.0
  0
LINE
  5
B66C
  8
0
 10
4351.7827543134362713
 20
189.8321652215281006
 30
0.0
 11
4351.7827543134362713
 21
188.9321652215280949
 31
0.0
  0
LINE
  5
B66D
  8
0
 10
4351.7827543134362713
 20
188.9321652215280949
 30
0.0
 11
4351.7627543134358348
 21
188.9321652215280949
 31
0.0
  0
LINE
  5
B66E
  8
0
 10
4351.7627543134358348
 20
188.9321652215280949
 30
0.0
 11
4351.7627543134358348
 21
189.8321652215281006
 31
0.0
  0
LINE
  5
B66F
  8
0
 10
4351.7614157307361893
 20
188.9921652215280972
 30
0.0
 11
4351.7627543134358348
 21
188.9921652215280972
 31
0.0
  0
LINE
  5
B670
  8
0
 10
4351.7614157307361893
 20
189.0321652215280892
 30
0.0
 11
4351.7627543134358348
 21
189.0321652215280892
 31
0.0
  0
LINE
  5
B671
  8
0
 10
4351.7614157307361893
 20
189.7071652215281006
 30
0.0
 11
4351.7627543134358348
 21
189.7071652215281006
 31
0.0
  0
LINE
  5
B672
  8
0
 10
4351.7614157307361893
 20
189.7471652215280926
 30
0.0
 11
4351.7627543134358348
 21
189.7471652215280926
 31
0.0
  0
LINE
  5
B673
  8
0
 10
4351.8006047071357898
 20
190.0120864812267882
 30
0.0
 11
4351.8006047071357898
 21
188.9372833317281106
 31
0.0
  0
ARC
  5
B674
  8
0
 10
4351.8403809725168685
 20
188.9374515797607046
 30
0.0
 40
0.0397766212126833
 50
180.2423516787459903
 51
269.414903010923183
  0
LINE
  5
B675
  8
0
 10
4351.8399747859366471
 20
188.8976770325280938
 30
0.0
 11
4353.0539432530358681
 21
188.8976770325280938
 31
0.0
  0
ARC
  5
B676
  8
0
 10
4353.0535350438503883
 20
188.9374575655934905
 30
0.0
 40
0.0397826274359856
 50
270.5879218024226134
 51
359.4048411641925895
  0
LINE
  5
B677
  8
0
 10
4353.093315525035905
 20
188.9370443317280888
 30
0.0
 11
4353.099641327736208
 21
190.0118469909980945
 31
0.0
  0
ARC
  5
B678
  8
0
 10
4353.0607467370746235
 20
190.0125564995169043
 30
0.0
 40
0.0389010614895448
 50
358.9549360283451733
 51
90.4110268396887164
  0
LINE
  5
B679
  8
0
 10
4353.0604676721359283
 20
190.0514565600281003
 30
0.0
 11
4351.839977659545184
 21
190.0514565600281003
 31
0.0
  0
ARC
  5
B67A
  8
0
 10
4351.8399649142893395
 20
190.0121153314861999
 30
0.0
 40
0.0393412306063523
 50
89.981438065039768
 51
180.0763854641454884
  0
LINE
  5
B67B
  8
0
 10
4351.7827543134362713
 20
189.7271652215281108
 30
0.0
 11
4351.8006047071357898
 21
189.7271652215281108
 31
0.0
  0
LINE
  5
B67C
  8
0
 10
4351.7827543134362713
 20
189.0371652215281131
 30
0.0
 11
4351.8006047071357898
 21
189.0371652215281131
 31
0.0
  0
LINE
  5
B67D
  8
0
 10
4349.7456676739520844
 20
221.2024867654282048
 30
0.0
 11
4349.7456676739520844
 21
218.2989434432745952
 31
0.0
  0
LINE
  5
B67E
  8
0
 10
4349.5094465771962859
 20
205.2182347969497016
 30
0.0
 11
4350.7693067147483816
 21
205.2182347962414894
 31
0.0
  0
ARC
  5
B67F
  8
0
 10
4349.7592715205355489
 20
205.1985347968092981
 30
0.0
 40
0.0197
 50
89.9999999677958868
 51
180.0
  0
ARC
  5
B680
  8
0
 10
4350.7693067147483816
 20
205.1985513586380137
 30
0.0
 40
0.0196834376035025
 50
359.9953375804266784
 51
89.9999999968473361
  0
LINE
  5
B681
  8
0
 10
4350.7889901522858054
 20
205.1985497569066865
 30
0.0
 11
4350.7889581150520826
 21
204.8048489708556872
 31
0.0
  0
ARC
  5
B682
  8
0
 10
4350.7692714436279857
 20
204.8048505728501993
 30
0.0
 40
0.0196866714895415
 50
270.0979905264675835
 51
359.9953375804266784
  0
LINE
  5
B683
  8
0
 10
4350.7693051128862862
 20
204.7851639301522084
 30
0.0
 11
4349.5094482996355509
 21
204.785163930895294
 31
0.0
  0
ARC
  5
B684
  8
0
 10
4349.5094465721340384
 20
204.8048489699669972
 30
0.0
 40
0.0196850391475266
 50
179.9999993355833965
 51
270.0050281135759747
  0
LINE
  5
B685
  8
0
 10
4349.4897615329873588
 20
204.8048489701953088
 30
0.0
 11
4349.4897615375521127
 21
205.1985497575448107
 31
0.0
  0
ARC
  5
B686
  8
0
 10
4349.5094465771862815
 20
205.1985497573164992
 30
0.0
 40
0.0196850396332762
 50
90.000014255190294
 51
179.9999993355851018
  0
LINE
  5
B687
  8
0
 10
4349.5094459188867404
 20
204.7261088127102084
 30
0.0
 11
4350.7692877559866247
 21
204.7261088126101924
 31
0.0
  0
ARC
  5
B688
  8
0
 10
4350.7692877559857152
 20
204.7064230905967861
 30
0.0
 40
0.019685722013401
 50
0.0019870541940415
 51
89.9999999954403478
  0
LINE
  5
B689
  8
0
 10
4350.7889734779882929
 20
204.7064237733102061
 30
0.0
 11
4350.7890149768609263
 21
203.5056363723998061
 31
0.0
  0
ARC
  5
B68A
  8
0
 10
4350.7693305740103824
 20
203.5056356897320882
 30
0.0
 40
0.0196844028623274
 50
269.8769328629790039
 51
0.0019870541924131
  0
LINE
  5
B68B
  8
0
 10
4350.7692882933870351
 20
203.4859513322776081
 30
0.0
 11
4349.5094486798843718
 21
203.4859513322776081
 31
0.0
  0
ARC
  5
B68C
  8
0
 10
4349.509445774161577
 20
203.5056363719376122
 30
0.0
 40
0.0196850398744904
 50
180.0000007568648925
 51
270.0084574697330027
  0
LINE
  5
B68D
  8
0
 10
4349.4897607342891206
 20
203.5056363716776104
 30
0.0
 11
4349.4897608636247242
 21
204.7064237733102061
 31
0.0
  0
ARC
  5
B68E
  8
0
 10
4349.5094459027659468
 20
204.7064237735702079
 30
0.0
 40
0.0196850391399712
 50
89.9999530743148455
 51
180.0000007568648925
  0
LINE
  5
B68F
  8
0
 10
4349.5881859311875814
 20
204.7851639308919118
 30
0.0
 11
4349.5881860763865916
 21
204.7261088126101924
 31
0.0
  0
LINE
  5
B690
  8
0
 10
4350.6905481358880934
 20
204.7851639307986034
 30
0.0
 11
4350.690548281088013
 21
204.7261088126101924
 31
0.0
  0
LINE
  5
B691
  8
0
 10
4349.647239069270654
 20
203.4859513322776081
 30
0.0
 11
4349.6472425024358017
 21
190.0512203396280881
 31
0.0
  0
LINE
  5
B692
  8
0
 10
4350.6314944709356496
 20
190.0512203395788049
 30
0.0
 11
4350.6314927031753541
 21
194.7847899795453088
 31
0.0
  0
LINE
  5
B693
  8
0
 10
4350.5330710014859505
 20
221.2024867654282048
 30
0.0
 11
4350.5330710014859505
 21
218.2989417410676083
 31
0.0
  0
ARC
  5
B694
  8
0
 10
4350.1393684739950913
 20
221.2024867527867116
 30
0.0
 40
0.3937008000414892
 50
0.0000018397313486
 51
179.9999981602686034
  0
ARC
  5
B695
  8
0
 10
4351.0645809291827391
 20
188.0652505632330076
 30
0.0
 40
0.0216747574348091
 50
270.8913199535867875
 51
293.1948314070369861
  0
LINE
  5
B696
  8
0
 10
4352.2771417176363684
 20
190.1932567911686078
 30
0.0
 11
4353.1827866552366686
 21
190.1932567911686078
 31
0.0
  0
ARC
  5
B697
  8
0
 10
4353.1826352256039172
 20
190.2053307102854092
 30
0.0
 40
0.0120748686855641
 50
270.7185590582628265
 51
351.8996638119000977
  0
ARC
  5
B698
  8
0
 10
4355.8285127677909259
 20
190.0473320943740987
 30
0.0
 40
2.638556414173264
 50
170.0132917890738042
 51
176.6040467335558048
  0
ARC
  5
B699
  8
0
 10
4351.0471729930186484
 20
190.8892676595374098
 30
0.0
 40
2.2163447730492991
 50
350.0132917890737758
 51
357.8569184159829888
  0
LINE
  5
B69A
  8
0
 10
4353.2619675621363058
 20
190.8063872056686137
 30
0.0
 11
4353.2644783227360676
 21
193.6800787060685138
 31
0.0
  0
ARC
  5
B69B
  8
0
 10
4354.3983690378327083
 20
193.6750916663442013
 30
0.0
 40
1.1339016819591821
 50
174.2658149134041139
 51
179.7480052686950955
  0
ARC
  5
B69C
  8
0
 10
4351.0118482926664001
 20
193.6712772704379972
 30
0.0
 40
1.1896933050964471
 50
358.8783789166793099
 51
5.7127005259774641
  0
LINE
  5
B69D
  8
0
 10
4352.2013136484865754
 20
193.6479893445263087
 30
0.0
 11
4352.1989679187363436
 21
190.8072578124686061
 31
0.0
  0
ARC
  5
B69E
  8
0
 10
4354.2445231859355772
 20
190.8594917329737086
 30
0.0
 40
2.0462220636141399
 50
181.4627485309499093
 51
191.0217834948090001
  0
ARC
  5
B69F
  8
0
 10
4350.4902406973951656
 20
190.1676325734879072
 30
0.0
 40
1.771503984721952
 50
1.183278609305159
 51
9.7714834746980532
  0
ARC
  5
B6A0
  8
0
 10
4352.2767091860769142
 20
190.2094673693162008
 30
0.0
 40
0.0162163475367199
 50
198.8975648019774098
 51
271.5284065774848727
  0
LINE
  5
B6A1
  8
0
 10
4345.1373999827355874
 20
216.1993686550775919
 30
0.0
 11
4355.141336990536729
 21
216.1993686550775919
 31
0.0
  0
LINE
  5
B6A2
  8
0
 10
4345.1673212425366728
 20
215.7781088125776137
 30
0.0
 11
4355.1083982738182385
 21
215.7781088125776137
 31
0.0
  0
ARC
  5
B6A3
  8
0
 10
4345.1673212425366728
 20
215.8080300723775906
 30
0.0
 40
0.0299212598000054
 50
180.0
 51
269.9999999999739089
  0
LINE
  5
B6A4
  8
0
 10
4345.1373999827355874
 20
215.8080300723775906
 30
0.0
 11
4345.1373999827355874
 21
216.1993686550775919
 31
0.0
  0
LINE
  5
B6A5
  8
0
 10
4355.141336990536729
 20
216.1993686550775919
 30
0.0
 11
4355.141336990536729
 21
215.8080300723775906
 31
0.0
  0
ARC
  5
B6A6
  8
0
 10
4355.1038562670519241
 20
215.8161997320553098
 30
0.0
 40
0.0383607608386668
 50
276.7999104336022924
 51
347.7035893821869195
  0
LINE
  5
B6A7
  8
0
 10
4349.6554388177273722
 20
218.2367702298776067
 30
0.0
 11
4350.6232927916271365
 21
218.2367702298776067
 31
0.0
  0
ARC
  5
B6A8
  8
0
 10
4350.6232927916271365
 20
218.2167693173568068
 30
0.0
 40
0.0200009125208176
 50
0.0026140603115573
 51
90.0
  0
LINE
  5
B6A9
  8
0
 10
4350.6432937041263358
 20
218.2167702298775964
 30
0.0
 11
4350.6433172849474431
 21
217.6999185426155066
 31
0.0
  0
ARC
  5
B6AA
  8
0
 10
4350.4075282765816155
 20
217.7092803100568119
 30
0.0
 40
0.2359747849990688
 50
302.141378226894517
 51
357.7263224573634943
  0
ARC
  5
B6AB
  8
0
 10
4350.4068341499787493
 20
217.7003964068387063
 30
0.0
 40
0.2288834272901739
 50
291.925834085754218
 51
303.4717549340967935
  0
ARC
  5
B6AC
  8
0
 10
4350.5184427263793623
 20
217.4231226721124983
 30
0.0
 40
0.070009861853242
 50
111.9258340857542038
 51
230.6153855477955972
  0
ARC
  5
B6AD
  8
0
 10
4350.1387832798491218
 20
216.9607974343425099
 30
0.0
 40
0.5282258122420852
 50
35.3347010460339277
 51
50.6062407225983009
  0
LINE
  5
B6AE
  8
0
 10
4350.8578724236358539
 20
217.2662977889775959
 30
0.0
 11
4349.420864549635553
 21
217.2662977889775959
 31
0.0
  0
LINE
  5
B6AF
  8
0
 10
4349.420864549635553
 20
217.2662977889775959
 30
0.0
 11
4349.420864549635553
 21
216.1993686550775919
 31
0.0
  0
LINE
  5
B6B0
  8
0
 10
4350.8578724236358539
 20
216.1993686550775919
 30
0.0
 11
4350.8578724236358539
 21
217.2662977889775959
 31
0.0
  0
LINE
  5
B6B1
  8
0
 10
4349.9355071168356517
 20
217.2662977889775959
 30
0.0
 11
4349.9355071168356517
 21
216.7938568440775953
 31
0.0
  0
LINE
  5
B6B2
  8
0
 10
4349.9355071168356517
 20
216.7938568440775953
 30
0.0
 11
4350.3432298565357996
 21
216.7938568440775953
 31
0.0
  0
LINE
  5
B6B3
  8
0
 10
4350.3432298565357996
 20
216.7938568440775953
 30
0.0
 11
4350.3432299195001178
 21
217.2662977889775959
 31
0.0
  0
ARC
  5
B6B4
  8
0
 10
4349.6554388177273722
 20
218.2167693173568068
 30
0.0
 40
0.0200009125208176
 50
90.0
 51
179.9973859396899911
  0
LINE
  5
B6B5
  8
0
 10
4349.6354379052263539
 20
218.2167702298775964
 30
0.0
 11
4349.6354143244061561
 21
217.6999185426155066
 31
0.0
  0
ARC
  5
B6B6
  8
0
 10
4349.8712085087508967
 20
217.709286842301708
 30
0.0
 40
0.2359802161411697
 50
182.2752124594038889
 51
237.8595041914248895
  0
ARC
  5
B6B7
  8
0
 10
4349.8719028232926576
 20
217.7003964068387063
 30
0.0
 40
0.2288834272901739
 50
236.5282450659030928
 51
248.0741659142458104
  0
ARC
  5
B6B8
  8
0
 10
4349.7602942468938636
 20
217.4231226721124983
 30
0.0
 40
0.070009861853242
 50
309.3846144522041186
 51
68.0741659142457962
  0
ARC
  5
B6B9
  8
0
 10
4350.1399536934231946
 20
216.9607974343425099
 30
0.0
 40
0.5282258122420852
 50
129.3937592774016991
 51
144.665298953965987
  0
LINE
  5
B6BA
  8
0
 10
4349.9411156086571282
 20
218.0674788912776023
 30
0.0
 11
4350.3376213645360622
 21
218.0674788913121063
 31
0.0
  0
LINE
  5
B6BB
  8
0
 10
4350.3376213645360622
 20
218.0674788913121063
 30
0.0
 11
4350.3376213645360622
 21
217.6999185420775973
 31
0.0
  0
ARC
  5
B6BC
  8
0
 10
4350.2423579442765913
 20
217.6999185420775973
 30
0.0
 40
0.0952634202585587
 50
324.8083467452174773
 51
0.0
  0
ARC
  5
B6BD
  8
0
 10
4350.1975338224920051
 20
217.7315287033873972
 30
0.0
 40
0.1501123417782972
 50
297.0895964097202864
 51
324.8083467452174773
  0
ARC
  5
B6BE
  8
0
 10
4350.1486869663776815
 20
217.8270265851577108
 30
0.0
 40
0.2573777172486794
 50
279.1169559445735899
 51
297.0895964097202864
  0
ARC
  5
B6BF
  8
0
 10
4350.138942641581707
 20
217.8877473663650051
 30
0.0
 40
0.3188754012389299
 50
271.583997559769216
 51
279.1169559445735899
  0
ARC
  5
B6C0
  8
0
 10
4350.1391622871860818
 20
217.879804450252692
 30
0.0
 40
0.3109294487751172
 50
260.2242206909298261
 51
271.583997559769216
  0
ARC
  5
B6C1
  8
0
 10
4350.1292858027536568
 20
217.8224812388868088
 30
0.0
 40
0.2527616268628205
 50
240.1633091182928865
 51
260.2242206909298261
  0
ARC
  5
B6C2
  8
0
 10
4350.0711295304017767
 20
217.7210852819248998
 30
0.0
 40
0.1358715413028791
 50
212.7721998365535114
 51
240.1633091182928865
  0
ARC
  5
B6C3
  8
0
 10
4350.0402295435396809
 20
217.7011928123289977
 30
0.0
 40
0.0991221258704438
 50
180.7365895140821976
 51
212.7721998365541936
  0
LINE
  5
B6C4
  8
0
 10
4349.9411156087362542
 20
217.6999185420775973
 30
0.0
 11
4349.9411156086571282
 21
218.0674788912776023
 31
0.0
  0
ARC
  5
B6C5
  8
0
 10
4350.139368486676176
 20
217.6127544820674871
 30
0.0
 40
0.4960629919101365
 50
66.4435356890672182
 51
113.5564643208849986
  0
ARC
  5
B6C6
  8
0
 10
4352.7364311808905768
 20
196.4256668859069919
 30
0.0
 40
2.690884300111668
 50
259.8644459495980072
 51
269.9919675415177949
  0
ARC
  5
B6C7
  8
0
 10
4352.7291966399598095
 20
196.3851986201337922
 30
0.0
 40
2.649774458015818
 50
258.4563049592077277
 51
259.8644487858463208
  0
ARC
  5
B6C8
  8
0
 10
4352.72051920629292
 20
196.3427135401084911
 30
0.0
 40
2.6064122638855571
 50
216.9676040653475866
 51
258.4563049592077277
  0
ARC
  5
B6C9
  8
0
 10
4352.7462899809588635
 20
196.2430601774132128
 30
0.0
 40
2.5688362143414212
 50
180.123725834654806
 51
214.8455854957695124
  0
ARC
  5
B6CA
  8
0
 10
4352.5739032167912228
 20
196.1488763434830105
 30
0.0
 40
2.398082090678451
 50
127.6672424439133948
 51
177.8817814079754953
  0
ARC
  5
B6CB
  8
0
 10
4352.7387156424274508
 20
195.936171931877908
 30
0.0
 40
2.6671658931819322
 50
97.2164424175074799
 51
127.6776141825284014
  0
ARC
  5
B6CC
  8
0
 10
4352.8207857787347166
 20
195.0435915543598924
 30
0.0
 40
3.5631176429250271
 50
91.3625355503434946
 51
96.7227074815315575
  0
ARC
  5
B6CD
  8
0
 10
4352.7043703522158467
 20
195.7903140609120101
 30
0.0
 40
2.8155660151942739
 50
70.4351654375008138
 51
89.3551086862045736
  0
ARC
  5
B6CE
  8
0
 10
4352.7827095985676351
 20
196.0344569683593079
 30
0.0
 40
2.5592977435626358
 50
44.1328357432508795
 51
70.2573929511699475
  0
ARC
  5
B6CF
  8
0
 10
4352.9013959965532194
 20
196.148148411337587
 30
0.0
 40
2.3949473895816622
 50
2.6669391233256148
 51
44.1578300816710865
  0
ARC
  5
B6D0
  8
0
 10
4352.7766057524522694
 20
196.2067573839258898
 30
0.0
 40
2.5200889324210651
 50
341.5657410646326184
 51
358.9882776296786915
  0
ARC
  5
B6D1
  8
0
 10
4352.8412615132538122
 20
196.2311191335701892
 30
0.0
 40
2.466839000375264
 50
314.6731272617993795
 51
340.5540190063928776
  0
ARC
  5
B6D2
  8
0
 10
4352.8038626350144114
 20
196.2689471865232065
 30
0.0
 40
2.5200333392073291
 50
289.186386801054482
 51
314.6731272617993795
  0
ARC
  5
B6D3
  8
0
 10
4352.6667083448792255
 20
196.6631021700206077
 30
0.0
 40
2.9373694750957471
 50
281.912757741188102
 51
289.186386801054482
  0
ARC
  5
B6D4
  8
0
 10
4352.7642397171339326
 20
196.2007928421533052
 30
0.0
 40
2.4648842550020049
 50
272.6020341838303125
 51
281.912757741188102
  0
ARC
  5
B6D5
  8
0
 10
4352.7108082032518723
 20
197.3765250133155007
 30
0.0
 40
3.641829905820924
 50
270.3971864923801718
 51
272.6020341838303125
  0
ARC
  5
B6D6
  8
0
 10
4353.0738315914877603
 20
196.2398715477212932
 30
0.0
 40
2.8963727958063061
 50
157.1970953245767078
 51
180.0466570287674983
  0
ARC
  5
B6D7
  8
0
 10
4352.5907384449628807
 20
196.383760586059708
 30
0.0
 40
2.395892437477261
 50
128.4937850675258915
 51
155.8916148196699112
  0
ARC
  5
B6D8
  8
0
 10
4352.7655231451908548
 20
196.1639771724233015
 30
0.0
 40
2.6767027655347491
 50
105.2228691321624012
 51
128.4937850675258915
  0
ARC
  5
B6D9
  8
0
 10
4352.7739238653666689
 20
195.9089754630016103
 30
0.0
 40
2.925554716785844
 50
90.7415645245766598
 51
104.0702198463201
  0
ARC
  5
B6DA
  8
0
 10
4352.6791914107971024
 20
195.8839917188331015
 30
0.0
 40
2.950841468442047
 50
70.9029933781202999
 51
88.8957236186605542
  0
ARC
  5
B6DB
  8
0
 10
4352.8048522193394092
 20
196.338656248416612
 30
0.0
 40
2.480268201825754
 50
44.0692676196511215
 51
70.2098017580307925
  0
ARC
  5
B6DC
  8
0
 10
4352.7661041756828126
 20
196.3011470624389005
 30
0.0
 40
2.534197321232436
 50
21.2323634286316398
 51
44.0692676196511215
  0
ARC
  5
B6DD
  8
0
 10
4352.9294109238662713
 20
196.3645957200980945
 30
0.0
 40
2.358997931504351
 50
2.5016659507817458
 51
21.2323634286316398
  0
ARC
  5
B6DE
  8
0
 10
4340.4029627058953338
 20
195.8203688727774079
 30
0.0
 40
14.8972628172110593
 50
1.315050510766125
 51
2.4899289273278868
  0
ARC
  5
B6DF
  8
0
 10
4352.7346604129361367
 20
195.9438826599100025
 30
0.0
 40
2.503131961158596
 50
89.9679588661377352
 51
115.850642272300405
  0
ARC
  5
B6E0
  8
0
 10
4352.680376746510774
 20
196.0559209932262092
 30
0.0
 40
2.3786357581123112
 50
115.8506423231082039
 51
142.504656475761692
  0
ARC
  5
B6E1
  8
0
 10
4352.5466516716960541
 20
196.1585145862825073
 30
0.0
 40
2.2100895004548011
 50
142.504656475761692
 51
173.8584495842378885
  0
ARC
  5
B6E2
  8
0
 10
4352.5051991704540342
 20
196.1629749874005881
 30
0.0
 40
2.1683977142456858
 50
173.8584495842378885
 51
206.8506765732468011
  0
ARC
  5
B6E3
  8
0
 10
4352.6440272726804324
 20
196.2332562979754869
 30
0.0
 40
2.3240020348278119
 50
206.8506765732468011
 51
238.9996534606509044
  0
ARC
  5
B6E4
  8
0
 10
4352.7380731465846111
 20
196.3897727720097919
 30
0.0
 40
2.5066000442437231
 50
238.9996534606509044
 51
258.0889752646247075
  0
ARC
  5
B6E5
  8
0
 10
4352.7327579908696862
 20
196.3645745814901886
 30
0.0
 40
2.4808473805809581
 50
258.0889752646247075
 51
272.2003596916736115
  0
ARC
  5
B6E6
  8
0
 10
4352.7310567657932552
 20
196.408851475822587
 30
0.0
 40
2.525156945445485
 50
272.2003596916736115
 51
298.1983149156674244
  0
ARC
  5
B6E7
  8
0
 10
4352.8209372049659578
 20
196.2412133268084915
 30
0.0
 40
2.3349437956605419
 50
298.1983149156674244
 51
324.2084392299250908
  0
ARC
  5
B6E8
  8
0
 10
4352.9141234290827924
 20
196.174026165280992
 30
0.0
 40
2.220062173810005
 50
324.2084392299250908
 51
4.4561456707674818
  0
ARC
  5
B6E9
  8
0
 10
4352.9776835989387109
 20
196.17897951163431
 30
0.0
 40
2.1563092849943968
 50
4.4561456707674818
 51
38.0258784656203019
  0
ARC
  5
B6EA
  8
0
 10
4352.7494832658212545
 20
196.0005238281696904
 30
0.0
 40
2.4460019203792278
 50
38.0258784656203019
 51
69.8621511457998992
  0
ARC
  5
B6EB
  8
0
 10
4352.7466047447005622
 20
195.9926739711166874
 30
0.0
 40
2.4543629095309312
 50
69.8621511457998992
 51
90.2461569449934444
  0
ARC
  5
B6EC
  8
0
 10
4352.734663915701276
 20
195.9376485133614096
 30
0.0
 40
2.5913016714900632
 50
89.9692956458016084
 51
111.6212969698351003
  0
ARC
  5
B6ED
  8
0
 10
4352.6951525023514478
 20
196.0373346788013862
 30
0.0
 40
2.4840706901225089
 50
111.6212969698351003
 51
143.41350590797461
  0
ARC
  5
B6EE
  8
0
 10
4352.5131470130454545
 20
196.1724373297984982
 30
0.0
 40
2.257401935231508
 50
143.41350590797461
 51
180.0230402811853878
  0
ARC
  5
B6EF
  8
0
 10
4352.5215272462073699
 20
196.17244069973151
 30
0.0
 40
2.2657821690707278
 50
180.0230402811853878
 51
213.0784892821384915
  0
ARC
  5
B6F0
  8
0
 10
4352.6741137970975615
 20
196.2718290103931906
 30
0.0
 40
2.4478829428439082
 50
213.0784892821384915
 51
252.1556097878319918
  0
ARC
  5
B6F1
  8
0
 10
4352.7527887758260476
 20
196.5162221832518128
 30
0.0
 40
2.7046275147783709
 50
252.1556097878319918
 51
269.645614156158274
  0
ARC
  5
B6F2
  8
0
 10
4352.7516551161361349
 20
196.3329386566020958
 30
0.0
 40
2.5213404821616781
 50
269.645614156158274
 51
294.1333819315321989
  0
ARC
  5
B6F3
  8
0
 10
4352.7525209185296262
 20
196.3310061525849051
 30
0.0
 40
2.519222892598211
 50
294.1333819315321989
 51
324.9100861164674825
  0
ARC
  5
B6F4
  8
0
 10
4352.9382865330071581
 20
196.1758088585997086
 30
0.0
 40
2.2780926677618019
 50
325.4181604636148109
 51
359.8923723813277888
  0
ARC
  5
B6F5
  8
0
 10
4352.9022084749140049
 20
196.1553553255319002
 30
0.0
 40
2.3142232286447362
 50
0.4004467284723364
 51
49.9203814967964021
  0
ARC
  5
B6F6
  8
0
 10
4352.7395547288979287
 20
195.9620582770035924
 30
0.0
 40
2.5668494150604122
 50
49.9203814967964021
 51
80.6640510415129057
  0
ARC
  5
B6F7
  8
0
 10
4352.7390180237798631
 20
195.9587936592278936
 30
0.0
 40
2.570157856023469
 50
80.6640510415129057
 51
90.0659372591413785
  0
ARC
  5
B6F8
  8
0
 10
4352.7359504608066345
 20
196.0892197484982944
 30
0.0
 40
0.8916294812615623
 50
90.3373118472349148
 51
108.9949634716064963
  0
ARC
  5
B6F9
  8
0
 10
4352.7264887541996359
 20
196.1167063885806101
 30
0.0
 40
0.8625599220126783
 50
108.9949634716064963
 51
132.8445821705730907
  0
ARC
  5
B6FA
  8
0
 10
4352.6859183227370522
 20
196.1604501441773891
 30
0.0
 40
0.8028985772159231
 50
132.8445821705730907
 51
162.2257337158563075
  0
ARC
  5
B6FB
  8
0
 10
4352.6513332655231352
 20
196.1715370590389114
 30
0.0
 40
0.7665799062114659
 50
162.2257337158563075
 51
195.4008370717693026
  0
ARC
  5
B6FC
  8
0
 10
4352.6870091010114265
 20
196.1813643820854907
 30
0.0
 40
0.8035845210055725
 50
195.4008370717693026
 51
236.7168817001798971
  0
ARC
  5
B6FD
  8
0
 10
4352.7399707846188903
 20
196.2620426326195116
 30
0.0
 40
0.9000931736733579
 50
236.7168817001798971
 51
269.7510690015254227
  0
ARC
  5
B6FE
  8
0
 10
4352.7398593373191034
 20
196.2363912682627927
 30
0.0
 40
0.8744415672156726
 50
269.7510690015254227
 51
304.9932869676907785
  0
ARC
  5
B6FF
  8
0
 10
4352.771471715835105
 20
196.191232852768394
 30
0.0
 40
0.8193178430545284
 50
304.9932869676907785
 51
344.6108745766763946
  0
ARC
  5
B700
  8
0
 10
4352.8397495329963931
 20
196.1724399500029961
 30
0.0
 40
0.7485009417491141
 50
344.6108745766763946
 51
19.9939538996399584
  0
ARC
  5
B701
  8
0
 10
4352.7642592965858057
 20
196.1449727719827933
 30
0.0
 40
0.8288328884552001
 50
19.9939538996399584
 51
56.3727201451669089
  0
ARC
  5
B702
  8
0
 10
4352.7423867092857108
 20
196.1120858631367128
 30
0.0
 40
0.8683292028223593
 50
56.3727201451669089
 51
85.385103196683886
  0
ARC
  5
B703
  8
0
 10
4352.7319751887480379
 20
195.9831023476353096
 30
0.0
 40
0.99773224386476
 50
85.385103196683886
 51
90.0731550561860956
  0
ARC
  5
B704
  8
0
 10
4352.6430561538682014
 20
196.2201150446306883
 30
0.0
 40
0.774831369636333
 50
175.58454879507741
 51
201.0328341955658971
  0
ARC
  5
B705
  8
0
 10
4352.6691536749403895
 20
196.2049077899137899
 30
0.0
 40
0.8021300534438243
 50
142.4693053878145008
 51
174.6449992168471113
  0
ARC
  5
B706
  8
0
 10
4352.7201316183500239
 20
196.163886581366711
 30
0.0
 40
0.8675477600636291
 50
107.3794436326212036
 51
142.3718344161923142
  0
ARC
  5
B707
  8
0
 10
4352.7359125619877886
 20
196.1241085983104142
 30
0.0
 40
0.9102290747948845
 50
88.3195259278601554
 51
107.5795438517625939
  0
ARC
  5
B708
  8
0
 10
4352.7368890191692117
 20
196.1285814097061007
 30
0.0
 40
0.9057299459572137
 50
66.3161367127104882
 51
88.3729717199024947
  0
ARC
  5
B709
  8
0
 10
4352.7579296367875941
 20
196.1711127066799065
 30
0.0
 40
0.8583317908580024
 50
35.1437863822503118
 51
66.4619307220003748
  0
ARC
  5
B70A
  8
0
 10
4352.8054575064743403
 20
196.205723259665092
 30
0.0
 40
0.7995454462006407
 50
3.8516681299150441
 51
35.0762167464948078
  0
ARC
  5
B70B
  8
0
 10
4352.8149408239642071
 20
196.2080153008159016
 30
0.0
 40
0.7899313067893253
 50
347.9081837605650094
 51
3.7320012130398701
  0
ARC
  5
B70C
  8
0
 10
4353.1420456221958375
 20
196.0976052408261978
 30
0.0
 40
0.4486919971841496
 50
327.2323903851907971
 51
352.9508409231597739
  0
ARC
  5
B70D
  8
0
 10
4352.294639987413575
 20
196.187043914896492
 30
0.0
 40
0.1002033027112655
 50
124.5419305103938967
 51
181.5063052829532921
  0
ARC
  5
B70E
  8
0
 10
4352.3013337604297703
 20
196.1603522850082868
 30
0.0
 40
0.1263517351656761
 50
55.005914148867241
 51
120.1750940493389948
  0
ARC
  5
B70F
  8
0
 10
4352.3121175552041677
 20
196.1886686434478122
 30
0.0
 40
0.0972525622231571
 50
348.4672101682724019
 51
50.6390776878054183
  0
ARC
  5
B710
  8
0
 10
4352.3055749711820681
 20
196.1900036469100996
 30
0.0
 40
0.1039299599148467
 50
286.3214645845670816
 51
348.4672101682724019
  0
ARC
  5
B711
  8
0
 10
4352.3024233188743892
 20
196.2007664880136133
 30
0.0
 40
0.1151447564306994
 50
235.0224312196214953
 51
286.3214645845670816
  0
ARC
  5
B712
  8
0
 10
4352.2922997912219216
 20
196.1862965384202084
 30
0.0
 40
0.0974850493737464
 50
198.5927093719159018
 51
235.0224312196214953
  0
ARC
  5
B713
  8
0
 10
4352.3003450790920397
 20
196.1890029373012965
 30
0.0
 40
0.105973350252981
 50
182.484073162977694
 51
198.5927093719159018
  0
ARC
  5
B714
  8
0
 10
4352.298064933293972
 20
196.166177819300799
 30
0.0
 40
0.1195560771582622
 50
120.9510838247862949
 51
144.8567241156025887
  0
ARC
  5
B715
  8
0
 10
4352.2864725872259442
 20
196.1743381441660858
 30
0.0
 40
0.1053795687990776
 50
144.856724115583603
 51
180.7810472396618877
  0
ARC
  5
B716
  8
0
 10
4352.2963242782034285
 20
196.1744724492191096
 30
0.0
 40
0.1152321752025376
 50
180.7810472396618877
 51
216.9818127922409019
  0
ARC
  5
B717
  8
0
 10
4352.2979987020262342
 20
196.1757333849519966
 30
0.0
 40
0.1173282796991973
 50
216.9818127922409019
 51
253.6379293784025037
  0
ARC
  5
B718
  8
0
 10
4352.3037661998023395
 20
196.1953776643983076
 30
0.0
 40
0.1378017197021016
 50
253.6379293784025037
 51
272.7510568763784136
  0
ARC
  5
B719
  8
0
 10
4352.3046869752633938
 20
196.1762155744704046
 30
0.0
 40
0.1186175200091823
 50
272.7510568763784136
 51
303.197599834927928
  0
ARC
  5
B71A
  8
0
 10
4352.3037061091818032
 20
196.1777146320073939
 30
0.0
 40
0.1204089640541783
 50
303.1975998349265069
 51
338.8071427335249837
  0
ARC
  5
B71B
  8
0
 10
4352.3197306711308556
 20
196.1715014121774061
 30
0.0
 40
0.1032220304626262
 50
338.8071427335249837
 51
18.835496017496471
  0
ARC
  5
B71C
  8
0
 10
4352.2960926101914083
 20
196.1634380149369861
 30
0.0
 40
0.128197544473104
 50
18.835496017496471
 51
37.4732365337072721
  0
ARC
  5
B71D
  8
0
 10
4352.319293562743951
 20
196.1812235197683094
 30
0.0
 40
0.0989638587407726
 50
37.4732365337066327
 51
56.437811906266603
  0
ARC
  5
B71E
  8
0
 10
4352.296941201269874
 20
196.1818235505847099
 30
0.0
 40
0.1112216634211518
 50
155.558273182981992
 51
195.6610501986174029
  0
ARC
  5
B71F
  8
0
 10
4352.2924708500213455
 20
196.1805702699556093
 30
0.0
 40
0.1065789537992331
 50
195.6610501986174029
 51
239.0575269514361878
  0
ARC
  5
B720
  8
0
 10
4352.3061265429232662
 20
196.2033489332955867
 30
0.0
 40
0.1331372943385255
 50
239.0575269514361878
 51
259.4184630893324766
  0
ARC
  5
B721
  8
0
 10
4352.300243845525074
 20
196.1718588999254962
 30
0.0
 40
0.1011024955981498
 50
259.4184630893324766
 51
272.1792325898640001
  0
ARC
  5
B722
  8
0
 10
4352.2990794705428925
 20
196.2024575606895951
 30
0.0
 40
0.131723302407511
 50
272.1792325898640001
 51
297.0879449099007843
  0
ARC
  5
B723
  8
0
 10
4352.3103374071097278
 20
196.1804462047711013
 30
0.0
 40
0.1070000153058211
 50
297.0879449099007843
 51
333.703045946485986
  0
ARC
  5
B724
  8
0
 10
4352.30601868629401
 20
196.1825803638791115
 30
0.0
 40
0.1118172743380207
 50
333.7030459464849059
 51
2.559412995271769
  0
ARC
  5
B725
  8
0
 10
4352.3216554595383059
 20
196.1832793263832002
 30
0.0
 40
0.0961648871056914
 50
2.559412995271769
 51
22.2854267372977795
  0
ARC
  5
B726
  8
0
 10
4352.2321929033460037
 20
196.1466146377844098
 30
0.0
 40
0.1928491585800036
 50
22.2854267372977795
 51
24.4383160638148489
  0
ARC
  5
B727
  8
0
 10
4352.2485374108473479
 20
196.2141745080004114
 30
0.0
 40
0.0293934443056747
 50
177.1090770527715961
 51
236.8810901364427934
  0
ARC
  5
B728
  8
0
 10
4352.2507154519444157
 20
196.2175132071425026
 30
0.0
 40
0.0333797677975816
 50
236.8810901364427934
 51
290.5199771733105081
  0
ARC
  5
B729
  8
0
 10
4352.2516679876925991
 20
196.2148831025407105
 30
0.0
 40
0.03058266170877
 50
290.5758882875582003
 51
349.7261774160068057
  0
ARC
  5
B72A
  8
0
 10
4352.2543160397990505
 20
196.2144031196133085
 30
0.0
 40
0.0278914605698114
 50
349.7261774160052141
 51
46.9708779320916605
  0
ARC
  5
B72B
  8
0
 10
4352.2503932864829039
 20
196.2102007660733136
 30
0.0
 40
0.0336401794577519
 50
46.9708779320916605
 51
111.938139913538194
  0
ARC
  5
B72C
  8
0
 10
4352.2489831896891701
 20
196.213701756092803
 30
0.0
 40
0.029865884280092
 50
111.9381399135375972
 51
176.2463861921669945
  0
ARC
  5
B72D
  8
0
 10
4352.3506108186957135
 20
196.2141745080004114
 30
0.0
 40
0.0293934443056747
 50
177.1090770527715961
 51
236.8810901364427934
  0
ARC
  5
B72E
  8
0
 10
4352.3527888597936908
 20
196.2175132071425026
 30
0.0
 40
0.0333797677975816
 50
236.8810901364427934
 51
290.5199771733105081
  0
ARC
  5
B72F
  8
0
 10
4352.3537413955427837
 20
196.2148831025407105
 30
0.0
 40
0.03058266170877
 50
290.5758882875582003
 51
349.7261774160068057
  0
ARC
  5
B730
  8
0
 10
4352.3563894476492351
 20
196.2144031196133085
 30
0.0
 40
0.0278914605698114
 50
349.7261774160052141
 51
46.9708779320916605
  0
ARC
  5
B731
  8
0
 10
4352.3524666943330885
 20
196.2102007660733136
 30
0.0
 40
0.0336401794577519
 50
46.9708779320916605
 51
111.938139913538194
  0
ARC
  5
B732
  8
0
 10
4352.3510565975384452
 20
196.213701756092803
 30
0.0
 40
0.029865884280092
 50
111.9381399135375972
 51
176.2463861921669945
  0
ARC
  5
B733
  8
0
 10
4352.2997365569472095
 20
196.1299398562543104
 30
0.0
 40
0.0293934443056747
 50
177.1090770527715961
 51
236.8810901364427934
  0
ARC
  5
B734
  8
0
 10
4352.3019145980442772
 20
196.1332785553964868
 30
0.0
 40
0.0333797677975816
 50
236.8810901364427934
 51
290.5199771733105081
  0
ARC
  5
B735
  8
0
 10
4352.3028671337933702
 20
196.1306484507946948
 30
0.0
 40
0.03058266170877
 50
290.5758882875582003
 51
349.7261774160068057
  0
ARC
  5
B736
  8
0
 10
4352.305515185898912
 20
196.1301684678672075
 30
0.0
 40
0.0278914605698114
 50
349.7261774160052141
 51
46.9708779320916605
  0
ARC
  5
B737
  8
0
 10
4352.301592432583675
 20
196.1259661143272126
 30
0.0
 40
0.0336401794577519
 50
46.9708779320916605
 51
111.938139913538194
  0
ARC
  5
B738
  8
0
 10
4352.3001823357890316
 20
196.1294671043467019
 30
0.0
 40
0.029865884280092
 50
111.9381399135375972
 51
176.2463861921669945
  0
ARC
  5
B739
  8
0
 10
4352.7280972541111623
 20
196.6010534957073901
 30
0.0
 40
0.1002033027112655
 50
124.5419305103938967
 51
181.5063052829532921
  0
ARC
  5
B73A
  8
0
 10
4352.7347910271273577
 20
196.5743618658192986
 30
0.0
 40
0.1263517351656761
 50
55.005914148867241
 51
120.1750940493389948
  0
ARC
  5
B73B
  8
0
 10
4352.7455748219008456
 20
196.6026782242587956
 30
0.0
 40
0.0972525622231571
 50
348.4672101682724019
 51
50.6390776878054183
  0
ARC
  5
B73C
  8
0
 10
4352.7390322378778365
 20
196.6040132277211114
 30
0.0
 40
0.1039299599148467
 50
286.3214645845670816
 51
348.4672101682724019
  0
ARC
  5
B73D
  8
0
 10
4352.7358805855701576
 20
196.6147760688245114
 30
0.0
 40
0.1151447564306994
 50
235.0224312196214953
 51
286.3214645845670816
  0
ARC
  5
B73E
  8
0
 10
4352.72575705791769
 20
196.6003061192311918
 30
0.0
 40
0.0974850493737464
 50
198.5927093719159018
 51
235.0224312196214953
  0
ARC
  5
B73F
  8
0
 10
4352.733802345787808
 20
196.6030125181123083
 30
0.0
 40
0.105973350252981
 50
182.484073162977694
 51
198.5927093719159018
  0
ARC
  5
B740
  8
0
 10
4352.7315221999906498
 20
196.5801874001116971
 30
0.0
 40
0.1195560771582622
 50
120.9510838247862949
 51
144.8567241156025887
  0
ARC
  5
B741
  8
0
 10
4352.719929853924441
 20
196.5883477249770976
 30
0.0
 40
0.1053795687990776
 50
144.856724115583603
 51
180.7810472396618877
  0
ARC
  5
B742
  8
0
 10
4352.7297815449001064
 20
196.5884820300300078
 30
0.0
 40
0.1152321752025376
 50
180.7810472396618877
 51
216.9818127922409019
  0
ARC
  5
B743
  8
0
 10
4352.7314559687220026
 20
196.5897429657630084
 30
0.0
 40
0.1173282796991973
 50
216.9818127922409019
 51
253.6379293784025037
  0
ARC
  5
B744
  8
0
 10
4352.7372234664981079
 20
196.609387245209291
 30
0.0
 40
0.1378017197021016
 50
253.6379293784025037
 51
272.7510568763784136
  0
ARC
  5
B745
  8
0
 10
4352.7381442419600717
 20
196.5902251552813027
 30
0.0
 40
0.1186175200091823
 50
272.7510568763784136
 51
303.197599834927928
  0
ARC
  5
B746
  8
0
 10
4352.7371633758803
 20
196.591724212818292
 30
0.0
 40
0.1204089640541783
 50
303.1975998349265069
 51
338.8071427335249837
  0
ARC
  5
B747
  8
0
 10
4352.753187937826624
 20
196.5855109929885032
 30
0.0
 40
0.1032220304626262
 50
338.8071427335249837
 51
18.835496017496471
  0
ARC
  5
B748
  8
0
 10
4352.7295498768871767
 20
196.5774475957479979
 30
0.0
 40
0.128197544473104
 50
18.835496017496471
 51
37.4732365337072721
  0
ARC
  5
B749
  8
0
 10
4352.7527508294406289
 20
196.5952331005792928
 30
0.0
 40
0.0989638587407726
 50
37.4732365337066327
 51
56.437811906266603
  0
ARC
  5
B74A
  8
0
 10
4352.7303984679683708
 20
196.5958331313956933
 30
0.0
 40
0.1112216634211518
 50
155.558273182981992
 51
195.6610501986174029
  0
ARC
  5
B74B
  8
0
 10
4352.7259281167180234
 20
196.5945798507665927
 30
0.0
 40
0.1065789537992331
 50
195.6610501986174029
 51
239.0575269514361878
  0
ARC
  5
B74C
  8
0
 10
4352.7395838096190346
 20
196.6173585141065985
 30
0.0
 40
0.1331372943385255
 50
239.0575269514361878
 51
259.4184630893324766
  0
ARC
  5
B74D
  8
0
 10
4352.7337011122217518
 20
196.585868480736508
 30
0.0
 40
0.1011024955981498
 50
259.4184630893324766
 51
272.1792325898640001
  0
ARC
  5
B74E
  8
0
 10
4352.7325367372395704
 20
196.6164671415006069
 30
0.0
 40
0.131723302407511
 50
272.1792325898640001
 51
297.0879449099007843
  0
ARC
  5
B74F
  8
0
 10
4352.7437946738073151
 20
196.5944557855821131
 30
0.0
 40
0.1070000153058211
 50
297.0879449099007843
 51
333.703045946485986
  0
ARC
  5
B750
  8
0
 10
4352.7394759529897783
 20
196.5965899446900949
 30
0.0
 40
0.1118172743380207
 50
333.7030459464849059
 51
2.559412995271769
  0
ARC
  5
B751
  8
0
 10
4352.7551127262340742
 20
196.597288907194212
 30
0.0
 40
0.0961648871056914
 50
2.559412995271769
 51
22.2854267372977795
  0
ARC
  5
B752
  8
0
 10
4352.6656501700426816
 20
196.5606242185953079
 30
0.0
 40
0.1928491585800036
 50
22.2854267372977795
 51
24.4383160638148489
  0
ARC
  5
B753
  8
0
 10
4352.7039415374547389
 20
196.6645546881692042
 30
0.0
 40
0.0293934443056747
 50
177.1090770527715961
 51
236.8810901364427934
  0
ARC
  5
B754
  8
0
 10
4352.7061195785508971
 20
196.667893387311409
 30
0.0
 40
0.0333797677975816
 50
236.8810901364427934
 51
290.5199771733105081
  0
ARC
  5
B755
  8
0
 10
4352.7070721143008996
 20
196.6652632827095886
 30
0.0
 40
0.03058266170877
 50
290.5758882875582003
 51
349.7261774160068057
  0
ARC
  5
B756
  8
0
 10
4352.7097201664082604
 20
196.6647832997819876
 30
0.0
 40
0.0278914605698114
 50
349.7261774160052141
 51
46.9708779320916605
  0
ARC
  5
B757
  8
0
 10
4352.7057974130912044
 20
196.6605809462421064
 30
0.0
 40
0.0336401794577519
 50
46.9708779320916605
 51
111.938139913538194
  0
ARC
  5
B758
  8
0
 10
4352.7043873162956515
 20
196.6640819362615957
 30
0.0
 40
0.029865884280092
 50
111.9381399135375972
 51
176.2463861921669945
  0
ARC
  5
B759
  8
0
 10
4352.7043026853880292
 20
196.5635202155135062
 30
0.0
 40
0.0293934443056747
 50
177.1090770527715961
 51
236.8810901364427934
  0
ARC
  5
B75A
  8
0
 10
4352.7064807264860065
 20
196.5668589146555973
 30
0.0
 40
0.0333797677975816
 50
236.8810901364427934
 51
290.5199771733105081
  0
ARC
  5
B75B
  8
0
 10
4352.7074332622350994
 20
196.5642288100538053
 30
0.0
 40
0.03058266170877
 50
290.5758882875582003
 51
349.7261774160068057
  0
ARC
  5
B75C
  8
0
 10
4352.7100813143406413
 20
196.5637488271262896
 30
0.0
 40
0.0278914605698114
 50
349.7261774160052141
 51
46.9708779320916605
  0
ARC
  5
B75D
  8
0
 10
4352.7061585610263137
 20
196.5595464735864084
 30
0.0
 40
0.0336401794577519
 50
46.9708779320916605
 51
111.938139913538194
  0
ARC
  5
B75E
  8
0
 10
4352.7047484642307609
 20
196.5630474636058977
 30
0.0
 40
0.029865884280092
 50
111.9381399135375972
 51
176.2463861921669945
  0
ARC
  5
B75F
  8
0
 10
4352.7931453778937794
 20
196.6133157800248057
 30
0.0
 40
0.0293934443056747
 50
177.1090770527715961
 51
236.8810901364427934
  0
ARC
  5
B760
  8
0
 10
4352.7953234189908471
 20
196.6166544791668969
 30
0.0
 40
0.0333797677975816
 50
236.8810901364427934
 51
290.5199771733105081
  0
ARC
  5
B761
  8
0
 10
4352.7962759547399401
 20
196.6140243745651048
 30
0.0
 40
0.03058266170877
 50
290.5758882875582003
 51
349.7261774160068057
  0
ARC
  5
B762
  8
0
 10
4352.7989240068463914
 20
196.6135443916375891
 30
0.0
 40
0.0278914605698114
 50
349.7261774160052141
 51
46.9708779320916605
  0
ARC
  5
B763
  8
0
 10
4352.7950012535311544
 20
196.6093420380977079
 30
0.0
 40
0.0336401794577519
 50
46.9708779320916605
 51
111.938139913538194
  0
ARC
  5
B764
  8
0
 10
4352.793591156734692
 20
196.6128430281171973
 30
0.0
 40
0.029865884280092
 50
111.9381399135375972
 51
176.2463861921669945
  0
ARC
  5
B765
  8
0
 10
4353.1733890135001275
 20
196.187043914896492
 30
0.0
 40
0.1002033027112655
 50
358.4936947170465942
 51
55.458069489606082
  0
ARC
  5
B766
  8
0
 10
4353.1666952404830226
 20
196.1603522850082868
 30
0.0
 40
0.1263517351656761
 50
59.8249059506610266
 51
124.9940858511327946
  0
ARC
  5
B767
  8
0
 10
4353.1559114457104442
 20
196.1886686434478122
 30
0.0
 40
0.0972525622231571
 50
129.3609223121945035
 51
191.5327898317275128
  0
ARC
  5
B768
  8
0
 10
4353.1624540297334534
 20
196.1900036469100996
 30
0.0
 40
0.1039299599148467
 50
191.5327898317275128
 51
253.6785354154328047
  0
ARC
  5
B769
  8
0
 10
4353.1656056820411322
 20
196.2007664880136133
 30
0.0
 40
0.1151447564306994
 50
253.6785354154328047
 51
304.9775687803784763
  0
ARC
  5
B76A
  8
0
 10
4353.1757292096908714
 20
196.1862965384202084
 30
0.0
 40
0.0974850493737464
 50
304.9775687803557958
 51
341.407290628083615
  0
ARC
  5
B76B
  8
0
 10
4353.1676839218207533
 20
196.1890029373012965
 30
0.0
 40
0.105973350252981
 50
341.407290628083615
 51
357.5159268370205723
  0
ARC
  5
B76C
  8
0
 10
4353.1699640676197305
 20
196.166177819300799
 30
0.0
 40
0.1195560771582622
 50
35.1432758843974113
 51
59.048916175213698
  0
ARC
  5
B76D
  8
0
 10
4353.1815564136868488
 20
196.1743381441660858
 30
0.0
 40
0.1053795687990776
 50
359.218952760338027
 51
35.143275884416397
  0
ARC
  5
B76E
  8
0
 10
4353.1717047227102739
 20
196.1744724492191096
 30
0.0
 40
0.1152321752025376
 50
323.0181872077586718
 51
359.2189527603363786
  0
ARC
  5
B76F
  8
0
 10
4353.1700302988892872
 20
196.1757333849519966
 30
0.0
 40
0.1173282796991973
 50
286.3620706215975247
 51
323.0181872077586718
  0
ARC
  5
B770
  8
0
 10
4353.1642628011131819
 20
196.1953776643983076
 30
0.0
 40
0.1378017197021016
 50
267.2489431236217001
 51
286.3620706215975247
  0
ARC
  5
B771
  8
0
 10
4353.1633420256512181
 20
196.1762155744704046
 30
0.0
 40
0.1186175200091823
 50
236.8024001650721004
 51
267.2489431236217001
  0
ARC
  5
B772
  8
0
 10
4353.1643228917309898
 20
196.1777146320073939
 30
0.0
 40
0.1204089640541783
 50
201.1928572664749879
 51
236.8024001650721004
  0
ARC
  5
B773
  8
0
 10
4353.1482983297828468
 20
196.1715014121774061
 30
0.0
 40
0.1032220304626262
 50
161.1645039825035042
 51
201.1928572664749879
  0
ARC
  5
B774
  8
0
 10
4353.1719363907232037
 20
196.1634380149369861
 30
0.0
 40
0.128197544473104
 50
142.5267634662926923
 51
161.1645039825035042
  0
ARC
  5
B775
  8
0
 10
4353.1487354381688419
 20
196.1812235197683094
 30
0.0
 40
0.0989638587407726
 50
123.562188093733397
 51
142.5267634662934029
  0
ARC
  5
B776
  8
0
 10
4353.171087799642919
 20
196.1818235505847099
 30
0.0
 40
0.1112216634211518
 50
344.3389498013825119
 51
24.4417268170186794
  0
ARC
  5
B777
  8
0
 10
4353.1755581508932664
 20
196.1805702699556093
 30
0.0
 40
0.1065789537992331
 50
300.9424730485637269
 51
344.3389498013825119
  0
ARC
  5
B778
  8
0
 10
4353.1619024579904362
 20
196.2033489332955867
 30
0.0
 40
0.1331372943385255
 50
280.5815369106675234
 51
300.9424730485637269
  0
ARC
  5
B779
  8
0
 10
4353.1677851553886285
 20
196.1718588999254962
 30
0.0
 40
0.1011024955981498
 50
267.8207674101359999
 51
280.5815369106675234
  0
ARC
  5
B77A
  8
0
 10
4353.1689495303699005
 20
196.2024575606895951
 30
0.0
 40
0.131723302407511
 50
242.9120550900991873
 51
267.8207674101359999
  0
ARC
  5
B77B
  8
0
 10
4353.1576915938030652
 20
196.1804462047711013
 30
0.0
 40
0.1070000153058211
 50
206.296954053514014
 51
242.9120550900991873
  0
ARC
  5
B77C
  8
0
 10
4353.162010314618783
 20
196.1825803638791115
 30
0.0
 40
0.1118172743380207
 50
177.4405870047282008
 51
206.2969540535150941
  0
ARC
  5
B77D
  8
0
 10
4353.1463735413753966
 20
196.1832793263832002
 30
0.0
 40
0.0961648871056914
 50
157.7145732627022028
 51
177.4405870047282008
  0
ARC
  5
B77E
  8
0
 10
4353.2358360975667892
 20
196.1466146377844098
 30
0.0
 40
0.1928491585800036
 50
155.5616839361850907
 51
157.7145732627022028
  0
ARC
  5
B77F
  8
0
 10
4353.2194915900663545
 20
196.2141745080004114
 30
0.0
 40
0.0293934443056747
 50
303.1189098635343271
 51
2.890922947228395
  0
ARC
  5
B780
  8
0
 10
4353.2173135489692868
 20
196.2175132071425026
 30
0.0
 40
0.0333797677975816
 50
249.480022826689293
 51
303.1189098635343271
  0
ARC
  5
B781
  8
0
 10
4353.2163610132201939
 20
196.2148831025407105
 30
0.0
 40
0.03058266170877
 50
190.2738225839931943
 51
249.4241117124417997
  0
ARC
  5
B782
  8
0
 10
4353.213712961112833
 20
196.2144031196133085
 30
0.0
 40
0.0278914605698114
 50
133.029122067908304
 51
190.2738225839931943
  0
ARC
  5
B783
  8
0
 10
4353.217635714429889
 20
196.2102007660733136
 30
0.0
 40
0.0336401794577519
 50
68.0618600864618344
 51
133.029122067908304
  0
ARC
  5
B784
  8
0
 10
4353.2190458112254419
 20
196.213701756092803
 30
0.0
 40
0.029865884280092
 50
3.753613807833009
 51
68.0618600864624455
  0
ARC
  5
B785
  8
0
 10
4353.1174181822170794
 20
196.2141745080004114
 30
0.0
 40
0.0293934443056747
 50
303.1189098635343271
 51
2.890922947228395
  0
ARC
  5
B786
  8
0
 10
4353.1152401411200117
 20
196.2175132071425026
 30
0.0
 40
0.0333797677975816
 50
249.480022826689293
 51
303.1189098635343271
  0
ARC
  5
B787
  8
0
 10
4353.1142876053718282
 20
196.2148831025407105
 30
0.0
 40
0.03058266170877
 50
190.2738225839931943
 51
249.4241117124417997
  0
ARC
  5
B788
  8
0
 10
4353.1116395532635579
 20
196.2144031196133085
 30
0.0
 40
0.0278914605698114
 50
133.029122067908304
 51
190.2738225839931943
  0
ARC
  5
B789
  8
0
 10
4353.1155623065797045
 20
196.2102007660733136
 30
0.0
 40
0.0336401794577519
 50
68.0618600864618344
 51
133.029122067908304
  0
ARC
  5
B78A
  8
0
 10
4353.1169724033761668
 20
196.213701756092803
 30
0.0
 40
0.029865884280092
 50
3.753613807833009
 51
68.0618600864624455
  0
ARC
  5
B78B
  8
0
 10
4353.1682924439655835
 20
196.1299398562543104
 30
0.0
 40
0.0293934443056747
 50
303.1189098635343271
 51
2.890922947228395
  0
ARC
  5
B78C
  8
0
 10
4353.1661144028703347
 20
196.1332785553964868
 30
0.0
 40
0.0333797677975816
 50
249.480022826689293
 51
303.1189098635343271
  0
ARC
  5
B78D
  8
0
 10
4353.1651618671212418
 20
196.1306484507946948
 30
0.0
 40
0.03058266170877
 50
190.2738225839931943
 51
249.4241117124417997
  0
ARC
  5
B78E
  8
0
 10
4353.1625138150129715
 20
196.1301684678672075
 30
0.0
 40
0.0278914605698114
 50
133.029122067908304
 51
190.2738225839931943
  0
ARC
  5
B78F
  8
0
 10
4353.166436568329118
 20
196.1259661143272126
 30
0.0
 40
0.0336401794577519
 50
68.0618600864618344
 51
133.029122067908304
  0
ARC
  5
B790
  8
0
 10
4353.1678466651246708
 20
196.1294671043467019
 30
0.0
 40
0.029865884280092
 50
3.753613807833009
 51
68.0618600864624455
  0
CIRCLE
  5
B791
  8
0
 10
4351.8414199542030474
 20
195.5127940300268108
 30
0.0
 40
0.0205304792644862
  0
ARC
  5
B792
  8
0
 10
4351.8417129965755521
 20
195.5087065737241971
 30
0.0
 40
0.0539231983359853
 50
89.8094180999212455
 51
140.8410034747141992
  0
ARC
  5
B793
  8
0
 10
4351.8366828240914401
 20
195.5128030914758881
 30
0.0
 40
0.0474359729714951
 50
140.8410034747141992
 51
197.6113948932832045
  0
ARC
  5
B794
  8
0
 10
4351.8399669719037774
 20
195.5138456034445937
 30
0.0
 40
0.0508816163172491
 50
197.6113948932832045
 51
260.2544862279569884
  0
ARC
  5
B795
  8
0
 10
4351.840919108084563
 20
195.5193893103106859
 30
0.0
 40
0.0565064940159941
 50
260.2544862279569884
 51
319.3278696966008283
  0
ARC
  5
B796
  8
0
 10
4351.8493562273197313
 20
195.5121393801308898
 30
0.0
 40
0.0453823550121126
 50
319.3278696965990093
 51
21.8530125248909783
  0
ARC
  5
B797
  8
0
 10
4351.8414042556241839
 20
195.5089502806677046
 30
0.0
 40
0.0539499806587942
 50
21.8530125248909783
 51
66.6332104919484749
  0
ARC
  5
B798
  8
0
 10
4351.8426838836076058
 20
195.5119120353078017
 30
0.0
 40
0.050723614541077
 50
66.6332104919484749
 51
90.8941161585597541
  0
ARC
  5
B799
  8
0
 10
4351.8583900737985459
 20
195.5348915604006095
 30
0.0
 40
0.0972815164838136
 50
139.7839921420689961
 51
196.4084227874623139
  0
ARC
  5
B79A
  8
0
 10
4351.8479101187049309
 20
195.543752829259887
 30
0.0
 40
0.0835573937579416
 50
74.4903225434958927
 51
139.7839921420689961
  0
ARC
  5
B79B
  8
0
 10
4351.8444932979191435
 20
195.5314402475800932
 30
0.0
 40
0.0963352782426742
 50
21.2684604533323203
 51
74.4903225434958927
  0
ARC
  5
B79C
  8
0
 10
4351.8570777587183329
 20
195.5363387451533015
 30
0.0
 40
0.0828310591957271
 50
328.6357032221296208
 51
21.2684604533304196
  0
ARC
  5
B79D
  8
0
 10
4351.847242169819765
 20
195.5423340049293017
 30
0.0
 40
0.0943498242658056
 50
273.5338924804140106
 51
328.6357032221296208
  0
ARC
  5
B79E
  8
0
 10
4351.8475690142486201
 20
195.5370415254197951
 30
0.0
 40
0.0890472619947315
 50
222.1684652373591007
 51
273.5338924804140106
  0
ARC
  5
B79F
  8
0
 10
4351.8362126630381681
 20
195.5267555986031027
 30
0.0
 40
0.073725153677034
 50
195.2116168102311917
 51
222.1684652373591007
  0
CIRCLE
  5
B7A0
  8
0
 10
4351.6394845206241371
 20
195.8484756860698042
 30
0.0
 40
0.0205304792644862
  0
ARC
  5
B7A1
  8
0
 10
4351.6397775629957323
 20
195.8443882297671905
 30
0.0
 40
0.0539231983359853
 50
89.8094180999212455
 51
140.8410034747141992
  0
ARC
  5
B7A2
  8
0
 10
4351.6347473905107108
 20
195.8484847475187962
 30
0.0
 40
0.0474359729714951
 50
140.8410034747141992
 51
197.6113948932832045
  0
ARC
  5
B7A3
  8
0
 10
4351.6380315383239576
 20
195.8495272594875019
 30
0.0
 40
0.0508816163172491
 50
197.6113948932832045
 51
260.2544862279569884
  0
ARC
  5
B7A4
  8
0
 10
4351.6389836745047432
 20
195.8550709663537077
 30
0.0
 40
0.0565064940159941
 50
260.2544862279569884
 51
319.3278696966008283
  0
ARC
  5
B7A5
  8
0
 10
4351.647420793739002
 20
195.8478210361737979
 30
0.0
 40
0.0453823550121126
 50
319.3278696965990093
 51
21.8530125248909783
  0
ARC
  5
B7A6
  8
0
 10
4351.6394688220443641
 20
195.844631936710698
 30
0.0
 40
0.0539499806587942
 50
21.8530125248909783
 51
66.6332104919484749
  0
ARC
  5
B7A7
  8
0
 10
4351.640748450027786
 20
195.8475936913507098
 30
0.0
 40
0.050723614541077
 50
66.6332104919484749
 51
90.8941161585597541
  0
ARC
  5
B7A8
  8
0
 10
4351.6564546402196356
 20
195.8705732164436029
 30
0.0
 40
0.0972815164838136
 50
139.7839921420689961
 51
196.4084227874623139
  0
ARC
  5
B7A9
  8
0
 10
4351.6459746851251111
 20
195.8794344853029088
 30
0.0
 40
0.0835573937579416
 50
74.4903225434958927
 51
139.7839921420689961
  0
ARC
  5
B7AA
  8
0
 10
4351.6425578643393237
 20
195.8671219036230866
 30
0.0
 40
0.0963352782426742
 50
21.2684604533323203
 51
74.4903225434958927
  0
ARC
  5
B7AB
  8
0
 10
4351.6551423251376036
 20
195.8720204011962949
 30
0.0
 40
0.0828310591957271
 50
328.6357032221296208
 51
21.2684604533304196
  0
ARC
  5
B7AC
  8
0
 10
4351.6453067362408547
 20
195.8780156609722951
 30
0.0
 40
0.0943498242658056
 50
273.5338924804140106
 51
328.6357032221296208
  0
ARC
  5
B7AD
  8
0
 10
4351.6456335806688003
 20
195.8727231814627032
 30
0.0
 40
0.0890472619947315
 50
222.1684652373591007
 51
273.5338924804140106
  0
ARC
  5
B7AE
  8
0
 10
4351.6342772294583483
 20
195.8624372546460108
 30
0.0
 40
0.073725153677034
 50
195.2116168102311917
 51
222.1684652373591007
  0
CIRCLE
  5
B7AF
  8
0
 10
4351.6374071918817208
 20
196.6070143324218122
 30
0.0
 40
0.0205304792644862
  0
ARC
  5
B7B0
  8
0
 10
4351.637700234255135
 20
196.6029268761191986
 30
0.0
 40
0.0539231983359853
 50
89.8094180999212455
 51
140.8410034747141992
  0
ARC
  5
B7B1
  8
0
 10
4351.632670061769204
 20
196.6070233938708895
 30
0.0
 40
0.0474359729714951
 50
140.8410034747141992
 51
197.6113948932832045
  0
ARC
  5
B7B2
  8
0
 10
4351.6359542095833604
 20
196.6080659058395952
 30
0.0
 40
0.0508816163172491
 50
197.6113948932832045
 51
260.2544862279569884
  0
ARC
  5
B7B3
  8
0
 10
4351.636906345764146
 20
196.6136096127056874
 30
0.0
 40
0.0565064940159941
 50
260.2544862279569884
 51
319.3278696966008283
  0
ARC
  5
B7B4
  8
0
 10
4351.6453434649984047
 20
196.6063596825258912
 30
0.0
 40
0.0453823550121126
 50
319.3278696965990093
 51
21.8530125248909783
  0
ARC
  5
B7B5
  8
0
 10
4351.6373914933019478
 20
196.6031705830627061
 30
0.0
 40
0.0539499806587942
 50
21.8530125248909783
 51
66.6332104919484749
  0
ARC
  5
B7B6
  8
0
 10
4351.6386711212871887
 20
196.6061323377028032
 30
0.0
 40
0.050723614541077
 50
66.6332104919484749
 51
90.8941161585597541
  0
ARC
  5
B7B7
  8
0
 10
4351.6543773114781288
 20
196.6291118627956109
 30
0.0
 40
0.0972815164838136
 50
139.7839921420689961
 51
196.4084227874623139
  0
ARC
  5
B7B8
  8
0
 10
4351.6438973563836043
 20
196.6379731316550021
 30
0.0
 40
0.0835573937579416
 50
74.4903225434958927
 51
139.7839921420689961
  0
ARC
  5
B7B9
  8
0
 10
4351.6404805355978169
 20
196.6256605499752084
 30
0.0
 40
0.0963352782426742
 50
21.2684604533323203
 51
74.4903225434958927
  0
ARC
  5
B7BA
  8
0
 10
4351.6530649963970063
 20
196.6305590475483029
 30
0.0
 40
0.0828310591957271
 50
328.6357032221296208
 51
21.2684604533304196
  0
ARC
  5
B7BB
  8
0
 10
4351.6432294074993479
 20
196.6365543073241895
 30
0.0
 40
0.0943498242658056
 50
273.5338924804140106
 51
328.6357032221296208
  0
ARC
  5
B7BC
  8
0
 10
4351.643556251928203
 20
196.6312618278147966
 30
0.0
 40
0.0890472619947315
 50
222.1684652373591007
 51
273.5338924804140106
  0
ARC
  5
B7BD
  8
0
 10
4351.632199900715932
 20
196.6209759009981042
 30
0.0
 40
0.073725153677034
 50
195.2116168102311917
 51
222.1684652373591007
  0
CIRCLE
  5
B7BE
  8
0
 10
4351.8370970711139307
 20
196.9420213734969138
 30
0.0
 40
0.0205304792644862
  0
ARC
  5
B7BF
  8
0
 10
4351.8373901134882544
 20
196.9379339171943002
 30
0.0
 40
0.0539231983359853
 50
89.8094180999212455
 51
140.8410034747141992
  0
ARC
  5
B7C0
  8
0
 10
4351.8323599410023235
 20
196.9420304349459911
 30
0.0
 40
0.0474359729714951
 50
140.8410034747141992
 51
197.6113948932832045
  0
ARC
  5
B7C1
  8
0
 10
4351.8356440888146608
 20
196.9430729469146968
 30
0.0
 40
0.0508816163172491
 50
197.6113948932832045
 51
260.2544862279569884
  0
ARC
  5
B7C2
  8
0
 10
4351.8365962249972654
 20
196.9486166537809027
 30
0.0
 40
0.0565064940159941
 50
260.2544862279569884
 51
319.3278696966008283
  0
ARC
  5
B7C3
  8
0
 10
4351.8450333442306146
 20
196.9413667236009928
 30
0.0
 40
0.0453823550121126
 50
319.3278696965990093
 51
21.8530125248909783
  0
ARC
  5
B7C4
  8
0
 10
4351.8370813725350672
 20
196.938177624137893
 30
0.0
 40
0.0539499806587942
 50
21.8530125248909783
 51
66.6332104919484749
  0
ARC
  5
B7C5
  8
0
 10
4351.8383610005203082
 20
196.9411393787779048
 30
0.0
 40
0.050723614541077
 50
66.6332104919484749
 51
90.8941161585597541
  0
ARC
  5
B7C6
  8
0
 10
4351.8540671907121578
 20
196.9641189038707125
 30
0.0
 40
0.0972815164838136
 50
139.7839921420689961
 51
196.4084227874623139
  0
ARC
  5
B7C7
  8
0
 10
4351.8435872356167238
 20
196.9729801727301037
 30
0.0
 40
0.0835573937579416
 50
74.4903225434958927
 51
139.7839921420689961
  0
ARC
  5
B7C8
  8
0
 10
4351.8401704148300269
 20
196.96066759105031
 30
0.0
 40
0.0963352782426742
 50
21.2684604533323203
 51
74.4903225434958927
  0
ARC
  5
B7C9
  8
0
 10
4351.8527548756292163
 20
196.9655660886234045
 30
0.0
 40
0.0828310591957271
 50
328.6357032221296208
 51
21.2684604533304196
  0
ARC
  5
B7CA
  8
0
 10
4351.8429192867315578
 20
196.9715613483994048
 30
0.0
 40
0.0943498242658056
 50
273.5338924804140106
 51
328.6357032221296208
  0
ARC
  5
B7CB
  8
0
 10
4351.8432461311604129
 20
196.9662688688898982
 30
0.0
 40
0.0890472619947315
 50
222.1684652373591007
 51
273.5338924804140106
  0
ARC
  5
B7CC
  8
0
 10
4351.8318897799499609
 20
196.9559829420732058
 30
0.0
 40
0.073725153677034
 50
195.2116168102311917
 51
222.1684652373591007
  0
CIRCLE
  5
B7CD
  8
0
 10
4352.5327549371268105
 20
197.3203291956884868
 30
0.0
 40
0.0205304792644862
  0
ARC
  5
B7CE
  8
0
 10
4352.5330479795011343
 20
197.3162417393857879
 30
0.0
 40
0.0539231983359853
 50
89.8094180999212455
 51
140.8410034747141992
  0
ARC
  5
B7CF
  8
0
 10
4352.5280178070152033
 20
197.3203382571375073
 30
0.0
 40
0.0474359729714951
 50
140.8410034747141992
 51
197.6113948932832045
  0
ARC
  5
B7D0
  8
0
 10
4352.5313019548293596
 20
197.3213807691062129
 30
0.0
 40
0.0508816163172491
 50
197.6113948932832045
 51
260.2544862279569884
  0
ARC
  5
B7D1
  8
0
 10
4352.5322540910092357
 20
197.3269244759723904
 30
0.0
 40
0.0565064940159941
 50
260.2544862279569884
 51
319.3278696966008283
  0
ARC
  5
B7D2
  8
0
 10
4352.5406912102425849
 20
197.3196745457925942
 30
0.0
 40
0.0453823550121126
 50
319.3278696965990093
 51
21.8530125248909783
  0
ARC
  5
B7D3
  8
0
 10
4352.5327392385488565
 20
197.3164854463292954
 30
0.0
 40
0.0539499806587942
 50
21.8530125248909783
 51
66.6332104919484749
  0
ARC
  5
B7D4
  8
0
 10
4352.5340188665322785
 20
197.3194472009693925
 30
0.0
 40
0.050723614541077
 50
66.6332104919484749
 51
90.8941161585597541
  0
ARC
  5
B7D5
  8
0
 10
4352.5497250567241281
 20
197.3424267260622003
 30
0.0
 40
0.0972815164838136
 50
139.7839921420689961
 51
196.4084227874623139
  0
ARC
  5
B7D6
  8
0
 10
4352.5392451016286941
 20
197.3512879949215915
 30
0.0
 40
0.0835573937579416
 50
74.4903225434958927
 51
139.7839921420689961
  0
ARC
  5
B7D7
  8
0
 10
4352.5358282808438162
 20
197.3389754132417977
 30
0.0
 40
0.0963352782426742
 50
21.2684604533323203
 51
74.4903225434958927
  0
ARC
  5
B7D8
  8
0
 10
4352.5484127416420961
 20
197.343873910815006
 30
0.0
 40
0.0828310591957271
 50
328.6357032221296208
 51
21.2684604533304196
  0
ARC
  5
B7D9
  8
0
 10
4352.5385771527453471
 20
197.3498691705908925
 30
0.0
 40
0.0943498242658056
 50
273.5338924804140106
 51
328.6357032221296208
  0
ARC
  5
B7DA
  8
0
 10
4352.5389039971742022
 20
197.3445766910813859
 30
0.0
 40
0.0890472619947315
 50
222.1684652373591007
 51
273.5338924804140106
  0
ARC
  5
B7DB
  8
0
 10
4352.5275476459619313
 20
197.3342907642646082
 30
0.0
 40
0.073725153677034
 50
195.2116168102311917
 51
222.1684652373591007
  0
CIRCLE
  5
B7DC
  8
0
 10
4352.9402102323556392
 20
195.1341040636727939
 30
0.0
 40
0.0205304792644862
  0
ARC
  5
B7DD
  8
0
 10
4352.9405032747290534
 20
195.1300166073702087
 30
0.0
 40
0.0539231983359853
 50
89.8094180999212455
 51
140.8410034747141992
  0
ARC
  5
B7DE
  8
0
 10
4352.9354731022431224
 20
195.134113125121786
 30
0.0
 40
0.0474359729714951
 50
140.8410034747141992
 51
197.6113948932832045
  0
ARC
  5
B7DF
  8
0
 10
4352.9387572500572787
 20
195.1351556370904916
 30
0.0
 40
0.0508816163172491
 50
197.6113948932832045
 51
260.2544862279569884
  0
ARC
  5
B7E0
  8
0
 10
4352.9397093862371548
 20
195.1406993439566975
 30
0.0
 40
0.0565064940159941
 50
260.2544862279569884
 51
319.3278696966008283
  0
ARC
  5
B7E1
  8
0
 10
4352.9481465054714135
 20
195.1334494137769013
 30
0.0
 40
0.0453823550121126
 50
319.3278696965990093
 51
21.8530125248909783
  0
ARC
  5
B7E2
  8
0
 10
4352.9401945337758661
 20
195.1302603143136025
 30
0.0
 40
0.0539499806587942
 50
21.8530125248909783
 51
66.6332104919484749
  0
ARC
  5
B7E3
  8
0
 10
4352.9414741617611071
 20
195.1332220689536996
 30
0.0
 40
0.050723614541077
 50
66.6332104919484749
 51
90.8941161585597541
  0
ARC
  5
B7E4
  8
0
 10
4352.9571803519520472
 20
195.1562015940465074
 30
0.0
 40
0.0972815164838136
 50
139.7839921420689961
 51
196.4084227874623139
  0
ARC
  5
B7E5
  8
0
 10
4352.9467003968584322
 20
195.1650628629058133
 30
0.0
 40
0.0835573937579416
 50
74.4903225434958927
 51
139.7839921420689961
  0
ARC
  5
B7E6
  8
0
 10
4352.9432835760708258
 20
195.1527502812261048
 30
0.0
 40
0.0963352782426742
 50
21.2684604533323203
 51
74.4903225434958927
  0
ARC
  5
B7E7
  8
0
 10
4352.9558680368700152
 20
195.157648778799313
 30
0.0
 40
0.0828310591957271
 50
328.6357032221296208
 51
21.2684604533304196
  0
ARC
  5
B7E8
  8
0
 10
4352.9460324479732662
 20
195.1636440385751996
 30
0.0
 40
0.0943498242658056
 50
273.5338924804140106
 51
328.6357032221296208
  0
ARC
  5
B7E9
  8
0
 10
4352.9463592924012119
 20
195.158351559065693
 30
0.0
 40
0.0890472619947315
 50
222.1684652373591007
 51
273.5338924804140106
  0
ARC
  5
B7EA
  8
0
 10
4352.9350029411898504
 20
195.1480656322488869
 30
0.0
 40
0.073725153677034
 50
195.2116168102311917
 51
222.1684652373591007
  0
CIRCLE
  5
B7EB
  8
0
 10
4352.5322554620643132
 20
195.1330366788023127
 30
0.0
 40
0.0205304792644862
  0
ARC
  5
B7EC
  8
0
 10
4352.5325485044368179
 20
195.1289492224996991
 30
0.0
 40
0.0539231983359853
 50
89.8094180999212455
 51
140.8410034747141992
  0
ARC
  5
B7ED
  8
0
 10
4352.5275183319499774
 20
195.13304574025139
 30
0.0
 40
0.0474359729714951
 50
140.8410034747141992
 51
197.6113948932832045
  0
ARC
  5
B7EE
  8
0
 10
4352.5308024797650432
 20
195.1340882522200957
 30
0.0
 40
0.0508816163172491
 50
197.6113948932832045
 51
260.2544862279569884
  0
ARC
  5
B7EF
  8
0
 10
4352.5317546159449194
 20
195.1396319590863015
 30
0.0
 40
0.0565064940159941
 50
260.2544862279569884
 51
319.3278696966008283
  0
ARC
  5
B7F0
  8
0
 10
4352.5401917351791781
 20
195.1323820289063917
 30
0.0
 40
0.0453823550121126
 50
319.3278696965990093
 51
21.8530125248909783
  0
ARC
  5
B7F1
  8
0
 10
4352.5322397634836307
 20
195.1291929294432066
 30
0.0
 40
0.0539499806587942
 50
21.8530125248909783
 51
66.6332104919484749
  0
ARC
  5
B7F2
  8
0
 10
4352.5335193914688716
 20
195.13215468408319
 30
0.0
 40
0.050723614541077
 50
66.6332104919484749
 51
90.8941161585597541
  0
ARC
  5
B7F3
  8
0
 10
4352.5492255816598117
 20
195.1551342091761114
 30
0.0
 40
0.0972815164838136
 50
139.7839921420689961
 51
196.4084227874623139
  0
ARC
  5
B7F4
  8
0
 10
4352.5387456265652872
 20
195.1639954780353889
 30
0.0
 40
0.0835573937579416
 50
74.4903225434958927
 51
139.7839921420689961
  0
ARC
  5
B7F5
  8
0
 10
4352.5353288057785903
 20
195.1516828963557089
 30
0.0
 40
0.0963352782426742
 50
21.2684604533323203
 51
74.4903225434958927
  0
ARC
  5
B7F6
  8
0
 10
4352.5479132665786892
 20
195.1565813939288034
 30
0.0
 40
0.0828310591957271
 50
328.6357032221296208
 51
21.2684604533304196
  0
ARC
  5
B7F7
  8
0
 10
4352.5380776776810308
 20
195.1625766537048037
 30
0.0
 40
0.0943498242658056
 50
273.5338924804140106
 51
328.6357032221296208
  0
ARC
  5
B7F8
  8
0
 10
4352.5384045221089764
 20
195.1572841741952971
 30
0.0
 40
0.0890472619947315
 50
222.1684652373591007
 51
273.5338924804140106
  0
ARC
  5
B7F9
  8
0
 10
4352.5270481708976149
 20
195.1469982473786047
 30
0.0
 40
0.073725153677034
 50
195.2116168102311917
 51
222.1684652373591007
  0
CIRCLE
  5
B7FA
  8
0
 10
4353.6348263810195931
 20
195.5127970480237991
 30
0.0
 40
0.0205304792644862
  0
ARC
  5
B7FB
  8
0
 10
4353.6351194233930073
 20
195.5087095917212139
 30
0.0
 40
0.0539231983359853
 50
89.8094180999212455
 51
140.8410034747141992
  0
ARC
  5
B7FC
  8
0
 10
4353.6300892509079858
 20
195.5128061094729048
 30
0.0
 40
0.0474359729714951
 50
140.8410034747141992
 51
197.6113948932832045
  0
ARC
  5
B7FD
  8
0
 10
4353.6333733987212327
 20
195.5138486214416105
 30
0.0
 40
0.0508816163172491
 50
197.6113948932832045
 51
260.2544862279569884
  0
ARC
  5
B7FE
  8
0
 10
4353.6343255349020183
 20
195.5193923283077879
 30
0.0
 40
0.0565064940159941
 50
260.2544862279569884
 51
319.3278696966008283
  0
ARC
  5
B7FF
  8
0
 10
4353.642762654136277
 20
195.5121423981279065
 30
0.0
 40
0.0453823550121126
 50
319.3278696965990093
 51
21.8530125248909783
  0
ARC
  5
B800
  8
0
 10
4353.6348106824398201
 20
195.508953298664693
 30
0.0
 40
0.0539499806587942
 50
21.8530125248909783
 51
66.6332104919484749
  0
ARC
  5
B801
  8
0
 10
4353.636090310425061
 20
195.51191505330479
 30
0.0
 40
0.050723614541077
 50
66.6332104919484749
 51
90.8941161585597541
  0
ARC
  5
B802
  8
0
 10
4353.6517965006160011
 20
195.5348945783975978
 30
0.0
 40
0.0972815164838136
 50
139.7839921420689961
 51
196.4084227874623139
  0
ARC
  5
B803
  8
0
 10
4353.6413165455223861
 20
195.543755847256989
 30
0.0
 40
0.0835573937579416
 50
74.4903225434958927
 51
139.7839921420689961
  0
ARC
  5
B804
  8
0
 10
4353.6378997247356892
 20
195.5314432655771952
 30
0.0
 40
0.0963352782426742
 50
21.2684604533323203
 51
74.4903225434958927
  0
ARC
  5
B805
  8
0
 10
4353.6504841855348786
 20
195.5363417631502898
 30
0.0
 40
0.0828310591957271
 50
328.6357032221296208
 51
21.2684604533304196
  0
ARC
  5
B806
  8
0
 10
4353.6406485966372202
 20
195.54233702292629
 30
0.0
 40
0.0943498242658056
 50
273.5338924804140106
 51
328.6357032221296208
  0
ARC
  5
B807
  8
0
 10
4353.6409754410660753
 20
195.5370445434168118
 30
0.0
 40
0.0890472619947315
 50
222.1684652373591007
 51
273.5338924804140106
  0
ARC
  5
B808
  8
0
 10
4353.6296190898538043
 20
195.526758616600091
 30
0.0
 40
0.073725153677034
 50
195.2116168102311917
 51
222.1684652373591007
  0
CIRCLE
  5
B809
  8
0
 10
4353.8337115897938929
 20
195.8459897708804078
 30
0.0
 40
0.0205304792644862
  0
ARC
  5
B80A
  8
0
 10
4353.8340046321673071
 20
195.8419023145777942
 30
0.0
 40
0.0539231983359853
 50
89.8094180999212455
 51
140.8410034747141992
  0
ARC
  5
B80B
  8
0
 10
4353.8289744596813762
 20
195.8459988323295136
 30
0.0
 40
0.0474359729714951
 50
140.8410034747141992
 51
197.6113948932832045
  0
ARC
  5
B80C
  8
0
 10
4353.832258607496442
 20
195.8470413442981908
 30
0.0
 40
0.0508816163172491
 50
197.6113948932832045
 51
260.2544862279569884
  0
ARC
  5
B80D
  8
0
 10
4353.8332107436763181
 20
195.8525850511643966
 30
0.0
 40
0.0565064940159941
 50
260.2544862279569884
 51
319.3278696966008283
  0
ARC
  5
B80E
  8
0
 10
4353.8416478629096673
 20
195.8453351209844868
 30
0.0
 40
0.0453823550121126
 50
319.3278696965990093
 51
21.8530125248909783
  0
ARC
  5
B80F
  8
0
 10
4353.8336958912150294
 20
195.8421460215213017
 30
0.0
 40
0.0539499806587942
 50
21.8530125248909783
 51
66.6332104919484749
  0
ARC
  5
B810
  8
0
 10
4353.8349755191993609
 20
195.8451077761613988
 30
0.0
 40
0.050723614541077
 50
66.6332104919484749
 51
90.8941161585597541
  0
ARC
  5
B811
  8
0
 10
4353.8506817093912105
 20
195.8680873012542065
 30
0.0
 40
0.0972815164838136
 50
139.7839921420689961
 51
196.4084227874623139
  0
ARC
  5
B812
  8
0
 10
4353.840201754294867
 20
195.8769485701135125
 30
0.0
 40
0.0835573937579416
 50
74.4903225434958927
 51
139.7839921420689961
  0
ARC
  5
B813
  8
0
 10
4353.8367849335099891
 20
195.8646359884336903
 30
0.0
 40
0.0963352782426742
 50
21.2684604533323203
 51
74.4903225434958927
  0
ARC
  5
B814
  8
0
 10
4353.849369394310088
 20
195.8695344860068985
 30
0.0
 40
0.0828310591957271
 50
328.6357032221296208
 51
21.2684604533304196
  0
ARC
  5
B815
  8
0
 10
4353.8395338054124295
 20
195.8755297457828988
 30
0.0
 40
0.0943498242658056
 50
273.5338924804140106
 51
328.6357032221296208
  0
ARC
  5
B816
  8
0
 10
4353.8398606498403751
 20
195.8702372662733069
 30
0.0
 40
0.0890472619947315
 50
222.1684652373591007
 51
273.5338924804140106
  0
ARC
  5
B817
  8
0
 10
4353.8285042986281042
 20
195.8599513394565861
 30
0.0
 40
0.073725153677034
 50
195.2116168102311917
 51
222.1684652373591007
  0
CIRCLE
  5
B818
  8
0
 10
4353.8326310743041176
 20
196.6072139027045864
 30
0.0
 40
0.0205304792644862
  0
ARC
  5
B819
  8
0
 10
4353.8329241166766224
 20
196.6031264464020012
 30
0.0
 40
0.0539231983359853
 50
89.8094180999212455
 51
140.8410034747141992
  0
ARC
  5
B81A
  8
0
 10
4353.8278939441906914
 20
196.6072229641536921
 30
0.0
 40
0.0474359729714951
 50
140.8410034747141992
 51
197.6113948932832045
  0
ARC
  5
B81B
  8
0
 10
4353.8311780920039382
 20
196.6082654761223978
 30
0.0
 40
0.0508816163172491
 50
197.6113948932832045
 51
260.2544862279569884
  0
ARC
  5
B81C
  8
0
 10
4353.8321302281874523
 20
196.6138091829886037
 30
0.0
 40
0.0565064940159941
 50
260.2544862279569884
 51
319.3278696966008283
  0
ARC
  5
B81D
  8
0
 10
4353.840567347419892
 20
196.6065592528086938
 30
0.0
 40
0.0453823550121126
 50
319.3278696965990093
 51
21.8530125248909783
  0
ARC
  5
B81E
  8
0
 10
4353.8326153757252541
 20
196.6033701533455087
 30
0.0
 40
0.0539499806587942
 50
21.8530125248909783
 51
66.6332104919484749
  0
ARC
  5
B81F
  8
0
 10
4353.8338950037086761
 20
196.6063319079856058
 30
0.0
 40
0.050723614541077
 50
66.6332104919484749
 51
90.8941161585597541
  0
ARC
  5
B820
  8
0
 10
4353.8496011939023447
 20
196.6293114330784135
 30
0.0
 40
0.0972815164838136
 50
139.7839921420689961
 51
196.4084227874623139
  0
ARC
  5
B821
  8
0
 10
4353.8391212388060012
 20
196.6381727019378047
 30
0.0
 40
0.0835573937579416
 50
74.4903225434958927
 51
139.7839921420689961
  0
ARC
  5
B822
  8
0
 10
4353.8357044180202138
 20
196.625860120258011
 30
0.0
 40
0.0963352782426742
 50
21.2684604533323203
 51
74.4903225434958927
  0
ARC
  5
B823
  8
0
 10
4353.8482888788175842
 20
196.6307586178311908
 30
0.0
 40
0.0828310591957271
 50
328.6357032221296208
 51
21.2684604533304196
  0
ARC
  5
B824
  8
0
 10
4353.8384532899208352
 20
196.6367538776071058
 30
0.0
 40
0.0943498242658056
 50
273.5338924804140106
 51
328.6357032221296208
  0
ARC
  5
B825
  8
0
 10
4353.8387801343487808
 20
196.6314613980975992
 30
0.0
 40
0.0890472619947315
 50
222.1684652373591007
 51
273.5338924804140106
  0
ARC
  5
B826
  8
0
 10
4353.8274237831401479
 20
196.6211754712809068
 30
0.0
 40
0.073725153677034
 50
195.2116168102311917
 51
222.1684652373591007
  0
CIRCLE
  5
B827
  8
0
 10
4353.6315949016134255
 20
196.9379893175122049
 30
0.0
 40
0.0205304792644862
  0
ARC
  5
B828
  8
0
 10
4353.6318879439850207
 20
196.9339018612095913
 30
0.0
 40
0.0539231983359853
 50
89.8094180999212455
 51
140.8410034747141992
  0
ARC
  5
B829
  8
0
 10
4353.6268577714999992
 20
196.9379983789613107
 30
0.0
 40
0.0474359729714951
 50
140.8410034747141992
 51
197.6113948932832045
  0
ARC
  5
B82A
  8
0
 10
4353.630141919313246
 20
196.9390408909299879
 30
0.0
 40
0.0508816163172491
 50
197.6113948932832045
 51
260.2544862279569884
  0
ARC
  5
B82B
  8
0
 10
4353.6310940554940316
 20
196.9445845977961937
 30
0.0
 40
0.0565064940159941
 50
260.2544862279569884
 51
319.3278696966008283
  0
ARC
  5
B82C
  8
0
 10
4353.6395311747282904
 20
196.9373346676163976
 30
0.0
 40
0.0453823550121126
 50
319.3278696965990093
 51
21.8530125248909783
  0
ARC
  5
B82D
  8
0
 10
4353.6315792030336524
 20
196.9341455681530988
 30
0.0
 40
0.0539499806587942
 50
21.8530125248909783
 51
66.6332104919484749
  0
ARC
  5
B82E
  8
0
 10
4353.6328588310179839
 20
196.9371073227931959
 30
0.0
 40
0.050723614541077
 50
66.6332104919484749
 51
90.8941161585597541
  0
ARC
  5
B82F
  8
0
 10
4353.6485650212098335
 20
196.9600868478860036
 30
0.0
 40
0.0972815164838136
 50
139.7839921420689961
 51
196.4084227874623139
  0
ARC
  5
B830
  8
0
 10
4353.638085066115309
 20
196.9689481167453096
 30
0.0
 40
0.0835573937579416
 50
74.4903225434958927
 51
139.7839921420689961
  0
ARC
  5
B831
  8
0
 10
4353.6346682453277026
 20
196.9566355350654874
 30
0.0
 40
0.0963352782426742
 50
21.2684604533323203
 51
74.4903225434958927
  0
ARC
  5
B832
  8
0
 10
4353.647252706126892
 20
196.9615340326388093
 30
0.0
 40
0.0828310591957271
 50
328.6357032221296208
 51
21.2684604533304196
  0
ARC
  5
B833
  8
0
 10
4353.6374171172292336
 20
196.9675292924146959
 30
0.0
 40
0.0943498242658056
 50
273.5338924804140106
 51
328.6357032221296208
  0
ARC
  5
B834
  8
0
 10
4353.6377439616580887
 20
196.9622368129051893
 30
0.0
 40
0.0890472619947315
 50
222.1684652373591007
 51
273.5338924804140106
  0
ARC
  5
B835
  8
0
 10
4353.6263876104467272
 20
196.9519508860884969
 30
0.0
 40
0.073725153677034
 50
195.2116168102311917
 51
222.1684652373591007
  0
CIRCLE
  5
B836
  8
0
 10
4352.9389121511940175
 20
197.3214130570297868
 30
0.0
 40
0.0205304792644862
  0
ARC
  5
B837
  8
0
 10
4352.9392051935683412
 20
197.3173256007272016
 30
0.0
 40
0.0539231983359853
 50
89.8094180999212455
 51
140.8410034747141992
  0
ARC
  5
B838
  8
0
 10
4352.9341750210824102
 20
197.3214221184788926
 30
0.0
 40
0.0474359729714951
 50
140.8410034747141992
 51
197.6113948932832045
  0
ARC
  5
B839
  8
0
 10
4352.9374591688947476
 20
197.3224646304475982
 30
0.0
 40
0.0508816163172491
 50
197.6113948932832045
 51
260.2544862279569884
  0
ARC
  5
B83A
  8
0
 10
4352.9384113050773522
 20
197.3280083373136904
 30
0.0
 40
0.0565064940159941
 50
260.2544862279569884
 51
319.3278696966008283
  0
ARC
  5
B83B
  8
0
 10
4352.9468484243107014
 20
197.3207584071338943
 30
0.0
 40
0.0453823550121126
 50
319.3278696965990093
 51
21.8530125248909783
  0
ARC
  5
B83C
  8
0
 10
4352.9388964526160635
 20
197.3175693076707091
 30
0.0
 40
0.0539499806587942
 50
21.8530125248909783
 51
66.6332104919484749
  0
ARC
  5
B83D
  8
0
 10
4352.9401760806003949
 20
197.3205310623106925
 30
0.0
 40
0.050723614541077
 50
66.6332104919484749
 51
90.8941161585597541
  0
ARC
  5
B83E
  8
0
 10
4352.955882270791335
 20
197.343510587403614
 30
0.0
 40
0.0972815164838136
 50
139.7839921420689961
 51
196.4084227874623139
  0
ARC
  5
B83F
  8
0
 10
4352.9454023156959011
 20
197.3523718562628915
 30
0.0
 40
0.0835573937579416
 50
74.4903225434958927
 51
139.7839921420689961
  0
ARC
  5
B840
  8
0
 10
4352.9419854949101136
 20
197.3400592745830977
 30
0.0
 40
0.0963352782426742
 50
21.2684604533323203
 51
74.4903225434958927
  0
ARC
  5
B841
  8
0
 10
4352.954569955709303
 20
197.344957772156306
 30
0.0
 40
0.0828310591957271
 50
328.6357032221296208
 51
21.2684604533304196
  0
ARC
  5
B842
  8
0
 10
4352.9447343668107351
 20
197.3509530319321925
 30
0.0
 40
0.0943498242658056
 50
273.5338924804140106
 51
328.6357032221296208
  0
ARC
  5
B843
  8
0
 10
4352.9450612112395902
 20
197.3456605524226859
 30
0.0
 40
0.0890472619947315
 50
222.1684652373591007
 51
273.5338924804140106
  0
ARC
  5
B844
  8
0
 10
4352.9337048600291382
 20
197.3353746256059935
 30
0.0
 40
0.073725153677034
 50
195.2116168102311917
 51
222.1684652373591007
  0
ARC
  5
B845
  8
0
 10
4352.434227353800452
 20
198.1483343776631045
 30
0.0
 40
0.0205254987755425
 50
95.1802509417619547
 51
198.465691757800812
  0
ARC
  5
B846
  8
0
 10
4352.4344804170741554
 20
198.1455430210338022
 30
0.0
 40
0.0233283032376547
 50
16.1825436951262809
 51
95.1802509417619973
  0
ARC
  5
B847
  8
0
 10
4352.4399660797353135
 20
198.1471349411386029
 30
0.0
 40
0.0176163242059638
 50
299.6496699581354051
 51
16.18254369512238
  0
ARC
  5
B848
  8
0
 10
4352.4355479101814126
 20
198.1498048467113051
 30
0.0
 40
0.0222652392835257
 50
200.9793303175090102
 51
306.1455154983643752
  0
ARC
  5
B849
  8
0
 10
4352.4303228802273225
 20
198.1496251825633976
 30
0.0
 40
0.0542207425891386
 50
137.429359188515491
 51
209.4768689281050911
  0
ARC
  5
B84A
  8
0
 10
4352.4354453229807405
 20
198.1449196969782065
 30
0.0
 40
0.0611763888112017
 50
40.6956337502772811
 51
137.429359188515491
  0
ARC
  5
B84B
  8
0
 10
4352.4407208289640039
 20
198.1494566485750966
 30
0.0
 40
0.0542183076698685
 50
308.8075088532232826
 51
40.6956337502772811
  0
ARC
  5
B84C
  8
0
 10
4352.4358578140991085
 20
198.1555033963053916
 30
0.0
 40
0.06197795145601
 50
211.6903023509165962
 51
308.807508853221691
  0
ARC
  5
B84D
  8
0
 10
4352.4373431083331525
 20
198.1467384996979888
 30
0.0
 40
0.1347312038520274
 50
61.8379417631064001
 51
148.5609699788772957
  0
ARC
  5
B84E
  8
0
 10
4352.4444842546099608
 20
198.1600778844781985
 30
0.0
 40
0.1196006005446139
 50
358.5027518535500235
 51
61.8379417631064001
  0
ARC
  5
B84F
  8
0
 10
4352.4668744541668275
 20
198.1594926525814913
 30
0.0
 40
0.097202753939292
 50
289.0336043742684069
 51
358.502751853548375
  0
ARC
  5
B850
  8
0
 10
4352.4362345005638417
 20
198.188960232350496
 30
0.0
 40
0.136431499735677
 50
215.3826183276910058
 51
297.1893377399098881
  0
ARC
  5
B851
  8
0
 10
4352.4114739116939745
 20
198.1656278430872931
 30
0.0
 40
0.1028406664190445
 50
150.0225778082181023
 51
212.7711300227188929
  0
ARC
  5
B852
  8
0
 10
4351.8592731049657232
 20
197.9887743886901887
 30
0.0
 40
0.0205254987755425
 50
95.1802509417619547
 51
198.465691757800812
  0
ARC
  5
B853
  8
0
 10
4351.8595261682376076
 20
197.9859830320608864
 30
0.0
 40
0.0233283032376547
 50
16.1825436951262809
 51
95.1802509417619973
  0
ARC
  5
B854
  8
0
 10
4351.8650118308996753
 20
197.9875749521656871
 30
0.0
 40
0.0176163242059638
 50
299.6496699581354051
 51
16.18254369512238
  0
ARC
  5
B855
  8
0
 10
4351.8605936613448648
 20
197.9902448577383893
 30
0.0
 40
0.0222652392835257
 50
200.9793303175090102
 51
306.1455154983643752
  0
ARC
  5
B856
  8
0
 10
4351.8553686313907747
 20
197.9900651935905103
 30
0.0
 40
0.0542207425891386
 50
137.429359188515491
 51
209.4768689281050911
  0
ARC
  5
B857
  8
0
 10
4351.8604910741460117
 20
197.9853597080052907
 30
0.0
 40
0.0611763888112017
 50
40.6956337502772811
 51
137.429359188515491
  0
ARC
  5
B858
  8
0
 10
4351.8657665801292751
 20
197.9898966596022092
 30
0.0
 40
0.0542183076698685
 50
308.8075088532232826
 51
40.6956337502772811
  0
ARC
  5
B859
  8
0
 10
4351.8609035652643797
 20
197.9959434073325042
 30
0.0
 40
0.06197795145601
 50
211.6903023509165962
 51
308.807508853221691
  0
ARC
  5
B85A
  8
0
 10
4351.8623888594993332
 20
197.9871785107251014
 30
0.0
 40
0.1347312038520274
 50
61.8379417631064001
 51
148.5609699788772957
  0
ARC
  5
B85B
  8
0
 10
4351.869530005775232
 20
198.0005178955053111
 30
0.0
 40
0.1196006005446139
 50
358.5027518535500235
 51
61.8379417631064001
  0
ARC
  5
B85C
  8
0
 10
4351.8919202053311892
 20
197.9999326636086039
 30
0.0
 40
0.097202753939292
 50
289.0336043742684069
 51
358.502751853548375
  0
ARC
  5
B85D
  8
0
 10
4351.8612802517282034
 20
198.0294002433776086
 30
0.0
 40
0.136431499735677
 50
215.3826183276910058
 51
297.1893377399098881
  0
ARC
  5
B85E
  8
0
 10
4351.8365196628592457
 20
198.0060678541144057
 30
0.0
 40
0.1028406664190445
 50
150.0225778082181023
 51
212.7711300227188929
  0
ARC
  5
B85F
  8
0
 10
4351.3527947239708737
 20
197.6788586177931109
 30
0.0
 40
0.0205254987755425
 50
95.1802509417619547
 51
198.465691757800812
  0
ARC
  5
B860
  8
0
 10
4351.3530477872445772
 20
197.6760672611636949
 30
0.0
 40
0.0233283032376547
 50
16.1825436951262809
 51
95.1802509417619973
  0
ARC
  5
B861
  8
0
 10
4351.3585334499057353
 20
197.6776591812684956
 30
0.0
 40
0.0176163242059638
 50
299.6496699581354051
 51
16.18254369512238
  0
ARC
  5
B862
  8
0
 10
4351.3541152803518344
 20
197.6803290868411977
 30
0.0
 40
0.0222652392835257
 50
200.9793303175090102
 51
306.1455154983643752
  0
ARC
  5
B863
  8
0
 10
4351.3488902503977442
 20
197.6801494226934039
 30
0.0
 40
0.0542207425891386
 50
137.429359188515491
 51
209.4768689281050911
  0
ARC
  5
B864
  8
0
 10
4351.3540126931520717
 20
197.6754439371082128
 30
0.0
 40
0.0611763888112017
 50
40.6956337502772811
 51
137.429359188515491
  0
ARC
  5
B865
  8
0
 10
4351.3592881991362447
 20
197.6799808887051029
 30
0.0
 40
0.0542183076698685
 50
308.8075088532232826
 51
40.6956337502772811
  0
ARC
  5
B866
  8
0
 10
4351.3544251842713493
 20
197.6860276364353126
 30
0.0
 40
0.06197795145601
 50
211.6903023509165962
 51
308.807508853221691
  0
ARC
  5
B867
  8
0
 10
4351.3559104785053933
 20
197.6772627398279099
 30
0.0
 40
0.1347312038520274
 50
61.8379417631064001
 51
148.5609699788772957
  0
ARC
  5
B868
  8
0
 10
4351.363051624781292
 20
197.6906021246082048
 30
0.0
 40
0.1196006005446139
 50
358.5027518535500235
 51
61.8379417631064001
  0
ARC
  5
B869
  8
0
 10
4351.3854418243381588
 20
197.6900168927114123
 30
0.0
 40
0.097202753939292
 50
289.0336043742684069
 51
358.502751853548375
  0
ARC
  5
B86A
  8
0
 10
4351.3548018707360825
 20
197.7194844724805023
 30
0.0
 40
0.136431499735677
 50
215.3826183276910058
 51
297.1893377399098881
  0
ARC
  5
B86B
  8
0
 10
4351.3300412818662153
 20
197.6961520832172141
 30
0.0
 40
0.1028406664190445
 50
150.0225778082181023
 51
212.7711300227188929
  0
ARC
  5
B86C
  8
0
 10
4350.9565033408889576
 20
197.2450617830126873
 30
0.0
 40
0.0205254987755425
 50
95.1802509417619547
 51
198.465691757800812
  0
ARC
  5
B86D
  8
0
 10
4350.9567564041635706
 20
197.2422704263834135
 30
0.0
 40
0.0233283032376547
 50
16.1825436951262809
 51
95.1802509417619973
  0
ARC
  5
B86E
  8
0
 10
4350.9622420668256382
 20
197.2438623464882141
 30
0.0
 40
0.0176163242059638
 50
299.6496699581354051
 51
16.18254369512238
  0
ARC
  5
B86F
  8
0
 10
4350.9578238972699182
 20
197.2465322520608879
 30
0.0
 40
0.0222652392835257
 50
200.9793303175090102
 51
306.1455154983643752
  0
ARC
  5
B870
  8
0
 10
4350.9525988673167376
 20
197.2463525879130088
 30
0.0
 40
0.0542207425891386
 50
137.429359188515491
 51
209.4768689281050911
  0
ARC
  5
B871
  8
0
 10
4350.9577213100710651
 20
197.2416471023277893
 30
0.0
 40
0.0611763888112017
 50
40.6956337502772811
 51
137.429359188515491
  0
ARC
  5
B872
  8
0
 10
4350.9629968160543285
 20
197.246184053924793
 30
0.0
 40
0.0542183076698685
 50
308.8075088532232826
 51
40.6956337502772811
  0
ARC
  5
B873
  8
0
 10
4350.9581338011903426
 20
197.2522308016550028
 30
0.0
 40
0.06197795145601
 50
211.6903023509165962
 51
308.807508853221691
  0
ARC
  5
B874
  8
0
 10
4350.9596190954252961
 20
197.2434659050476
 30
0.0
 40
0.1347312038520274
 50
61.8379417631064001
 51
148.5609699788772957
  0
ARC
  5
B875
  8
0
 10
4350.9667602416993759
 20
197.2568052898278097
 30
0.0
 40
0.1196006005446139
 50
358.5027518535500235
 51
61.8379417631064001
  0
ARC
  5
B876
  8
0
 10
4350.9891504412571521
 20
197.2562200579311025
 30
0.0
 40
0.097202753939292
 50
289.0336043742684069
 51
358.502751853548375
  0
ARC
  5
B877
  8
0
 10
4350.9585104876541664
 20
197.2856876377001072
 30
0.0
 40
0.136431499735677
 50
215.3826183276910058
 51
297.1893377399098881
  0
ARC
  5
B878
  8
0
 10
4350.9337498987852086
 20
197.2623552484369043
 30
0.0
 40
0.1028406664190445
 50
150.0225778082181023
 51
212.7711300227188929
  0
ARC
  5
B879
  8
0
 10
4350.7091161260823355
 20
196.7266239691240912
 30
0.0
 40
0.0205254987755425
 50
95.1802509417619547
 51
198.465691757800812
  0
ARC
  5
B87A
  8
0
 10
4350.7093691893551295
 20
196.7238326124947037
 30
0.0
 40
0.0233283032376547
 50
16.1825436951262809
 51
95.1802509417619973
  0
ARC
  5
B87B
  8
0
 10
4350.7148548520181066
 20
196.7254245325995043
 30
0.0
 40
0.0176163242059638
 50
299.6496699581354051
 51
16.18254369512238
  0
ARC
  5
B87C
  8
0
 10
4350.7104366824623867
 20
196.7280944381722065
 30
0.0
 40
0.0222652392835257
 50
200.9793303175090102
 51
306.1455154983643752
  0
ARC
  5
B87D
  8
0
 10
4350.705211652509206
 20
196.7279147740244127
 30
0.0
 40
0.0542207425891386
 50
137.429359188515491
 51
209.4768689281050911
  0
ARC
  5
B87E
  8
0
 10
4350.710334095262624
 20
196.7232092884391079
 30
0.0
 40
0.0611763888112017
 50
40.6956337502772811
 51
137.429359188515491
  0
ARC
  5
B87F
  8
0
 10
4350.7156096012458875
 20
196.7277462400361117
 30
0.0
 40
0.0542183076698685
 50
308.8075088532232826
 51
40.6956337502772811
  0
ARC
  5
B880
  8
0
 10
4350.7107465863819016
 20
196.733792987766293
 30
0.0
 40
0.06197795145601
 50
211.6903023509165962
 51
308.807508853221691
  0
ARC
  5
B881
  8
0
 10
4350.7122318806159456
 20
196.7250280911588902
 30
0.0
 40
0.1347312038520274
 50
61.8379417631064001
 51
148.5609699788772957
  0
ARC
  5
B882
  8
0
 10
4350.7193730268927538
 20
196.7383674759390999
 30
0.0
 40
0.1196006005446139
 50
358.5027518535500235
 51
61.8379417631064001
  0
ARC
  5
B883
  8
0
 10
4350.7417632264478016
 20
196.7377822440423927
 30
0.0
 40
0.097202753939292
 50
289.0336043742684069
 51
358.502751853548375
  0
ARC
  5
B884
  8
0
 10
4350.7111232728466348
 20
196.7672498238115111
 30
0.0
 40
0.136431499735677
 50
215.3826183276910058
 51
297.1893377399098881
  0
ARC
  5
B885
  8
0
 10
4350.6863626839776771
 20
196.7439174345481092
 30
0.0
 40
0.1028406664190445
 50
150.0225778082181023
 51
212.7711300227188929
  0
ARC
  5
B886
  8
0
 10
4350.62577205366415
 20
196.162665714270787
 30
0.0
 40
0.0205254987755425
 50
95.1802509417619547
 51
198.465691757800812
  0
ARC
  5
B887
  8
0
 10
4350.626025116936944
 20
196.1598743576413995
 30
0.0
 40
0.0233283032376547
 50
16.1825436951262809
 51
95.1802509417619973
  0
ARC
  5
B888
  8
0
 10
4350.6315107795981021
 20
196.1614662777462001
 30
0.0
 40
0.0176163242059638
 50
299.6496699581354051
 51
16.18254369512238
  0
ARC
  5
B889
  8
0
 10
4350.6270926100432916
 20
196.1641361833189023
 30
0.0
 40
0.0222652392835257
 50
200.9793303175090102
 51
306.1455154983643752
  0
ARC
  5
B88A
  8
0
 10
4350.621867580090111
 20
196.1639565191711085
 30
0.0
 40
0.0542207425891386
 50
137.429359188515491
 51
209.4768689281050911
  0
ARC
  5
B88B
  8
0
 10
4350.626990022845348
 20
196.159251033585889
 30
0.0
 40
0.0611763888112017
 50
40.6956337502772811
 51
137.429359188515491
  0
ARC
  5
B88C
  8
0
 10
4350.6322655288277019
 20
196.1637879851828075
 30
0.0
 40
0.0542183076698685
 50
308.8075088532232826
 51
40.6956337502772811
  0
ARC
  5
B88D
  8
0
 10
4350.6274025139628066
 20
196.1698347329129888
 30
0.0
 40
0.06197795145601
 50
211.6903023509165962
 51
308.807508853221691
  0
ARC
  5
B88E
  8
0
 10
4350.62888780819776
 20
196.161069836305586
 30
0.0
 40
0.1347312038520274
 50
61.8379417631064001
 51
148.5609699788772957
  0
ARC
  5
B88F
  8
0
 10
4350.6360289544736588
 20
196.1744092210857957
 30
0.0
 40
0.1196006005446139
 50
358.5027518535500235
 51
61.8379417631064001
  0
ARC
  5
B890
  8
0
 10
4350.658419154029616
 20
196.1738239891890885
 30
0.0
 40
0.097202753939292
 50
289.0336043742684069
 51
358.502751853548375
  0
ARC
  5
B891
  8
0
 10
4350.6277792004266303
 20
196.2032915689582069
 30
0.0
 40
0.136431499735677
 50
215.3826183276910058
 51
297.1893377399098881
  0
ARC
  5
B892
  8
0
 10
4350.6030186115576726
 20
196.1799591796948903
 30
0.0
 40
0.1028406664190445
 50
150.0225778082181023
 51
212.7711300227188929
  0
ARC
  5
B893
  8
0
 10
4350.7087270443307716
 20
195.5944004883382092
 30
0.0
 40
0.0205254987755425
 50
95.1802509417619547
 51
198.465691757800812
  0
ARC
  5
B894
  8
0
 10
4350.7089801076053845
 20
195.5916091317089069
 30
0.0
 40
0.0233283032376547
 50
16.1825436951262809
 51
95.1802509417619973
  0
ARC
  5
B895
  8
0
 10
4350.7144657702656332
 20
195.5932010518135939
 30
0.0
 40
0.0176163242059638
 50
299.6496699581354051
 51
16.18254369512238
  0
ARC
  5
B896
  8
0
 10
4350.7100476007117322
 20
195.5958709573862961
 30
0.0
 40
0.0222652392835257
 50
200.9793303175090102
 51
306.1455154983643752
  0
ARC
  5
B897
  8
0
 10
4350.7048225707576421
 20
195.5956912932385023
 30
0.0
 40
0.0542207425891386
 50
137.429359188515491
 51
209.4768689281050911
  0
ARC
  5
B898
  8
0
 10
4350.7099450135119696
 20
195.5909858076533112
 30
0.0
 40
0.0611763888112017
 50
40.6956337502772811
 51
137.429359188515491
  0
ARC
  5
B899
  8
0
 10
4350.7152205194961425
 20
195.5955227592502865
 30
0.0
 40
0.0542183076698685
 50
308.8075088532232826
 51
40.6956337502772811
  0
ARC
  5
B89A
  8
0
 10
4350.7103575046312471
 20
195.601569506980411
 30
0.0
 40
0.06197795145601
 50
211.6903023509165962
 51
308.807508853221691
  0
ARC
  5
B89B
  8
0
 10
4350.7118427988643816
 20
195.5928046103730935
 30
0.0
 40
0.1347312038520274
 50
61.8379417631064001
 51
148.5609699788772957
  0
ARC
  5
B89C
  8
0
 10
4350.7189839451411899
 20
195.6061439951533032
 30
0.0
 40
0.1196006005446139
 50
358.5027518535500235
 51
61.8379417631064001
  0
ARC
  5
B89D
  8
0
 10
4350.7413741446980566
 20
195.6055587632565107
 30
0.0
 40
0.097202753939292
 50
289.0336043742684069
 51
358.502751853548375
  0
ARC
  5
B89E
  8
0
 10
4350.7107341910950709
 20
195.6350263430256007
 30
0.0
 40
0.136431499735677
 50
215.3826183276910058
 51
297.1893377399098881
  0
ARC
  5
B89F
  8
0
 10
4350.6859736022261131
 20
195.6116939537623125
 30
0.0
 40
0.1028406664190445
 50
150.0225778082181023
 51
212.7711300227188929
  0
ARC
  5
B8A0
  8
0
 10
4350.9646865199747481
 20
195.0819106002188903
 30
0.0
 40
0.0205254987755425
 50
95.1802509417619547
 51
198.465691757800812
  0
ARC
  5
B8A1
  8
0
 10
4350.9649395832484515
 20
195.0791192435895027
 30
0.0
 40
0.0233283032376547
 50
16.1825436951262809
 51
95.1802509417619973
  0
ARC
  5
B8A2
  8
0
 10
4350.9704252459087002
 20
195.0807111636943034
 30
0.0
 40
0.0176163242059638
 50
299.6496699581354051
 51
16.18254369512238
  0
ARC
  5
B8A3
  8
0
 10
4350.9660070763547992
 20
195.0833810692670056
 30
0.0
 40
0.0222652392835257
 50
200.9793303175090102
 51
306.1455154983643752
  0
ARC
  5
B8A4
  8
0
 10
4350.9607820464016186
 20
195.0832014051192118
 30
0.0
 40
0.0542207425891386
 50
137.429359188515491
 51
209.4768689281050911
  0
ARC
  5
B8A5
  8
0
 10
4350.9659044891559461
 20
195.0784959195339923
 30
0.0
 40
0.0611763888112017
 50
40.6956337502772811
 51
137.429359188515491
  0
ARC
  5
B8A6
  8
0
 10
4350.9711799951392095
 20
195.0830328711309107
 30
0.0
 40
0.0542183076698685
 50
308.8075088532232826
 51
40.6956337502772811
  0
ARC
  5
B8A7
  8
0
 10
4350.9663169802743141
 20
195.0890796188610921
 30
0.0
 40
0.06197795145601
 50
211.6903023509165962
 51
308.807508853221691
  0
ARC
  5
B8A8
  8
0
 10
4350.9678022745083581
 20
195.0803147222536893
 30
0.0
 40
0.1347312038520274
 50
61.8379417631064001
 51
148.5609699788772957
  0
ARC
  5
B8A9
  8
0
 10
4350.9749434207842569
 20
195.093654107033899
 30
0.0
 40
0.1196006005446139
 50
358.5027518535500235
 51
61.8379417631064001
  0
ARC
  5
B8AA
  8
0
 10
4350.9973336203402141
 20
195.0930688751371918
 30
0.0
 40
0.097202753939292
 50
289.0336043742684069
 51
358.502751853548375
  0
ARC
  5
B8AB
  8
0
 10
4350.9666936667390473
 20
195.1225364549063102
 30
0.0
 40
0.136431499735677
 50
215.3826183276910058
 51
297.1893377399098881
  0
ARC
  5
B8AC
  8
0
 10
4350.9419330778682706
 20
195.0992040656429936
 30
0.0
 40
0.1028406664190445
 50
150.0225778082181023
 51
212.7711300227188929
  0
ARC
  5
B8AD
  8
0
 10
4351.3512429062393494
 20
194.6416026837237041
 30
0.0
 40
0.0205254987755425
 50
95.1802509417619547
 51
198.465691757800812
  0
ARC
  5
B8AE
  8
0
 10
4351.3514959695112339
 20
194.6388113270942881
 30
0.0
 40
0.0233283032376547
 50
16.1825436951262809
 51
95.1802509417619973
  0
ARC
  5
B8AF
  8
0
 10
4351.3569816321733015
 20
194.6404032471992025
 30
0.0
 40
0.0176163242059638
 50
299.6496699581354051
 51
16.18254369512238
  0
ARC
  5
B8B0
  8
0
 10
4351.3525634626175815
 20
194.643073152771791
 30
0.0
 40
0.0222652392835257
 50
200.9793303175090102
 51
306.1455154983643752
  0
ARC
  5
B8B1
  8
0
 10
4351.3473384326644009
 20
194.6428934886239972
 30
0.0
 40
0.0542207425891386
 50
137.429359188515491
 51
209.4768689281050911
  0
ARC
  5
B8B2
  8
0
 10
4351.3524608754187284
 20
194.6381880030388061
 30
0.0
 40
0.0611763888112017
 50
40.6956337502772811
 51
137.429359188515491
  0
ARC
  5
B8B3
  8
0
 10
4351.3577363814019918
 20
194.6427249546356961
 30
0.0
 40
0.0542183076698685
 50
308.8075088532232826
 51
40.6956337502772811
  0
ARC
  5
B8B4
  8
0
 10
4351.3528733665370964
 20
194.6487717023659911
 30
0.0
 40
0.06197795145601
 50
211.6903023509165962
 51
308.807508853221691
  0
ARC
  5
B8B5
  8
0
 10
4351.3543586607720499
 20
194.6400068057585031
 30
0.0
 40
0.1347312038520274
 50
61.8379417631064001
 51
148.5609699788772957
  0
ARC
  5
B8B6
  8
0
 10
4351.3614998070479487
 20
194.6533461905387981
 30
0.0
 40
0.1196006005446139
 50
358.5027518535500235
 51
61.8379417631064001
  0
ARC
  5
B8B7
  8
0
 10
4351.3838900066039059
 20
194.6527609586420908
 30
0.0
 40
0.097202753939292
 50
289.0336043742684069
 51
358.502751853548375
  0
ARC
  5
B8B8
  8
0
 10
4351.3532500530009202
 20
194.6822285384110955
 30
0.0
 40
0.136431499735677
 50
215.3826183276910058
 51
297.1893377399098881
  0
ARC
  5
B8B9
  8
0
 10
4351.3284894641319624
 20
194.6588961491478074
 30
0.0
 40
0.1028406664190445
 50
150.0225778082181023
 51
212.7711300227188929
  0
ARC
  5
B8BA
  8
0
 10
4351.8529289992584381
 20
194.33028829623089
 30
0.0
 40
0.0205254987755425
 50
95.1802509417619547
 51
198.465691757800812
  0
ARC
  5
B8BB
  8
0
 10
4351.8531820625321416
 20
194.3274969396013887
 30
0.0
 40
0.0233283032376547
 50
16.1825436951262809
 51
95.1802509417619973
  0
ARC
  5
B8BC
  8
0
 10
4351.8586677251932997
 20
194.3290888597063031
 30
0.0
 40
0.0176163242059638
 50
299.6496699581354051
 51
16.18254369512238
  0
ARC
  5
B8BD
  8
0
 10
4351.8542495556375798
 20
194.3317587652790053
 30
0.0
 40
0.0222652392835257
 50
200.9793303175090102
 51
306.1455154983643752
  0
ARC
  5
B8BE
  8
0
 10
4351.8490245256862181
 20
194.3315791011312115
 30
0.0
 40
0.0542207425891386
 50
137.429359188515491
 51
209.4768689281050911
  0
ARC
  5
B8BF
  8
0
 10
4351.8541469684396361
 20
194.3268736155459067
 30
0.0
 40
0.0611763888112017
 50
40.6956337502772811
 51
137.429359188515491
  0
ARC
  5
B8C0
  8
0
 10
4351.85942247442199
 20
194.3314105671429104
 30
0.0
 40
0.0542183076698685
 50
308.8075088532232826
 51
40.6956337502772811
  0
ARC
  5
B8C1
  8
0
 10
4351.8545594595580042
 20
194.3374573148730917
 30
0.0
 40
0.06197795145601
 50
211.6903023509165962
 51
308.807508853221691
  0
ARC
  5
B8C2
  8
0
 10
4351.8560447537929576
 20
194.328692418265689
 30
0.0
 40
0.1347312038520274
 50
61.8379417631064001
 51
148.5609699788772957
  0
ARC
  5
B8C3
  8
0
 10
4351.8631859000670374
 20
194.3420318030458986
 30
0.0
 40
0.1196006005446139
 50
358.5027518535500235
 51
61.8379417631064001
  0
ARC
  5
B8C4
  8
0
 10
4351.8855760996248137
 20
194.3414465711491914
 30
0.0
 40
0.097202753939292
 50
289.0336043742684069
 51
358.502751853548375
  0
ARC
  5
B8C5
  8
0
 10
4351.8549361460227374
 20
194.3709141509181961
 30
0.0
 40
0.136431499735677
 50
215.3826183276910058
 51
297.1893377399098881
  0
ARC
  5
B8C6
  8
0
 10
4351.8301755571528702
 20
194.347581761654908
 30
0.0
 40
0.1028406664190445
 50
150.0225778082181023
 51
212.7711300227188929
  0
ARC
  5
B8C7
  8
0
 10
4352.4329641331441962
 20
194.170897748987187
 30
0.0
 40
0.0205254987755425
 50
95.1802509417619547
 51
198.465691757800812
  0
ARC
  5
B8C8
  8
0
 10
4352.4332171964178997
 20
194.1681063923577142
 30
0.0
 40
0.0233283032376547
 50
16.1825436951262809
 51
95.1802509417619973
  0
ARC
  5
B8C9
  8
0
 10
4352.4387028590790578
 20
194.1696983124624865
 30
0.0
 40
0.0176163242059638
 50
299.6496699581354051
 51
16.18254369512238
  0
ARC
  5
B8CA
  8
0
 10
4352.4342846895242474
 20
194.1723682180351886
 30
0.0
 40
0.0222652392835257
 50
200.9793303175090102
 51
306.1455154983643752
  0
ARC
  5
B8CB
  8
0
 10
4352.4290596595701572
 20
194.1721885538873948
 30
0.0
 40
0.0542207425891386
 50
137.429359188515491
 51
209.4768689281050911
  0
ARC
  5
B8CC
  8
0
 10
4352.4341821023253942
 20
194.1674830683022037
 30
0.0
 40
0.0611763888112017
 50
40.6956337502772811
 51
137.429359188515491
  0
ARC
  5
B8CD
  8
0
 10
4352.4394576083077482
 20
194.1720200198990938
 30
0.0
 40
0.0542183076698685
 50
308.8075088532232826
 51
40.6956337502772811
  0
ARC
  5
B8CE
  8
0
 10
4352.4345945934428528
 20
194.1780667676293888
 30
0.0
 40
0.06197795145601
 50
211.6903023509165962
 51
308.807508853221691
  0
ARC
  5
B8CF
  8
0
 10
4352.4360798876768968
 20
194.1693018710219008
 30
0.0
 40
0.1347312038520274
 50
61.8379417631064001
 51
148.5609699788772957
  0
ARC
  5
B8D0
  8
0
 10
4352.4432210339527956
 20
194.1826412558021957
 30
0.0
 40
0.1196006005446139
 50
358.5027518535500235
 51
61.8379417631064001
  0
ARC
  5
B8D1
  8
0
 10
4352.4656112335105718
 20
194.1820560239054885
 30
0.0
 40
0.097202753939292
 50
289.0336043742684069
 51
358.502751853548375
  0
ARC
  5
B8D2
  8
0
 10
4352.434971279907586
 20
194.2115236036744932
 30
0.0
 40
0.136431499735677
 50
215.3826183276910058
 51
297.1893377399098881
  0
ARC
  5
B8D3
  8
0
 10
4352.4102106910377188
 20
194.188191214411205
 30
0.0
 40
0.1028406664190445
 50
150.0225778082181023
 51
212.7711300227188929
  0
ARC
  5
B8D4
  8
0
 10
4353.0370055296198188
 20
194.1730980433202944
 30
0.0
 40
0.0205254987755425
 50
95.1802509417619547
 51
198.465691757800812
  0
ARC
  5
B8D5
  8
0
 10
4353.0372585928944318
 20
194.1703066866909921
 30
0.0
 40
0.0233283032376547
 50
16.1825436951262809
 51
95.1802509417619973
  0
ARC
  5
B8D6
  8
0
 10
4353.0427442555555899
 20
194.1718986067957928
 30
0.0
 40
0.0176163242059638
 50
299.6496699581354051
 51
16.18254369512238
  0
ARC
  5
B8D7
  8
0
 10
4353.03832608599987
 20
194.1745685123684098
 30
0.0
 40
0.0222652392835257
 50
200.9793303175090102
 51
306.1455154983643752
  0
ARC
  5
B8D8
  8
0
 10
4353.0331010560466893
 20
194.1743888482205875
 30
0.0
 40
0.0542207425891386
 50
137.429359188515491
 51
209.4768689281050911
  0
ARC
  5
B8D9
  8
0
 10
4353.0382234988019263
 20
194.1696833626353964
 30
0.0
 40
0.0611763888112017
 50
40.6956337502772811
 51
137.429359188515491
  0
ARC
  5
B8DA
  8
0
 10
4353.0434990047851898
 20
194.1742203142324001
 30
0.0
 40
0.0542183076698685
 50
308.8075088532232826
 51
40.6956337502772811
  0
ARC
  5
B8DB
  8
0
 10
4353.0386359899202944
 20
194.1802670619626099
 30
0.0
 40
0.06197795145601
 50
211.6903023509165962
 51
308.807508853221691
  0
ARC
  5
B8DC
  8
0
 10
4353.0401212841552478
 20
194.1715021653552071
 30
0.0
 40
0.1347312038520274
 50
61.8379417631064001
 51
148.5609699788772957
  0
ARC
  5
B8DD
  8
0
 10
4353.0472624304302371
 20
194.1848415501353884
 30
0.0
 40
0.1196006005446139
 50
358.5027518535500235
 51
61.8379417631064001
  0
ARC
  5
B8DE
  8
0
 10
4353.0696526299871039
 20
194.1842563182387096
 30
0.0
 40
0.097202753939292
 50
289.0336043742684069
 51
358.502751853548375
  0
ARC
  5
B8DF
  8
0
 10
4353.0390126763850276
 20
194.2137238980076859
 30
0.0
 40
0.136431499735677
 50
215.3826183276910058
 51
297.1893377399098881
  0
ARC
  5
B8E0
  8
0
 10
4353.0142520875160699
 20
194.1903915087445114
 30
0.0
 40
0.1028406664190445
 50
150.0225778082181023
 51
212.7711300227188929
  0
ARC
  5
B8E1
  8
0
 10
4353.6162460002542502
 20
194.336778354224208
 30
0.0
 40
0.0205254987755425
 50
95.1802509417619547
 51
198.465691757800812
  0
ARC
  5
B8E2
  8
0
 10
4353.6164990635270442
 20
194.3339869975947067
 30
0.0
 40
0.0233283032376547
 50
16.1825436951262809
 51
95.1802509417619973
  0
ARC
  5
B8E3
  8
0
 10
4353.6219847261882023
 20
194.3355789176995927
 30
0.0
 40
0.0176163242059638
 50
299.6496699581354051
 51
16.18254369512238
  0
ARC
  5
B8E4
  8
0
 10
4353.6175665566333919
 20
194.3382488232722949
 30
0.0
 40
0.0222652392835257
 50
200.9793303175090102
 51
306.1455154983643752
  0
ARC
  5
B8E5
  8
0
 10
4353.6123415266793018
 20
194.3380691591245011
 30
0.0
 40
0.0542207425891386
 50
137.429359188515491
 51
209.4768689281050911
  0
ARC
  5
B8E6
  8
0
 10
4353.6174639694336292
 20
194.3333636735391963
 30
0.0
 40
0.0611763888112017
 50
40.6956337502772811
 51
137.429359188515491
  0
ARC
  5
B8E7
  8
0
 10
4353.6227394754178022
 20
194.3379006251362
 30
0.0
 40
0.0542183076698685
 50
308.8075088532232826
 51
40.6956337502772811
  0
ARC
  5
B8E8
  8
0
 10
4353.6178764605519973
 20
194.3439473728664098
 30
0.0
 40
0.06197795145601
 50
211.6903023509165962
 51
308.807508853221691
  0
ARC
  5
B8E9
  8
0
 10
4353.6193617547878603
 20
194.335182476259007
 30
0.0
 40
0.1347312038520274
 50
61.8379417631064001
 51
148.5609699788772957
  0
ARC
  5
B8EA
  8
0
 10
4353.6265029010637591
 20
194.3485218610391883
 30
0.0
 40
0.1196006005446139
 50
358.5027518535500235
 51
61.8379417631064001
  0
ARC
  5
B8EB
  8
0
 10
4353.6488931006188068
 20
194.3479366291425094
 30
0.0
 40
0.097202753939292
 50
289.0336043742684069
 51
358.502751853548375
  0
ARC
  5
B8EC
  8
0
 10
4353.61825314701764
 20
194.3774042089115142
 30
0.0
 40
0.136431499735677
 50
215.3826183276910058
 51
297.1893377399098881
  0
ARC
  5
B8ED
  8
0
 10
4353.5934925581477728
 20
194.3540718196481976
 30
0.0
 40
0.1028406664190445
 50
150.0225778082181023
 51
212.7711300227188929
  0
ARC
  5
B8EE
  8
0
 10
4354.1190154427722518
 20
194.6427167135931029
 30
0.0
 40
0.0205254987755425
 50
95.1802509417619547
 51
198.465691757800812
  0
ARC
  5
B8EF
  8
0
 10
4354.1192685060450458
 20
194.6399253569636869
 30
0.0
 40
0.0233283032376547
 50
16.1825436951262809
 51
95.1802509417619973
  0
ARC
  5
B8F0
  8
0
 10
4354.1247541687071134
 20
194.6415172770684876
 30
0.0
 40
0.0176163242059638
 50
299.6496699581354051
 51
16.18254369512238
  0
ARC
  5
B8F1
  8
0
 10
4354.1203359991513935
 20
194.6441871826411898
 30
0.0
 40
0.0222652392835257
 50
200.9793303175090102
 51
306.1455154983643752
  0
ARC
  5
B8F2
  8
0
 10
4354.1151109691982128
 20
194.644007518493396
 30
0.0
 40
0.0542207425891386
 50
137.429359188515491
 51
209.4768689281050911
  0
ARC
  5
B8F3
  8
0
 10
4354.1202334119516308
 20
194.6393020329082049
 30
0.0
 40
0.0611763888112017
 50
40.6956337502772811
 51
137.429359188515491
  0
ARC
  5
B8F4
  8
0
 10
4354.1255089179358038
 20
194.6438389845050949
 30
0.0
 40
0.0542183076698685
 50
308.8075088532232826
 51
40.6956337502772811
  0
ARC
  5
B8F5
  8
0
 10
4354.1206459030709084
 20
194.6498857322353047
 30
0.0
 40
0.06197795145601
 50
211.6903023509165962
 51
308.807508853221691
  0
ARC
  5
B8F6
  8
0
 10
4354.1221311973058619
 20
194.6411208356279019
 30
0.0
 40
0.1347312038520274
 50
61.8379417631064001
 51
148.5609699788772957
  0
ARC
  5
B8F7
  8
0
 10
4354.1292723435808512
 20
194.6544602204081116
 30
0.0
 40
0.1196006005446139
 50
358.5027518535500235
 51
61.8379417631064001
  0
ARC
  5
B8F8
  8
0
 10
4354.1516625431368084
 20
194.6538749885114044
 30
0.0
 40
0.097202753939292
 50
289.0336043742684069
 51
358.502751853548375
  0
ARC
  5
B8F9
  8
0
 10
4354.1210225895347321
 20
194.6833425682804091
 30
0.0
 40
0.136431499735677
 50
215.3826183276910058
 51
297.1893377399098881
  0
ARC
  5
B8FA
  8
0
 10
4354.0962620006657744
 20
194.6600101790172062
 30
0.0
 40
0.1028406664190445
 50
150.0225778082181023
 51
212.7711300227188929
  0
ARC
  5
B8FB
  8
0
 10
4354.5110523382872998
 20
195.0737260375636026
 30
0.0
 40
0.0205254987755425
 50
95.1802509417619547
 51
198.465691757800812
  0
ARC
  5
B8FC
  8
0
 10
4354.5113054015619127
 20
195.0709346809341866
 30
0.0
 40
0.0233283032376547
 50
16.1825436951262809
 51
95.1802509417619973
  0
ARC
  5
B8FD
  8
0
 10
4354.5167910642230709
 20
195.0725266010389873
 30
0.0
 40
0.0176163242059638
 50
299.6496699581354051
 51
16.18254369512238
  0
ARC
  5
B8FE
  8
0
 10
4354.5123728946673509
 20
195.0751965066116895
 30
0.0
 40
0.0222652392835257
 50
200.9793303175090102
 51
306.1455154983643752
  0
ARC
  5
B8FF
  8
0
 10
4354.5071478647150798
 20
195.0750168424638957
 30
0.0
 40
0.0542207425891386
 50
137.429359188515491
 51
209.4768689281050911
  0
ARC
  5
B900
  8
0
 10
4354.5122703074694073
 20
195.0703113568787046
 30
0.0
 40
0.0611763888112017
 50
40.6956337502772811
 51
137.429359188515491
  0
ARC
  5
B901
  8
0
 10
4354.5175458134508517
 20
195.0748483084755946
 30
0.0
 40
0.0542183076698685
 50
308.8075088532232826
 51
40.6956337502772811
  0
ARC
  5
B902
  8
0
 10
4354.5126827985868658
 20
195.0808950562058044
 30
0.0
 40
0.06197795145601
 50
211.6903023509165962
 51
308.807508853221691
  0
ARC
  5
B903
  8
0
 10
4354.5141680928218193
 20
195.0721301595984016
 30
0.0
 40
0.1347312038520274
 50
61.8379417631064001
 51
148.5609699788772957
  0
ARC
  5
B904
  8
0
 10
4354.5213092390977181
 20
195.0854695443786113
 30
0.0
 40
0.1196006005446139
 50
358.5027518535500235
 51
61.8379417631064001
  0
ARC
  5
B905
  8
0
 10
4354.5436994386545848
 20
195.0848843124819041
 30
0.0
 40
0.097202753939292
 50
289.0336043742684069
 51
358.502751853548375
  0
ARC
  5
B906
  8
0
 10
4354.513059485051599
 20
195.1143518922509941
 30
0.0
 40
0.136431499735677
 50
215.3826183276910058
 51
297.1893377399098881
  0
ARC
  5
B907
  8
0
 10
4354.4882988961817318
 20
195.0910195029877059
 30
0.0
 40
0.1028406664190445
 50
150.0225778082181023
 51
212.7711300227188929
  0
ARC
  5
B908
  8
0
 10
4354.7630015895929319
 20
195.5955149412571075
 30
0.0
 40
0.0205254987755425
 50
95.1802509417619547
 51
198.465691757800812
  0
ARC
  5
B909
  8
0
 10
4354.7632546528657258
 20
195.5927235846278052
 30
0.0
 40
0.0233283032376547
 50
16.1825436951262809
 51
95.1802509417619973
  0
ARC
  5
B90A
  8
0
 10
4354.7687403155268839
 20
195.5943155047324922
 30
0.0
 40
0.0176163242059638
 50
299.6496699581354051
 51
16.18254369512238
  0
ARC
  5
B90B
  8
0
 10
4354.7643221459720735
 20
195.5969854103051944
 30
0.0
 40
0.0222652392835257
 50
200.9793303175090102
 51
306.1455154983643752
  0
ARC
  5
B90C
  8
0
 10
4354.7590971160179834
 20
195.5968057461574006
 30
0.0
 40
0.0542207425891386
 50
137.429359188515491
 51
209.4768689281050911
  0
ARC
  5
B90D
  8
0
 10
4354.7642195587741298
 20
195.5921002605722094
 30
0.0
 40
0.0611763888112017
 50
40.6956337502772811
 51
137.429359188515491
  0
ARC
  5
B90E
  8
0
 10
4354.7694950647573933
 20
195.5966372121690995
 30
0.0
 40
0.0542183076698685
 50
308.8075088532232826
 51
40.6956337502772811
  0
ARC
  5
B90F
  8
0
 10
4354.7646320498906789
 20
195.6026839598993945
 30
0.0
 40
0.06197795145601
 50
211.6903023509165962
 51
308.807508853221691
  0
ARC
  5
B910
  8
0
 10
4354.7661173441256324
 20
195.5939190632919065
 30
0.0
 40
0.1347312038520274
 50
61.8379417631064001
 51
148.5609699788772957
  0
ARC
  5
B911
  8
0
 10
4354.7732584904033502
 20
195.6072584480722014
 30
0.0
 40
0.1196006005446139
 50
358.5027518535500235
 51
61.8379417631064001
  0
ARC
  5
B912
  8
0
 10
4354.7956486899593074
 20
195.6066732161754089
 30
0.0
 40
0.097202753939292
 50
289.0336043742684069
 51
358.502751853548375
  0
ARC
  5
B913
  8
0
 10
4354.7650087363563216
 20
195.6361407959444989
 30
0.0
 40
0.136431499735677
 50
215.3826183276910058
 51
297.1893377399098881
  0
ARC
  5
B914
  8
0
 10
4354.7402481474873639
 20
195.6128084066812107
 30
0.0
 40
0.1028406664190445
 50
150.0225778082181023
 51
212.7711300227188929
  0
ARC
  5
B915
  8
0
 10
4354.8506251038197661
 20
196.1634882622433054
 30
0.0
 40
0.0205254987755425
 50
95.1802509417619547
 51
198.465691757800812
  0
ARC
  5
B916
  8
0
 10
4354.85087816709256
 20
196.1606969056138894
 30
0.0
 40
0.0233283032376547
 50
16.1825436951262809
 51
95.1802509417619973
  0
ARC
  5
B917
  8
0
 10
4354.8563638297564466
 20
196.1622888257186901
 30
0.0
 40
0.0176163242059638
 50
299.6496699581354051
 51
16.18254369512238
  0
ARC
  5
B918
  8
0
 10
4354.8519456601989077
 20
196.1649587312913923
 30
0.0
 40
0.0222652392835257
 50
200.9793303175090102
 51
306.1455154983643752
  0
ARC
  5
B919
  8
0
 10
4354.8467206302466366
 20
196.1647790671435985
 30
0.0
 40
0.0542207425891386
 50
137.429359188515491
 51
209.4768689281050911
  0
ARC
  5
B91A
  8
0
 10
4354.8518430730009641
 20
196.1600735815584073
 30
0.0
 40
0.0611763888112017
 50
40.6956337502772811
 51
137.429359188515491
  0
ARC
  5
B91B
  8
0
 10
4354.8571185789842275
 20
196.1646105331552974
 30
0.0
 40
0.0542183076698685
 50
308.8075088532232826
 51
40.6956337502772811
  0
ARC
  5
B91C
  8
0
 10
4354.8522555641193321
 20
196.1706572808855071
 30
0.0
 40
0.06197795145601
 50
211.6903023509165962
 51
308.807508853221691
  0
ARC
  5
B91D
  8
0
 10
4354.8537408583542856
 20
196.1618923842781044
 30
0.0
 40
0.1347312038520274
 50
61.8379417631064001
 51
148.5609699788772957
  0
ARC
  5
B91E
  8
0
 10
4354.8608820046301844
 20
196.1752317690583141
 30
0.0
 40
0.1196006005446139
 50
358.5027518535500235
 51
61.8379417631064001
  0
ARC
  5
B91F
  8
0
 10
4354.8832722041861416
 20
196.1746465371616068
 30
0.0
 40
0.097202753939292
 50
289.0336043742684069
 51
358.502751853548375
  0
ARC
  5
B920
  8
0
 10
4354.8526322505840653
 20
196.2041141169306968
 30
0.0
 40
0.136431499735677
 50
215.3826183276910058
 51
297.1893377399098881
  0
ARC
  5
B921
  8
0
 10
4354.8278716617151076
 20
196.1807817276674086
 30
0.0
 40
0.1028406664190445
 50
150.0225778082181023
 51
212.7711300227188929
  0
ARC
  5
B922
  8
0
 10
4354.7669085619236284
 20
196.7318721429572008
 30
0.0
 40
0.0205254987755425
 50
95.1802509417619547
 51
198.465691757800812
  0
ARC
  5
B923
  8
0
 10
4354.7671616251964224
 20
196.7290807863278133
 30
0.0
 40
0.0233283032376547
 50
16.1825436951262809
 51
95.1802509417619973
  0
ARC
  5
B924
  8
0
 10
4354.7726472878575805
 20
196.7306727064326139
 30
0.0
 40
0.0176163242059638
 50
299.6496699581354051
 51
16.18254369512238
  0
ARC
  5
B925
  8
0
 10
4354.7682291183018606
 20
196.7333426120052877
 30
0.0
 40
0.0222652392835257
 50
200.9793303175090102
 51
306.1455154983643752
  0
ARC
  5
B926
  8
0
 10
4354.7630040883495894
 20
196.7331629478574939
 30
0.0
 40
0.0542207425891386
 50
137.429359188515491
 51
209.4768689281050911
  0
ARC
  5
B927
  8
0
 10
4354.7681265311039169
 20
196.7284574622721891
 30
0.0
 40
0.0611763888112017
 50
40.6956337502772811
 51
137.429359188515491
  0
ARC
  5
B928
  8
0
 10
4354.7734020370871804
 20
196.7329944138691928
 30
0.0
 40
0.0542183076698685
 50
308.8075088532232826
 51
40.6956337502772811
  0
ARC
  5
B929
  8
0
 10
4354.768539022222285
 20
196.7390411615994026
 30
0.0
 40
0.06197795145601
 50
211.6903023509165962
 51
308.807508853221691
  0
ARC
  5
B92A
  8
0
 10
4354.7700243164572385
 20
196.7302762649919998
 30
0.0
 40
0.1347312038520274
 50
61.8379417631064001
 51
148.5609699788772957
  0
ARC
  5
B92B
  8
0
 10
4354.7771654627331372
 20
196.7436156497722095
 30
0.0
 40
0.1196006005446139
 50
358.5027518535500235
 51
61.8379417631064001
  0
ARC
  5
B92C
  8
0
 10
4354.799555662290004
 20
196.7430304178755023
 30
0.0
 40
0.097202753939292
 50
289.0336043742684069
 51
358.502751853548375
  0
ARC
  5
B92D
  8
0
 10
4354.7689157086870182
 20
196.7724979976445923
 30
0.0
 40
0.136431499735677
 50
215.3826183276910058
 51
297.1893377399098881
  0
ARC
  5
B92E
  8
0
 10
4354.7441551198180605
 20
196.7491656083813041
 30
0.0
 40
0.1028406664190445
 50
150.0225778082181023
 51
212.7711300227188929
  0
ARC
  5
B92F
  8
0
 10
4354.5033469202153356
 20
197.2422690853437075
 30
0.0
 40
0.0205254987755425
 50
95.1802509417619547
 51
198.465691757800812
  0
ARC
  5
B930
  8
0
 10
4354.5035999834881295
 20
197.2394777287142063
 30
0.0
 40
0.0233283032376547
 50
16.1825436951262809
 51
95.1802509417619973
  0
ARC
  5
B931
  8
0
 10
4354.5090856461501971
 20
197.2410696488190922
 30
0.0
 40
0.0176163242059638
 50
299.6496699581354051
 51
16.18254369512238
  0
ARC
  5
B932
  8
0
 10
4354.5046674765953867
 20
197.2437395543917944
 30
0.0
 40
0.0222652392835257
 50
200.9793303175090102
 51
306.1455154983643752
  0
ARC
  5
B933
  8
0
 10
4354.4994424466412966
 20
197.2435598902440006
 30
0.0
 40
0.0542207425891386
 50
137.429359188515491
 51
209.4768689281050911
  0
ARC
  5
B934
  8
0
 10
4354.5045648893947146
 20
197.2388544046586958
 30
0.0
 40
0.0611763888112017
 50
40.6956337502772811
 51
137.429359188515491
  0
ARC
  5
B935
  8
0
 10
4354.5098403953788875
 20
197.2433913562556995
 30
0.0
 40
0.0542183076698685
 50
308.8075088532232826
 51
40.6956337502772811
  0
ARC
  5
B936
  8
0
 10
4354.5049773805130826
 20
197.2494381039859093
 30
0.0
 40
0.06197795145601
 50
211.6903023509165962
 51
308.807508853221691
  0
ARC
  5
B937
  8
0
 10
4354.5064626747480361
 20
197.2406732073785065
 30
0.0
 40
0.1347312038520274
 50
61.8379417631064001
 51
148.5609699788772957
  0
ARC
  5
B938
  8
0
 10
4354.5136038210248444
 20
197.2540125921586878
 30
0.0
 40
0.1196006005446139
 50
358.5027518535500235
 51
61.8379417631064001
  0
ARC
  5
B939
  8
0
 10
4354.5359940205798921
 20
197.253427360262009
 30
0.0
 40
0.097202753939292
 50
289.0336043742684069
 51
358.502751853548375
  0
ARC
  5
B93A
  8
0
 10
4354.5053540669778158
 20
197.2828949400310137
 30
0.0
 40
0.136431499735677
 50
215.3826183276910058
 51
297.1893377399098881
  0
ARC
  5
B93B
  8
0
 10
4354.4805934781088581
 20
197.2595625507678108
 30
0.0
 40
0.1028406664190445
 50
150.0225778082181023
 51
212.7711300227188929
  0
ARC
  5
B93C
  8
0
 10
4354.1120251553920752
 20
197.6749991525805115
 30
0.0
 40
0.0205254987755425
 50
95.1802509417619547
 51
198.465691757800812
  0
ARC
  5
B93D
  8
0
 10
4354.1122782186657787
 20
197.6722077959510955
 30
0.0
 40
0.0233283032376547
 50
16.1825436951262809
 51
95.1802509417619973
  0
ARC
  5
B93E
  8
0
 10
4354.1177638813269368
 20
197.6737997160558962
 30
0.0
 40
0.0176163242059638
 50
299.6496699581354051
 51
16.18254369512238
  0
ARC
  5
B93F
  8
0
 10
4354.1133457117721264
 20
197.6764696216285984
 30
0.0
 40
0.0222652392835257
 50
200.9793303175090102
 51
306.1455154983643752
  0
ARC
  5
B940
  8
0
 10
4354.1081206818180362
 20
197.6762899574808046
 30
0.0
 40
0.0542207425891386
 50
137.429359188515491
 51
209.4768689281050911
  0
ARC
  5
B941
  8
0
 10
4354.1132431245732732
 20
197.6715844718956134
 30
0.0
 40
0.0611763888112017
 50
40.6956337502772811
 51
137.429359188515491
  0
ARC
  5
B942
  8
0
 10
4354.1185186305547177
 20
197.6761214234925035
 30
0.0
 40
0.0542183076698685
 50
308.8075088532232826
 51
40.6956337502772811
  0
ARC
  5
B943
  8
0
 10
4354.1136556156907318
 20
197.6821681712227132
 30
0.0
 40
0.06197795145601
 50
211.6903023509165962
 51
308.807508853221691
  0
ARC
  5
B944
  8
0
 10
4354.1151409099247758
 20
197.6734032746153105
 30
0.0
 40
0.1347312038520274
 50
61.8379417631064001
 51
148.5609699788772957
  0
ARC
  5
B945
  8
0
 10
4354.1222820562006746
 20
197.6867426593956054
 30
0.0
 40
0.1196006005446139
 50
358.5027518535500235
 51
61.8379417631064001
  0
ARC
  5
B946
  8
0
 10
4354.1446722557593603
 20
197.6861574274988129
 30
0.0
 40
0.097202753939292
 50
289.0336043742684069
 51
358.502751853548375
  0
ARC
  5
B947
  8
0
 10
4354.1140323021563745
 20
197.7156250072679029
 30
0.0
 40
0.136431499735677
 50
215.3826183276910058
 51
297.1893377399098881
  0
ARC
  5
B948
  8
0
 10
4354.0892717132855978
 20
197.6922926180045863
 30
0.0
 40
0.1028406664190445
 50
150.0225778082181023
 51
212.7711300227188929
  0
ARC
  5
B949
  8
0
 10
4353.6084171942266039
 20
197.984944963564601
 30
0.0
 40
0.0205254987755425
 50
95.1802509417619547
 51
198.465691757800812
  0
ARC
  5
B94A
  8
0
 10
4353.6086702575012168
 20
197.9821536069352135
 30
0.0
 40
0.0233283032376547
 50
16.1825436951262809
 51
95.1802509417619973
  0
ARC
  5
B94B
  8
0
 10
4353.6141559201632845
 20
197.9837455270400142
 30
0.0
 40
0.0176163242059638
 50
299.6496699581354051
 51
16.18254369512238
  0
ARC
  5
B94C
  8
0
 10
4353.609737750606655
 20
197.9864154326126879
 30
0.0
 40
0.0222652392835257
 50
200.9793303175090102
 51
306.1455154983643752
  0
ARC
  5
B94D
  8
0
 10
4353.6045127206543839
 20
197.9862357684648941
 30
0.0
 40
0.0542207425891386
 50
137.429359188515491
 51
209.4768689281050911
  0
ARC
  5
B94E
  8
0
 10
4353.6096351634078019
 20
197.981530282879703
 30
0.0
 40
0.0611763888112017
 50
40.6956337502772811
 51
137.429359188515491
  0
ARC
  5
B94F
  8
0
 10
4353.6149106693910653
 20
197.9860672344765931
 30
0.0
 40
0.0542183076698685
 50
308.8075088532232826
 51
40.6956337502772811
  0
ARC
  5
B950
  8
0
 10
4353.6100476545270794
 20
197.9921139822068028
 30
0.0
 40
0.06197795145601
 50
211.6903023509165962
 51
308.807508853221691
  0
ARC
  5
B951
  8
0
 10
4353.6115329487620329
 20
197.9833490855994
 30
0.0
 40
0.1347312038520274
 50
61.8379417631064001
 51
148.5609699788772957
  0
ARC
  5
B952
  8
0
 10
4353.6186740950370222
 20
197.9966884703796097
 30
0.0
 40
0.1196006005446139
 50
358.5027518535500235
 51
61.8379417631064001
  0
ARC
  5
B953
  8
0
 10
4353.6410642945938889
 20
197.9961032384829025
 30
0.0
 40
0.097202753939292
 50
289.0336043742684069
 51
358.502751853548375
  0
ARC
  5
B954
  8
0
 10
4353.6104243409909031
 20
198.0255708182519925
 30
0.0
 40
0.136431499735677
 50
215.3826183276910058
 51
297.1893377399098881
  0
ARC
  5
B955
  8
0
 10
4353.5856637521228549
 20
198.0022384289887043
 30
0.0
 40
0.1028406664190445
 50
150.0225778082181023
 51
212.7711300227188929
  0
ARC
  5
B956
  8
0
 10
4353.0335459550669839
 20
198.1470633852773915
 30
0.0
 40
0.0205254987755425
 50
95.1802509417619547
 51
198.465691757800812
  0
ARC
  5
B957
  8
0
 10
4353.0337990183415968
 20
198.1442720286480039
 30
0.0
 40
0.0233283032376547
 50
16.1825436951262809
 51
95.1802509417619973
  0
ARC
  5
B958
  8
0
 10
4353.039284681002755
 20
198.1458639487528046
 30
0.0
 40
0.0176163242059638
 50
299.6496699581354051
 51
16.18254369512238
  0
ARC
  5
B959
  8
0
 10
4353.0348665114479445
 20
198.1485338543255068
 30
0.0
 40
0.0222652392835257
 50
200.9793303175090102
 51
306.1455154983643752
  0
ARC
  5
B95A
  8
0
 10
4353.0296414814938544
 20
198.148354190177713
 30
0.0
 40
0.0542207425891386
 50
137.429359188515491
 51
209.4768689281050911
  0
ARC
  5
B95B
  8
0
 10
4353.0347639242490914
 20
198.1436487045924082
 30
0.0
 40
0.0611763888112017
 50
40.6956337502772811
 51
137.429359188515491
  0
ARC
  5
B95C
  8
0
 10
4353.0400394302323548
 20
198.1481856561894119
 30
0.0
 40
0.0542183076698685
 50
308.8075088532232826
 51
40.6956337502772811
  0
ARC
  5
B95D
  8
0
 10
4353.0351764153665499
 20
198.1542324039195933
 30
0.0
 40
0.06197795145601
 50
211.6903023509165962
 51
308.807508853221691
  0
ARC
  5
B95E
  8
0
 10
4353.0366617096033224
 20
198.1454675073121905
 30
0.0
 40
0.1347312038520274
 50
61.8379417631064001
 51
148.5609699788772957
  0
ARC
  5
B95F
  8
0
 10
4353.0438028558783117
 20
198.1588068920924002
 30
0.0
 40
0.1196006005446139
 50
358.5027518535500235
 51
61.8379417631064001
  0
ARC
  5
B960
  8
0
 10
4353.0661930554342689
 20
198.1582216601956929
 30
0.0
 40
0.097202753939292
 50
289.0336043742684069
 51
358.502751853548375
  0
ARC
  5
B961
  8
0
 10
4353.0355531018321926
 20
198.1876892399648113
 30
0.0
 40
0.136431499735677
 50
215.3826183276910058
 51
297.1893377399098881
  0
ARC
  5
B962
  8
0
 10
4353.0107925129632349
 20
198.1643568507014947
 30
0.0
 40
0.1028406664190445
 50
150.0225778082181023
 51
212.7711300227188929
  0
ARC
  5
B963
  8
0
 10
4352.7351977836733568
 20
197.7545312270815998
 30
0.0
 40
0.0205254987755425
 50
95.1802509417619547
 51
198.465691757800812
  0
ARC
  5
B964
  8
0
 10
4352.7354508469461507
 20
197.7517398704522975
 30
0.0
 40
0.0233283032376547
 50
16.1825436951262809
 51
95.1802509417619973
  0
ARC
  5
B965
  8
0
 10
4352.7409365096082183
 20
197.7533317905570982
 30
0.0
 40
0.0176163242059638
 50
299.6496699581354051
 51
16.18254369512238
  0
ARC
  5
B966
  8
0
 10
4352.7365183400515889
 20
197.7560016961296867
 30
0.0
 40
0.0222652392835257
 50
200.9793303175090102
 51
306.1455154983643752
  0
ARC
  5
B967
  8
0
 10
4352.7312933100993178
 20
197.7558220319818929
 30
0.0
 40
0.0542207425891386
 50
137.429359188515491
 51
209.4768689281050911
  0
ARC
  5
B968
  8
0
 10
4352.7364157528527357
 20
197.7511165463967018
 30
0.0
 40
0.0611763888112017
 50
40.6956337502772811
 51
137.429359188515491
  0
ARC
  5
B969
  8
0
 10
4352.7416912588369087
 20
197.7556534979937055
 30
0.0
 40
0.0542183076698685
 50
308.8075088532232826
 51
40.6956337502772811
  0
ARC
  5
B96A
  8
0
 10
4352.7368282439720133
 20
197.7617002457238868
 30
0.0
 40
0.06197795145601
 50
211.6903023509165962
 51
308.807508853221691
  0
ARC
  5
B96B
  8
0
 10
4352.7383135382069668
 20
197.7529353491165125
 30
0.0
 40
0.1347312038520274
 50
61.8379417631064001
 51
148.5609699788772957
  0
ARC
  5
B96C
  8
0
 10
4352.7454546844828656
 20
197.7662747338966938
 30
0.0
 40
0.1196006005446139
 50
358.5027518535500235
 51
61.8379417631064001
  0
ARC
  5
B96D
  8
0
 10
4352.7678448840397323
 20
197.7656895019999865
 30
0.0
 40
0.097202753939292
 50
289.0336043742684069
 51
358.502751853548375
  0
ARC
  5
B96E
  8
0
 10
4352.7372049304367465
 20
197.7951570817689912
 30
0.0
 40
0.136431499735677
 50
215.3826183276910058
 51
297.1893377399098881
  0
ARC
  5
B96F
  8
0
 10
4352.7124443415677888
 20
197.7718246925057031
 30
0.0
 40
0.1028406664190445
 50
150.0225778082181023
 51
212.7711300227188929
  0
ARC
  5
B970
  8
0
 10
4352.275064488049793
 20
197.6929272982837915
 30
0.0
 40
0.0205254987755425
 50
95.1802509417619547
 51
198.465691757800812
  0
ARC
  5
B971
  8
0
 10
4352.275317551322587
 20
197.690135941654404
 30
0.0
 40
0.0233283032376547
 50
16.1825436951262809
 51
95.1802509417619973
  0
ARC
  5
B972
  8
0
 10
4352.2808032139846546
 20
197.6917278617592046
 30
0.0
 40
0.0176163242059638
 50
299.6496699581354051
 51
16.18254369512238
  0
ARC
  5
B973
  8
0
 10
4352.2763850444289346
 20
197.6943977673319068
 30
0.0
 40
0.0222652392835257
 50
200.9793303175090102
 51
306.1455154983643752
  0
ARC
  5
B974
  8
0
 10
4352.2711600144766635
 20
197.694218103184113
 30
0.0
 40
0.0542207425891386
 50
137.429359188515491
 51
209.4768689281050911
  0
ARC
  5
B975
  8
0
 10
4352.276282457230991
 20
197.6895126175988935
 30
0.0
 40
0.0611763888112017
 50
40.6956337502772811
 51
137.429359188515491
  0
ARC
  5
B976
  8
0
 10
4352.2815579632142544
 20
197.694049569195812
 30
0.0
 40
0.0542183076698685
 50
308.8075088532232826
 51
40.6956337502772811
  0
ARC
  5
B977
  8
0
 10
4352.2766949483502685
 20
197.700096316926107
 30
0.0
 40
0.06197795145601
 50
211.6903023509165962
 51
308.807508853221691
  0
ARC
  5
B978
  8
0
 10
4352.2781802425843125
 20
197.6913314203185905
 30
0.0
 40
0.1347312038520274
 50
61.8379417631064001
 51
148.5609699788772957
  0
ARC
  5
B979
  8
0
 10
4352.2853213888602113
 20
197.7046708050988002
 30
0.0
 40
0.1196006005446139
 50
358.5027518535500235
 51
61.8379417631064001
  0
ARC
  5
B97A
  8
0
 10
4352.3077115884161685
 20
197.704085573202093
 30
0.0
 40
0.097202753939292
 50
289.0336043742684069
 51
358.502751853548375
  0
ARC
  5
B97B
  8
0
 10
4352.2770716348140922
 20
197.7335531529712114
 30
0.0
 40
0.136431499735677
 50
215.3826183276910058
 51
297.1893377399098881
  0
ARC
  5
B97C
  8
0
 10
4352.2523110459451345
 20
197.7102207637078948
 30
0.0
 40
0.1028406664190445
 50
150.0225778082181023
 51
212.7711300227188929
  0
ARC
  5
B97D
  8
0
 10
4351.8468422156720408
 20
197.5056945786930953
 30
0.0
 40
0.0205254987755425
 50
95.1802509417619547
 51
198.465691757800812
  0
ARC
  5
B97E
  8
0
 10
4351.8470952789439252
 20
197.5029032220637077
 30
0.0
 40
0.0233283032376547
 50
16.1825436951262809
 51
95.1802509417619973
  0
ARC
  5
B97F
  8
0
 10
4351.8525809416059928
 20
197.5044951421685084
 30
0.0
 40
0.0176163242059638
 50
299.6496699581354051
 51
16.18254369512238
  0
ARC
  5
B980
  8
0
 10
4351.8481627720511824
 20
197.5071650477412106
 30
0.0
 40
0.0222652392835257
 50
200.9793303175090102
 51
306.1455154983643752
  0
ARC
  5
B981
  8
0
 10
4351.8429377420970923
 20
197.5069853835933884
 30
0.0
 40
0.0542207425891386
 50
137.429359188515491
 51
209.4768689281050911
  0
ARC
  5
B982
  8
0
 10
4351.8480601848523293
 20
197.502279898008112
 30
0.0
 40
0.0611763888112017
 50
40.6956337502772811
 51
137.429359188515491
  0
ARC
  5
B983
  8
0
 10
4351.8533356908355927
 20
197.5068168496050873
 30
0.0
 40
0.0542183076698685
 50
308.8075088532232826
 51
40.6956337502772811
  0
ARC
  5
B984
  8
0
 10
4351.8484726759697878
 20
197.5128635973352971
 30
0.0
 40
0.06197795145601
 50
211.6903023509165962
 51
308.807508853221691
  0
ARC
  5
B985
  8
0
 10
4351.8499579702047413
 20
197.5040987007278943
 30
0.0
 40
0.1347312038520274
 50
61.8379417631064001
 51
148.5609699788772957
  0
ARC
  5
B986
  8
0
 10
4351.8570991164806401
 20
197.517438085508104
 30
0.0
 40
0.1196006005446139
 50
358.5027518535500235
 51
61.8379417631064001
  0
ARC
  5
B987
  8
0
 10
4351.8794893160384163
 20
197.5168528536113968
 30
0.0
 40
0.097202753939292
 50
289.0336043742684069
 51
358.502751853548375
  0
ARC
  5
B988
  8
0
 10
4351.8488493624354305
 20
197.5463204333804015
 30
0.0
 40
0.136431499735677
 50
215.3826183276910058
 51
297.1893377399098881
  0
ARC
  5
B989
  8
0
 10
4351.8240887735655633
 20
197.5229880441171986
 30
0.0
 40
0.1028406664190445
 50
150.0225778082181023
 51
212.7711300227188929
  0
ARC
  5
B98A
  8
0
 10
4351.4911133013338258
 20
197.213496180710905
 30
0.0
 40
0.0205254987755425
 50
95.1802509417619547
 51
198.465691757800812
  0
ARC
  5
B98B
  8
0
 10
4351.4913663646084387
 20
197.2107048240814891
 30
0.0
 40
0.0233283032376547
 50
16.1825436951262809
 51
95.1802509417619973
  0
ARC
  5
B98C
  8
0
 10
4351.4968520272695969
 20
197.2122967441862897
 30
0.0
 40
0.0176163242059638
 50
299.6496699581354051
 51
16.18254369512238
  0
ARC
  5
B98D
  8
0
 10
4351.4924338577138769
 20
197.2149666497589919
 30
0.0
 40
0.0222652392835257
 50
200.9793303175090102
 51
306.1455154983643752
  0
ARC
  5
B98E
  8
0
 10
4351.4872088277606963
 20
197.2147869856111129
 30
0.0
 40
0.0542207425891386
 50
137.429359188515491
 51
209.4768689281050911
  0
ARC
  5
B98F
  8
0
 10
4351.4923312705159333
 20
197.210081500026007
 30
0.0
 40
0.0611763888112017
 50
40.6956337502772811
 51
137.429359188515491
  0
ARC
  5
B990
  8
0
 10
4351.4976067764991967
 20
197.2146184516228971
 30
0.0
 40
0.0542183076698685
 50
308.8075088532232826
 51
40.6956337502772811
  0
ARC
  5
B991
  8
0
 10
4351.4927437616343013
 20
197.2206651993531068
 30
0.0
 40
0.06197795145601
 50
211.6903023509165962
 51
308.807508853221691
  0
ARC
  5
B992
  8
0
 10
4351.4942290558692548
 20
197.211900302745704
 30
0.0
 40
0.1347312038520274
 50
61.8379417631064001
 51
148.5609699788772957
  0
ARC
  5
B993
  8
0
 10
4351.5013702021460631
 20
197.2252396875259137
 30
0.0
 40
0.1196006005446139
 50
358.5027518535500235
 51
61.8379417631064001
  0
ARC
  5
B994
  8
0
 10
4351.5237604017002013
 20
197.2246544556292065
 30
0.0
 40
0.097202753939292
 50
289.0336043742684069
 51
358.502751853548375
  0
ARC
  5
B995
  8
0
 10
4351.4931204480990345
 20
197.2541220353982112
 30
0.0
 40
0.136431499735677
 50
215.3826183276910058
 51
297.1893377399098881
  0
ARC
  5
B996
  8
0
 10
4351.4683598592300768
 20
197.2307896461350083
 30
0.0
 40
0.1028406664190445
 50
150.0225778082181023
 51
212.7711300227188929
  0
ARC
  5
B997
  8
0
 10
4351.2425668510213654
 20
196.842121242046602
 30
0.0
 40
0.0205254987755425
 50
95.1802509417619547
 51
198.465691757800812
  0
ARC
  5
B998
  8
0
 10
4351.2428199142941594
 20
196.839329885417186
 30
0.0
 40
0.0233283032376547
 50
16.1825436951262809
 51
95.1802509417619973
  0
ARC
  5
B999
  8
0
 10
4351.248305576956227
 20
196.8409218055219867
 30
0.0
 40
0.0176163242059638
 50
299.6496699581354051
 51
16.18254369512238
  0
ARC
  5
B99A
  8
0
 10
4351.2438874074014166
 20
196.8435917110946889
 30
0.0
 40
0.0222652392835257
 50
200.9793303175090102
 51
306.1455154983643752
  0
ARC
  5
B99B
  8
0
 10
4351.2386623774473264
 20
196.8434120469468098
 30
0.0
 40
0.0542207425891386
 50
137.429359188515491
 51
209.4768689281050911
  0
ARC
  5
B99C
  8
0
 10
4351.2437848202016539
 20
196.8387065613615903
 30
0.0
 40
0.0611763888112017
 50
40.6956337502772811
 51
137.429359188515491
  0
ARC
  5
B99D
  8
0
 10
4351.2490603261849174
 20
196.8432435129585087
 30
0.0
 40
0.0542183076698685
 50
308.8075088532232826
 51
40.6956337502772811
  0
ARC
  5
B99E
  8
0
 10
4351.2441973113191125
 20
196.8492902606888038
 30
0.0
 40
0.06197795145601
 50
211.6903023509165962
 51
308.807508853221691
  0
ARC
  5
B99F
  8
0
 10
4351.245682605554066
 20
196.840525364081401
 30
0.0
 40
0.1347312038520274
 50
61.8379417631064001
 51
148.5609699788772957
  0
ARC
  5
B9A0
  8
0
 10
4351.2528237518299647
 20
196.8538647488616107
 30
0.0
 40
0.1196006005446139
 50
358.5027518535500235
 51
61.8379417631064001
  0
ARC
  5
B9A1
  8
0
 10
4351.275213951387741
 20
196.8532795169649035
 30
0.0
 40
0.097202753939292
 50
289.0336043742684069
 51
358.502751853548375
  0
ARC
  5
B9A2
  8
0
 10
4351.2445739977838457
 20
196.8827470967339082
 30
0.0
 40
0.136431499735677
 50
215.3826183276910058
 51
297.1893377399098881
  0
ARC
  5
B9A3
  8
0
 10
4351.2198134089157975
 20
196.8594147074705916
 30
0.0
 40
0.1028406664190445
 50
150.0225778082181023
 51
212.7711300227188929
  0
ARC
  5
B9A4
  8
0
 10
4351.1161148125629552
 20
196.420932897401201
 30
0.0
 40
0.0205254987755425
 50
95.1802509417619547
 51
198.465691757800812
  0
ARC
  5
B9A5
  8
0
 10
4351.1163678758357491
 20
196.4181415407718987
 30
0.0
 40
0.0233283032376547
 50
16.1825436951262809
 51
95.1802509417619973
  0
ARC
  5
B9A6
  8
0
 10
4351.1218535384987263
 20
196.4197334608766994
 30
0.0
 40
0.0176163242059638
 50
299.6496699581354051
 51
16.18254369512238
  0
ARC
  5
B9A7
  8
0
 10
4351.1174353689430063
 20
196.4224033664494016
 30
0.0
 40
0.0222652392835257
 50
200.9793303175090102
 51
306.1455154983643752
  0
ARC
  5
B9A8
  8
0
 10
4351.1122103389898257
 20
196.4222237023014941
 30
0.0
 40
0.0542207425891386
 50
137.429359188515491
 51
209.4768689281050911
  0
ARC
  5
B9A9
  8
0
 10
4351.1173327817441532
 20
196.417518216716303
 30
0.0
 40
0.0611763888112017
 50
40.6956337502772811
 51
137.429359188515491
  0
ARC
  5
B9AA
  8
0
 10
4351.1226082877274166
 20
196.4220551683133067
 30
0.0
 40
0.0542183076698685
 50
308.8075088532232826
 51
40.6956337502772811
  0
ARC
  5
B9AB
  8
0
 10
4351.1177452728616117
 20
196.428101916043488
 30
0.0
 40
0.06197795145601
 50
211.6903023509165962
 51
308.807508853221691
  0
ARC
  5
B9AC
  8
0
 10
4351.1192305670965652
 20
196.4193370194361137
 30
0.0
 40
0.1347312038520274
 50
61.8379417631064001
 51
148.5609699788772957
  0
ARC
  5
B9AD
  8
0
 10
4351.1263717133733735
 20
196.4326764042162949
 30
0.0
 40
0.1196006005446139
 50
358.5027518535500235
 51
61.8379417631064001
  0
ARC
  5
B9AE
  8
0
 10
4351.1487619129293307
 20
196.4320911723195877
 30
0.0
 40
0.097202753939292
 50
289.0336043742684069
 51
358.502751853548375
  0
ARC
  5
B9AF
  8
0
 10
4351.1181219593272544
 20
196.4615587520885924
 30
0.0
 40
0.136431499735677
 50
215.3826183276910058
 51
297.1893377399098881
  0
ARC
  5
B9B0
  8
0
 10
4351.0933613704582967
 20
196.4382263628253895
 30
0.0
 40
0.1028406664190445
 50
150.0225778082181023
 51
212.7711300227188929
  0
ARC
  5
B9B1
  8
0
 10
4351.1173705063865782
 20
195.9789035122601035
 30
0.0
 40
0.0205254987755425
 50
95.1802509417619547
 51
198.465691757800812
  0
ARC
  5
B9B2
  8
0
 10
4351.1176235696611911
 20
195.9761121556306875
 30
0.0
 40
0.0233283032376547
 50
16.1825436951262809
 51
95.1802509417619973
  0
ARC
  5
B9B3
  8
0
 10
4351.1231092323223493
 20
195.9777040757354882
 30
0.0
 40
0.0176163242059638
 50
299.6496699581354051
 51
16.18254369512238
  0
ARC
  5
B9B4
  8
0
 10
4351.1186910627684483
 20
195.9803739813081904
 30
0.0
 40
0.0222652392835257
 50
200.9793303175090102
 51
306.1455154983643752
  0
ARC
  5
B9B5
  8
0
 10
4351.1134660328143582
 20
195.9801943171603966
 30
0.0
 40
0.0542207425891386
 50
137.429359188515491
 51
209.4768689281050911
  0
ARC
  5
B9B6
  8
0
 10
4351.1185884755686857
 20
195.9754888315752055
 30
0.0
 40
0.0611763888112017
 50
40.6956337502772811
 51
137.429359188515491
  0
ARC
  5
B9B7
  8
0
 10
4351.1238639815510396
 20
195.9800257831720955
 30
0.0
 40
0.0542183076698685
 50
308.8075088532232826
 51
40.6956337502772811
  0
ARC
  5
B9B8
  8
0
 10
4351.1190009666861442
 20
195.9860725309023053
 30
0.0
 40
0.06197795145601
 50
211.6903023509165962
 51
308.807508853221691
  0
ARC
  5
B9B9
  8
0
 10
4351.1204862609210977
 20
195.9773076342949025
 30
0.0
 40
0.1347312038520274
 50
61.8379417631064001
 51
148.5609699788772957
  0
ARC
  5
B9BA
  8
0
 10
4351.1276274071969965
 20
195.9906470190751122
 30
0.0
 40
0.1196006005446139
 50
358.5027518535500235
 51
61.8379417631064001
  0
ARC
  5
B9BB
  8
0
 10
4351.1500176067538632
 20
195.990061787178405
 30
0.0
 40
0.097202753939292
 50
289.0336043742684069
 51
358.502751853548375
  0
ARC
  5
B9BC
  8
0
 10
4351.1193776531517869
 20
196.019529366947495
 30
0.0
 40
0.136431499735677
 50
215.3826183276910058
 51
297.1893377399098881
  0
ARC
  5
B9BD
  8
0
 10
4351.0946170642819197
 20
195.9961969776842068
 30
0.0
 40
0.1028406664190445
 50
150.0225778082181023
 51
212.7711300227188929
  0
ARC
  5
B9BE
  8
0
 10
4351.2315580667363974
 20
195.5427420284644882
 30
0.0
 40
0.0205254987755425
 50
95.1802509417619547
 51
198.465691757800812
  0
ARC
  5
B9BF
  8
0
 10
4351.2318111300101009
 20
195.5399506718349869
 30
0.0
 40
0.0233283032376547
 50
16.1825436951262809
 51
95.1802509417619973
  0
ARC
  5
B9C0
  8
0
 10
4351.237296792671259
 20
195.5415425919399013
 30
0.0
 40
0.0176163242059638
 50
299.6496699581354051
 51
16.18254369512238
  0
ARC
  5
B9C1
  8
0
 10
4351.2328786231164486
 20
195.5442124975126035
 30
0.0
 40
0.0222652392835257
 50
200.9793303175090102
 51
306.1455154983643752
  0
ARC
  5
B9C2
  8
0
 10
4351.2276535931623584
 20
195.5440328333648097
 30
0.0
 40
0.0542207425891386
 50
137.429359188515491
 51
209.4768689281050911
  0
ARC
  5
B9C3
  8
0
 10
4351.2327760359166859
 20
195.5393273477795049
 30
0.0
 40
0.0611763888112017
 50
40.6956337502772811
 51
137.429359188515491
  0
ARC
  5
B9C4
  8
0
 10
4351.2380515418999494
 20
195.5438642993765086
 30
0.0
 40
0.0542183076698685
 50
308.8075088532232826
 51
40.6956337502772811
  0
ARC
  5
B9C5
  8
0
 10
4351.233188527035054
 20
195.5499110471066899
 30
0.0
 40
0.06197795145601
 50
211.6903023509165962
 51
308.807508853221691
  0
ARC
  5
B9C6
  8
0
 10
4351.234673821269098
 20
195.5411461504992872
 30
0.0
 40
0.1347312038520274
 50
61.8379417631064001
 51
148.5609699788772957
  0
ARC
  5
B9C7
  8
0
 10
4351.2418149675459063
 20
195.5544855352794968
 30
0.0
 40
0.1196006005446139
 50
358.5027518535500235
 51
61.8379417631064001
  0
ARC
  5
B9C8
  8
0
 10
4351.264205167102773
 20
195.5539003033827896
 30
0.0
 40
0.097202753939292
 50
289.0336043742684069
 51
358.502751853548375
  0
ARC
  5
B9C9
  8
0
 10
4351.2335652134997872
 20
195.5833678831517943
 30
0.0
 40
0.136431499735677
 50
215.3826183276910058
 51
297.1893377399098881
  0
ARC
  5
B9CA
  8
0
 10
4351.2088046246308295
 20
195.5600354938885062
 30
0.0
 40
0.1028406664190445
 50
150.0225778082181023
 51
212.7711300227188929
  0
ARC
  5
B9CB
  8
0
 10
4351.496039737119645
 20
195.1738783614381134
 30
0.0
 40
0.0205254987755425
 50
95.1802509417619547
 51
198.465691757800812
  0
ARC
  5
B9CC
  8
0
 10
4351.4962928003933484
 20
195.1710870048088111
 30
0.0
 40
0.0233283032376547
 50
16.1825436951262809
 51
95.1802509417619973
  0
ARC
  5
B9CD
  8
0
 10
4351.5017784630535971
 20
195.1726789249136118
 30
0.0
 40
0.0176163242059638
 50
299.6496699581354051
 51
16.18254369512238
  0
ARC
  5
B9CE
  8
0
 10
4351.4973602934996961
 20
195.1753488304862003
 30
0.0
 40
0.0222652392835257
 50
200.9793303175090102
 51
306.1455154983643752
  0
ARC
  5
B9CF
  8
0
 10
4351.492135263547425
 20
195.1751691663384065
 30
0.0
 40
0.0542207425891386
 50
137.429359188515491
 51
209.4768689281050911
  0
ARC
  5
B9D0
  8
0
 10
4351.497257706300843
 20
195.170463680753187
 30
0.0
 40
0.0611763888112017
 50
40.6956337502772811
 51
137.429359188515491
  0
ARC
  5
B9D1
  8
0
 10
4351.5025332122831969
 20
195.1750006323501907
 30
0.0
 40
0.0542183076698685
 50
308.8075088532232826
 51
40.6956337502772811
  0
ARC
  5
B9D2
  8
0
 10
4351.497670197419211
 20
195.1810473800804004
 30
0.0
 40
0.06197795145601
 50
211.6903023509165962
 51
308.807508853221691
  0
ARC
  5
B9D3
  8
0
 10
4351.499155491653255
 20
195.1722824834729977
 30
0.0
 40
0.1347312038520274
 50
61.8379417631064001
 51
148.5609699788772957
  0
ARC
  5
B9D4
  8
0
 10
4351.5062966379282443
 20
195.1856218682532074
 30
0.0
 40
0.1196006005446139
 50
358.5027518535500235
 51
61.8379417631064001
  0
ARC
  5
B9D5
  8
0
 10
4351.528686837485111
 20
195.1850366363565001
 30
0.0
 40
0.097202753939292
 50
289.0336043742684069
 51
358.502751853548375
  0
ARC
  5
B9D6
  8
0
 10
4351.4980468838839442
 20
195.2145042161255049
 30
0.0
 40
0.136431499735677
 50
215.3826183276910058
 51
297.1893377399098881
  0
ARC
  5
B9D7
  8
0
 10
4351.4732862950131675
 20
195.1911718268623019
 30
0.0
 40
0.1028406664190445
 50
150.0225778082181023
 51
212.7711300227188929
  0
ARC
  5
B9D8
  8
0
 10
4351.8491863404642572
 20
194.8835435681629065
 30
0.0
 40
0.0205254987755425
 50
95.1802509417619547
 51
198.465691757800812
  0
ARC
  5
B9D9
  8
0
 10
4351.8494394037370512
 20
194.8807522115334905
 30
0.0
 40
0.0233283032376547
 50
16.1825436951262809
 51
95.1802509417619973
  0
ARC
  5
B9DA
  8
0
 10
4351.8549250663991188
 20
194.8823441316382912
 30
0.0
 40
0.0176163242059638
 50
299.6496699581354051
 51
16.18254369512238
  0
ARC
  5
B9DB
  8
0
 10
4351.8505068968443084
 20
194.8850140372109934
 30
0.0
 40
0.0222652392835257
 50
200.9793303175090102
 51
306.1455154983643752
  0
ARC
  5
B9DC
  8
0
 10
4351.8452818668902182
 20
194.8848343730631996
 30
0.0
 40
0.0542207425891386
 50
137.429359188515491
 51
209.4768689281050911
  0
ARC
  5
B9DD
  8
0
 10
4351.8504043096445457
 20
194.8801288874778948
 30
0.0
 40
0.0611763888112017
 50
40.6956337502772811
 51
137.429359188515491
  0
ARC
  5
B9DE
  8
0
 10
4351.8556798156268997
 20
194.8846658390748985
 30
0.0
 40
0.0542183076698685
 50
308.8075088532232826
 51
40.6956337502772811
  0
ARC
  5
B9DF
  8
0
 10
4351.8508168007620043
 20
194.8907125868051082
 30
0.0
 40
0.06197795145601
 50
211.6903023509165962
 51
308.807508853221691
  0
ARC
  5
B9E0
  8
0
 10
4351.8523020949969577
 20
194.8819476901977055
 30
0.0
 40
0.1347312038520274
 50
61.8379417631064001
 51
148.5609699788772957
  0
ARC
  5
B9E1
  8
0
 10
4351.859443241273766
 20
194.8952870749778867
 30
0.0
 40
0.1196006005446139
 50
358.5027518535500235
 51
61.8379417631064001
  0
ARC
  5
B9E2
  8
0
 10
4351.8818334408297233
 20
194.8947018430812079
 30
0.0
 40
0.097202753939292
 50
289.0336043742684069
 51
358.502751853548375
  0
ARC
  5
B9E3
  8
0
 10
4351.8511934872267375
 20
194.9241694228502126
 30
0.0
 40
0.136431499735677
 50
215.3826183276910058
 51
297.1893377399098881
  0
ARC
  5
B9E4
  8
0
 10
4351.8264328983577798
 20
194.900837033586896
 30
0.0
 40
0.1028406664190445
 50
150.0225778082181023
 51
212.7711300227188929
  0
ARC
  5
B9E5
  8
0
 10
4352.27042257737412
 20
194.6969428636147086
 30
0.0
 40
0.0205254987755425
 50
95.1802509417619547
 51
198.465691757800812
  0
ARC
  5
B9E6
  8
0
 10
4352.270675640646914
 20
194.6941515069852926
 30
0.0
 40
0.0233283032376547
 50
16.1825436951262809
 51
95.1802509417619973
  0
ARC
  5
B9E7
  8
0
 10
4352.2761613033089816
 20
194.6957434270900933
 30
0.0
 40
0.0176163242059638
 50
299.6496699581354051
 51
16.18254369512238
  0
ARC
  5
B9E8
  8
0
 10
4352.2717431337532616
 20
194.6984133326629092
 30
0.0
 40
0.0222652392835257
 50
200.9793303175090102
 51
306.1455154983643752
  0
ARC
  5
B9E9
  8
0
 10
4352.266518103800081
 20
194.6982336685150017
 30
0.0
 40
0.0542207425891386
 50
137.429359188515491
 51
209.4768689281050911
  0
ARC
  5
B9EA
  8
0
 10
4352.2716405465544085
 20
194.6935281829298106
 30
0.0
 40
0.0611763888112017
 50
40.6956337502772811
 51
137.429359188515491
  0
ARC
  5
B9EB
  8
0
 10
4352.2769160525367624
 20
194.6980651345267006
 30
0.0
 40
0.0542183076698685
 50
308.8075088532232826
 51
40.6956337502772811
  0
ARC
  5
B9EC
  8
0
 10
4352.2720530376727766
 20
194.7041118822569956
 30
0.0
 40
0.06197795145601
 50
211.6903023509165962
 51
308.807508853221691
  0
ARC
  5
B9ED
  8
0
 10
4352.27353833190773
 20
194.6953469856495076
 30
0.0
 40
0.1347312038520274
 50
61.8379417631064001
 51
148.5609699788772957
  0
ARC
  5
B9EE
  8
0
 10
4352.2806794781827193
 20
194.7086863704298025
 30
0.0
 40
0.1196006005446139
 50
358.5027518535500235
 51
61.8379417631064001
  0
ARC
  5
B9EF
  8
0
 10
4352.303069677739586
 20
194.7081011385330953
 30
0.0
 40
0.097202753939292
 50
289.0336043742684069
 51
358.502751853548375
  0
ARC
  5
B9F0
  8
0
 10
4352.2724297241366003
 20
194.7375687183021
 30
0.0
 40
0.136431499735677
 50
215.3826183276910058
 51
297.1893377399098881
  0
ARC
  5
B9F1
  8
0
 10
4352.2476691352685521
 20
194.7142363290388118
 30
0.0
 40
0.1028406664190445
 50
150.0225778082181023
 51
212.7711300227188929
  0
ARC
  5
B9F2
  8
0
 10
4352.7351804272120717
 20
194.6355827422524953
 30
0.0
 40
0.0205254987755425
 50
95.1802509417619547
 51
198.465691757800812
  0
ARC
  5
B9F3
  8
0
 10
4352.7354334904848656
 20
194.6327913856231078
 30
0.0
 40
0.0233283032376547
 50
16.1825436951262809
 51
95.1802509417619973
  0
ARC
  5
B9F4
  8
0
 10
4352.7409191531469332
 20
194.6343833057279085
 30
0.0
 40
0.0176163242059638
 50
299.6496699581354051
 51
16.18254369512238
  0
ARC
  5
B9F5
  8
0
 10
4352.7365009835912133
 20
194.6370532113006107
 30
0.0
 40
0.0222652392835257
 50
200.9793303175090102
 51
306.1455154983643752
  0
ARC
  5
B9F6
  8
0
 10
4352.7312759536380327
 20
194.6368735471527884
 30
0.0
 40
0.0542207425891386
 50
137.429359188515491
 51
209.4768689281050911
  0
ARC
  5
B9F7
  8
0
 10
4352.7363983963923602
 20
194.6321680615675973
 30
0.0
 40
0.0611763888112017
 50
40.6956337502772811
 51
137.429359188515491
  0
ARC
  5
B9F8
  8
0
 10
4352.7416739023747141
 20
194.6367050131644874
 30
0.0
 40
0.0542183076698685
 50
308.8075088532232826
 51
40.6956337502772811
  0
ARC
  5
B9F9
  8
0
 10
4352.7368108875107282
 20
194.6427517608946971
 30
0.0
 40
0.06197795145601
 50
211.6903023509165962
 51
308.807508853221691
  0
ARC
  5
B9FA
  8
0
 10
4352.7382961817456817
 20
194.6339868642872943
 30
0.0
 40
0.1347312038520274
 50
61.8379417631064001
 51
148.5609699788772957
  0
ARC
  5
B9FB
  8
0
 10
4352.745437328020671
 20
194.6473262490675893
 30
0.0
 40
0.1196006005446139
 50
358.5027518535500235
 51
61.8379417631064001
  0
ARC
  5
B9FC
  8
0
 10
4352.7678275275784472
 20
194.6467410171709105
 30
0.0
 40
0.097202753939292
 50
289.0336043742684069
 51
358.502751853548375
  0
ARC
  5
B9FD
  8
0
 10
4352.7371875739745519
 20
194.6762085969398868
 30
0.0
 40
0.136431499735677
 50
215.3826183276910058
 51
297.1893377399098881
  0
ARC
  5
B9FE
  8
0
 10
4352.7124269851055942
 20
194.6528762076765986
 30
0.0
 40
0.1028406664190445
 50
150.0225778082181023
 51
212.7711300227188929
  0
ARC
  5
B9FF
  8
0
 10
4353.1996167871557191
 20
194.7009584600830863
 30
0.0
 40
0.0205254987755425
 50
95.1802509417619547
 51
198.465691757800812
  0
ARC
  5
BA00
  8
0
 10
4353.1998698504294225
 20
194.6981671034536134
 30
0.0
 40
0.0233283032376547
 50
16.1825436951262809
 51
95.1802509417619973
  0
ARC
  5
BA01
  8
0
 10
4353.2053555130896711
 20
194.6997590235584994
 30
0.0
 40
0.0176163242059638
 50
299.6496699581354051
 51
16.18254369512238
  0
ARC
  5
BA02
  8
0
 10
4353.2009373435348607
 20
194.7024289291312016
 30
0.0
 40
0.0222652392835257
 50
200.9793303175090102
 51
306.1455154983643752
  0
ARC
  5
BA03
  8
0
 10
4353.1957123135807706
 20
194.7022492649834078
 30
0.0
 40
0.0542207425891386
 50
137.429359188515491
 51
209.4768689281050911
  0
ARC
  5
BA04
  8
0
 10
4353.2008347563360076
 20
194.697543779398103
 30
0.0
 40
0.0611763888112017
 50
40.6956337502772811
 51
137.429359188515491
  0
ARC
  5
BA05
  8
0
 10
4353.206110262319271
 20
194.702080730994993
 30
0.0
 40
0.0542183076698685
 50
308.8075088532232826
 51
40.6956337502772811
  0
ARC
  5
BA06
  8
0
 10
4353.2012472474525566
 20
194.708127478725288
 30
0.0
 40
0.06197795145601
 50
211.6903023509165962
 51
308.807508853221691
  0
ARC
  5
BA07
  8
0
 10
4353.2027325416893291
 20
194.6993625821179137
 30
0.0
 40
0.1347312038520274
 50
61.8379417631064001
 51
148.5609699788772957
  0
ARC
  5
BA08
  8
0
 10
4353.2098736879652279
 20
194.712701966898095
 30
0.0
 40
0.1196006005446139
 50
358.5027518535500235
 51
61.8379417631064001
  0
ARC
  5
BA09
  8
0
 10
4353.2322638875220946
 20
194.7121167350013877
 30
0.0
 40
0.097202753939292
 50
289.0336043742684069
 51
358.502751853548375
  0
ARC
  5
BA0A
  8
0
 10
4353.2016239339191088
 20
194.7415843147705061
 30
0.0
 40
0.136431499735677
 50
215.3826183276910058
 51
297.1893377399098881
  0
ARC
  5
BA0B
  8
0
 10
4353.1768633450501511
 20
194.7182519255071043
 30
0.0
 40
0.1028406664190445
 50
150.0225778082181023
 51
212.7711300227188929
  0
ARC
  5
BA0C
  8
0
 10
4353.619842794772012
 20
194.8818791248930893
 30
0.0
 40
0.0205254987755425
 50
95.1802509417619547
 51
198.465691757800812
  0
ARC
  5
BA0D
  8
0
 10
4353.6200958580448059
 20
194.8790877682637017
 30
0.0
 40
0.0233283032376547
 50
16.1825436951262809
 51
95.1802509417619973
  0
ARC
  5
BA0E
  8
0
 10
4353.6255815207068736
 20
194.8806796883685024
 30
0.0
 40
0.0176163242059638
 50
299.6496699581354051
 51
16.18254369512238
  0
ARC
  5
BA0F
  8
0
 10
4353.6211633511511536
 20
194.8833495939412046
 30
0.0
 40
0.0222652392835257
 50
200.9793303175090102
 51
306.1455154983643752
  0
ARC
  5
BA10
  8
0
 10
4353.615938321197973
 20
194.8831699297932971
 30
0.0
 40
0.0542207425891386
 50
137.429359188515491
 51
209.4768689281050911
  0
ARC
  5
BA11
  8
0
 10
4353.6210607639523005
 20
194.8784644442081913
 30
0.0
 40
0.0611763888112017
 50
40.6956337502772811
 51
137.429359188515491
  0
ARC
  5
BA12
  8
0
 10
4353.6263362699346544
 20
194.8830013958051097
 30
0.0
 40
0.0542183076698685
 50
308.8075088532232826
 51
40.6956337502772811
  0
ARC
  5
BA13
  8
0
 10
4353.6214732550706685
 20
194.889048143535291
 30
0.0
 40
0.06197795145601
 50
211.6903023509165962
 51
308.807508853221691
  0
ARC
  5
BA14
  8
0
 10
4353.6229585493047125
 20
194.8802832469278883
 30
0.0
 40
0.1347312038520274
 50
61.8379417631064001
 51
148.5609699788772957
  0
ARC
  5
BA15
  8
0
 10
4353.6300996955806113
 20
194.893622631708098
 30
0.0
 40
0.1196006005446139
 50
358.5027518535500235
 51
61.8379417631064001
  0
ARC
  5
BA16
  8
0
 10
4353.6524898951383875
 20
194.8930373998113907
 30
0.0
 40
0.097202753939292
 50
289.0336043742684069
 51
358.502751853548375
  0
ARC
  5
BA17
  8
0
 10
4353.6218499415354017
 20
194.9225049795805091
 30
0.0
 40
0.136431499735677
 50
215.3826183276910058
 51
297.1893377399098881
  0
ARC
  5
BA18
  8
0
 10
4353.5970893526673535
 20
194.8991725903171925
 30
0.0
 40
0.1028406664190445
 50
150.0225778082181023
 51
212.7711300227188929
  0
ARC
  5
BA19
  8
0
 10
4353.9711563508562904
 20
195.1717756318691102
 30
0.0
 40
0.0205254987755425
 50
95.1802509417619547
 51
198.465691757800812
  0
ARC
  5
BA1A
  8
0
 10
4353.9714094141299938
 20
195.1689842752396089
 30
0.0
 40
0.0233283032376547
 50
16.1825436951262809
 51
95.1802509417619973
  0
ARC
  5
BA1B
  8
0
 10
4353.9768950767920614
 20
195.1705761953444949
 30
0.0
 40
0.0176163242059638
 50
299.6496699581354051
 51
16.18254369512238
  0
ARC
  5
BA1C
  8
0
 10
4353.9724769072363415
 20
195.1732461009171971
 30
0.0
 40
0.0222652392835257
 50
200.9793303175090102
 51
306.1455154983643752
  0
ARC
  5
BA1D
  8
0
 10
4353.9672518772831609
 20
195.1730664367692896
 30
0.0
 40
0.0542207425891386
 50
137.429359188515491
 51
209.4768689281050911
  0
ARC
  5
BA1E
  8
0
 10
4353.9723743200365789
 20
195.1683609511840984
 30
0.0
 40
0.0611763888112017
 50
40.6956337502772811
 51
137.429359188515491
  0
ARC
  5
BA1F
  8
0
 10
4353.9776498260198423
 20
195.1728979027809885
 30
0.0
 40
0.0542183076698685
 50
308.8075088532232826
 51
40.6956337502772811
  0
ARC
  5
BA20
  8
0
 10
4353.9727868111558564
 20
195.1789446505113119
 30
0.0
 40
0.06197795145601
 50
211.6903023509165962
 51
308.807508853221691
  0
ARC
  5
BA21
  8
0
 10
4353.9742721053908099
 20
195.1701797539039092
 30
0.0
 40
0.1347312038520274
 50
61.8379417631064001
 51
148.5609699788772957
  0
ARC
  5
BA22
  8
0
 10
4353.9814132516648897
 20
195.1835191386840904
 30
0.0
 40
0.1196006005446139
 50
358.5027518535500235
 51
61.8379417631064001
  0
ARC
  5
BA23
  8
0
 10
4354.0038034512226659
 20
195.1829339067874116
 30
0.0
 40
0.097202753939292
 50
289.0336043742684069
 51
358.502751853548375
  0
ARC
  5
BA24
  8
0
 10
4353.9731634976196801
 20
195.2124014865563879
 30
0.0
 40
0.136431499735677
 50
215.3826183276910058
 51
297.1893377399098881
  0
ARC
  5
BA25
  8
0
 10
4353.9484029087507224
 20
195.1890690972930997
 30
0.0
 40
0.1028406664190445
 50
150.0225778082181023
 51
212.7711300227188929
  0
ARC
  5
BA26
  8
0
 10
4354.2257983078216057
 20
195.5465642908349935
 30
0.0
 40
0.0205254987755425
 50
95.1802509417619547
 51
198.465691757800812
  0
ARC
  5
BA27
  8
0
 10
4354.2260513710962186
 20
195.5437729342056912
 30
0.0
 40
0.0233283032376547
 50
16.1825436951262809
 51
95.1802509417619973
  0
ARC
  5
BA28
  8
0
 10
4354.2315370337582863
 20
195.5453648543104919
 30
0.0
 40
0.0176163242059638
 50
299.6496699581354051
 51
16.18254369512238
  0
ARC
  5
BA29
  8
0
 10
4354.2271188642016568
 20
195.5480347598831941
 30
0.0
 40
0.0222652392835257
 50
200.9793303175090102
 51
306.1455154983643752
  0
ARC
  5
BA2A
  8
0
 10
4354.2218938342493857
 20
195.5478550957352866
 30
0.0
 40
0.0542207425891386
 50
137.429359188515491
 51
209.4768689281050911
  0
ARC
  5
BA2B
  8
0
 10
4354.2270162770028037
 20
195.5431496101502091
 30
0.0
 40
0.0611763888112017
 50
40.6956337502772811
 51
137.429359188515491
  0
ARC
  5
BA2C
  8
0
 10
4354.2322917829869766
 20
195.5476865617470992
 30
0.0
 40
0.0542183076698685
 50
308.8075088532232826
 51
40.6956337502772811
  0
ARC
  5
BA2D
  8
0
 10
4354.2274287681220812
 20
195.5537333094773089
 30
0.0
 40
0.06197795145601
 50
211.6903023509165962
 51
308.807508853221691
  0
ARC
  5
BA2E
  8
0
 10
4354.2289140623570347
 20
195.5449684128699062
 30
0.0
 40
0.1347312038520274
 50
61.8379417631064001
 51
148.5609699788772957
  0
ARC
  5
BA2F
  8
0
 10
4354.2360552086329335
 20
195.5583077976500874
 30
0.0
 40
0.1196006005446139
 50
358.5027518535500235
 51
61.8379417631064001
  0
ARC
  5
BA30
  8
0
 10
4354.2584454081888907
 20
195.5577225657534086
 30
0.0
 40
0.097202753939292
 50
289.0336043742684069
 51
358.502751853548375
  0
ARC
  5
BA31
  8
0
 10
4354.2278054545868144
 20
195.5871901455224986
 30
0.0
 40
0.136431499735677
 50
215.3826183276910058
 51
297.1893377399098881
  0
ARC
  5
BA32
  8
0
 10
4354.2030448657178567
 20
195.5638577562592104
 30
0.0
 40
0.1028406664190445
 50
150.0225778082181023
 51
212.7711300227188929
  0
ARC
  5
BA33
  8
0
 10
4354.3594614966632435
 20
195.9741445300304008
 30
0.0
 40
0.0205254987755425
 50
95.1802509417619547
 51
198.465691757800812
  0
ARC
  5
BA34
  8
0
 10
4354.3597145599369469
 20
195.9713531734010132
 30
0.0
 40
0.0233283032376547
 50
16.1825436951262809
 51
95.1802509417619973
  0
ARC
  5
BA35
  8
0
 10
4354.365200222598105
 20
195.9729450935058139
 30
0.0
 40
0.0176163242059638
 50
299.6496699581354051
 51
16.18254369512238
  0
ARC
  5
BA36
  8
0
 10
4354.3607820530432946
 20
195.9756149990786014
 30
0.0
 40
0.0222652392835257
 50
200.9793303175090102
 51
306.1455154983643752
  0
ARC
  5
BA37
  8
0
 10
4354.3555570230892044
 20
195.9754353349306939
 30
0.0
 40
0.0542207425891386
 50
137.429359188515491
 51
209.4768689281050911
  0
ARC
  5
BA38
  8
0
 10
4354.3606794658444414
 20
195.9707298493455028
 30
0.0
 40
0.0611763888112017
 50
40.6956337502772811
 51
137.429359188515491
  0
ARC
  5
BA39
  8
0
 10
4354.3659549718277049
 20
195.9752668009423928
 30
0.0
 40
0.0542183076698685
 50
308.8075088532232826
 51
40.6956337502772811
  0
ARC
  5
BA3A
  8
0
 10
4354.3610919569619
 20
195.9813135486726878
 30
0.0
 40
0.06197795145601
 50
211.6903023509165962
 51
308.807508853221691
  0
ARC
  5
BA3B
  8
0
 10
4354.362577251197763
 20
195.9725486520651998
 30
0.0
 40
0.1347312038520274
 50
61.8379417631064001
 51
148.5609699788772957
  0
ARC
  5
BA3C
  8
0
 10
4354.3697183974736618
 20
195.9858880368454948
 30
0.0
 40
0.1196006005446139
 50
358.5027518535500235
 51
61.8379417631064001
  0
ARC
  5
BA3D
  8
0
 10
4354.3921085970287095
 20
195.9853028049487875
 30
0.0
 40
0.097202753939292
 50
289.0336043742684069
 51
358.502751853548375
  0
ARC
  5
BA3E
  8
0
 10
4354.3614686434266332
 20
196.0147703847177922
 30
0.0
 40
0.136431499735677
 50
215.3826183276910058
 51
297.1893377399098881
  0
ARC
  5
BA3F
  8
0
 10
4354.3367080545576755
 20
195.9914379954545041
 30
0.0
 40
0.1028406664190445
 50
150.0225778082181023
 51
212.7711300227188929
  0
ARC
  5
BA40
  8
0
 10
4354.3611641495863296
 20
196.4197088162603109
 30
0.0
 40
0.0205254987755425
 50
95.1802509417619547
 51
198.465691757800812
  0
ARC
  5
BA41
  8
0
 10
4354.3614172128591235
 20
196.4169174596308949
 30
0.0
 40
0.0233283032376547
 50
16.1825436951262809
 51
95.1802509417619973
  0
ARC
  5
BA42
  8
0
 10
4354.3669028755211912
 20
196.4185093797358093
 30
0.0
 40
0.0176163242059638
 50
299.6496699581354051
 51
16.18254369512238
  0
ARC
  5
BA43
  8
0
 10
4354.3624847059663807
 20
196.4211792853085115
 30
0.0
 40
0.0222652392835257
 50
200.9793303175090102
 51
306.1455154983643752
  0
ARC
  5
BA44
  8
0
 10
4354.3572596760132001
 20
196.420999621160604
 30
0.0
 40
0.0542207425891386
 50
137.429359188515491
 51
209.4768689281050911
  0
ARC
  5
BA45
  8
0
 10
4354.3623821187666181
 20
196.4162941355754128
 30
0.0
 40
0.0611763888112017
 50
40.6956337502772811
 51
137.429359188515491
  0
ARC
  5
BA46
  8
0
 10
4354.3676576247498815
 20
196.4208310871723029
 30
0.0
 40
0.0542183076698685
 50
308.8075088532232826
 51
40.6956337502772811
  0
ARC
  5
BA47
  8
0
 10
4354.3627946098858956
 20
196.4268778349025979
 30
0.0
 40
0.06197795145601
 50
211.6903023509165962
 51
308.807508853221691
  0
ARC
  5
BA48
  8
0
 10
4354.3642799041199396
 20
196.4181129382951099
 30
0.0
 40
0.1347312038520274
 50
61.8379417631064001
 51
148.5609699788772957
  0
ARC
  5
BA49
  8
0
 10
4354.3714210503949289
 20
196.4314523230754048
 30
0.0
 40
0.1196006005446139
 50
358.5027518535500235
 51
61.8379417631064001
  0
ARC
  5
BA4A
  8
0
 10
4354.3938112499517956
 20
196.4308670911786976
 30
0.0
 40
0.097202753939292
 50
289.0336043742684069
 51
358.502751853548375
  0
ARC
  5
BA4B
  8
0
 10
4354.3631712963506288
 20
196.4603346709477023
 30
0.0
 40
0.136431499735677
 50
215.3826183276910058
 51
297.1893377399098881
  0
ARC
  5
BA4C
  8
0
 10
4354.3384107074798521
 20
196.4370022816844141
 30
0.0
 40
0.1028406664190445
 50
150.0225778082181023
 51
212.7711300227188929
  0
ARC
  5
BA4D
  8
0
 10
4354.226509818249724
 20
196.8427237718620972
 30
0.0
 40
0.0205254987755425
 50
95.1802509417619547
 51
198.465691757800812
  0
ARC
  5
BA4E
  8
0
 10
4354.2267628815216085
 20
196.8399324152327097
 30
0.0
 40
0.0233283032376547
 50
16.1825436951262809
 51
95.1802509417619973
  0
ARC
  5
BA4F
  8
0
 10
4354.2322485441845856
 20
196.8415243353375104
 30
0.0
 40
0.0176163242059638
 50
299.6496699581354051
 51
16.18254369512238
  0
ARC
  5
BA50
  8
0
 10
4354.2278303746297752
 20
196.8441942409102126
 30
0.0
 40
0.0222652392835257
 50
200.9793303175090102
 51
306.1455154983643752
  0
ARC
  5
BA51
  8
0
 10
4354.222605344675685
 20
196.8440145767623903
 30
0.0
 40
0.0542207425891386
 50
137.429359188515491
 51
209.4768689281050911
  0
ARC
  5
BA52
  8
0
 10
4354.227727787430922
 20
196.8393090911771992
 30
0.0
 40
0.0611763888112017
 50
40.6956337502772811
 51
137.429359188515491
  0
ARC
  5
BA53
  8
0
 10
4354.233003293415095
 20
196.8438460427740893
 30
0.0
 40
0.0542183076698685
 50
308.8075088532232826
 51
40.6956337502772811
  0
ARC
  5
BA54
  8
0
 10
4354.2281402785492901
 20
196.8498927905044127
 30
0.0
 40
0.06197795145601
 50
211.6903023509165962
 51
308.807508853221691
  0
ARC
  5
BA55
  8
0
 10
4354.2296255727833341
 20
196.8411278938968962
 30
0.0
 40
0.1347312038520274
 50
61.8379417631064001
 51
148.5609699788772957
  0
ARC
  5
BA56
  8
0
 10
4354.2367667190601423
 20
196.8544672786771912
 30
0.0
 40
0.1196006005446139
 50
358.5027518535500235
 51
61.8379417631064001
  0
ARC
  5
BA57
  8
0
 10
4354.2591569186170091
 20
196.8538820467805124
 30
0.0
 40
0.097202753939292
 50
289.0336043742684069
 51
358.502751853548375
  0
ARC
  5
BA58
  8
0
 10
4354.2285169650140233
 20
196.8833496265494887
 30
0.0
 40
0.136431499735677
 50
215.3826183276910058
 51
297.1893377399098881
  0
ARC
  5
BA59
  8
0
 10
4354.2037563761450656
 20
196.8600172372863142
 30
0.0
 40
0.1028406664190445
 50
150.0225778082181023
 51
212.7711300227188929
  0
ARC
  5
BA5A
  8
0
 10
4353.9665322362989173
 20
197.2124805428416039
 30
0.0
 40
0.0205254987755425
 50
95.1802509417619547
 51
198.465691757800812
  0
ARC
  5
BA5B
  8
0
 10
4353.9667852995708017
 20
197.2096891862121879
 30
0.0
 40
0.0233283032376547
 50
16.1825436951262809
 51
95.1802509417619973
  0
ARC
  5
BA5C
  8
0
 10
4353.9722709622328694
 20
197.2112811063169886
 30
0.0
 40
0.0176163242059638
 50
299.6496699581354051
 51
16.18254369512238
  0
ARC
  5
BA5D
  8
0
 10
4353.9678527926780589
 20
197.2139510118896908
 30
0.0
 40
0.0222652392835257
 50
200.9793303175090102
 51
306.1455154983643752
  0
ARC
  5
BA5E
  8
0
 10
4353.9626277627248783
 20
197.213771347741897
 30
0.0
 40
0.0542207425891386
 50
137.429359188515491
 51
209.4768689281050911
  0
ARC
  5
BA5F
  8
0
 10
4353.9677502054792058
 20
197.2090658621565922
 30
0.0
 40
0.0611763888112017
 50
40.6956337502772811
 51
137.429359188515491
  0
ARC
  5
BA60
  8
0
 10
4353.9730257114633787
 20
197.2136028137535959
 30
0.0
 40
0.0542183076698685
 50
308.8075088532232826
 51
40.6956337502772811
  0
ARC
  5
BA61
  8
0
 10
4353.9681626965975738
 20
197.2196495614838057
 30
0.0
 40
0.06197795145601
 50
211.6903023509165962
 51
308.807508853221691
  0
ARC
  5
BA62
  8
0
 10
4353.9696479908316178
 20
197.2108846648764029
 30
0.0
 40
0.1347312038520274
 50
61.8379417631064001
 51
148.5609699788772957
  0
ARC
  5
BA63
  8
0
 10
4353.9767891371084261
 20
197.2242240496566126
 30
0.0
 40
0.1196006005446139
 50
358.5027518535500235
 51
61.8379417631064001
  0
ARC
  5
BA64
  8
0
 10
4353.9991793366652928
 20
197.2236388177599054
 30
0.0
 40
0.097202753939292
 50
289.0336043742684069
 51
358.502751853548375
  0
ARC
  5
BA65
  8
0
 10
4353.968539383062307
 20
197.2531063975289101
 30
0.0
 40
0.136431499735677
 50
215.3826183276910058
 51
297.1893377399098881
  0
ARC
  5
BA66
  8
0
 10
4353.9437787941933493
 20
197.2297740082657072
 30
0.0
 40
0.1028406664190445
 50
150.0225778082181023
 51
212.7711300227188929
  0
ARC
  5
BA67
  8
0
 10
4353.6274550718999308
 20
197.5137415551822926
 30
0.0
 40
0.0205254987755425
 50
95.1802509417619547
 51
198.465691757800812
  0
ARC
  5
BA68
  8
0
 10
4353.6277081351736342
 20
197.510950198552905
 30
0.0
 40
0.0233283032376547
 50
16.1825436951262809
 51
95.1802509417619973
  0
ARC
  5
BA69
  8
0
 10
4353.6331937978357018
 20
197.512542118657791
 30
0.0
 40
0.0176163242059638
 50
299.6496699581354051
 51
16.18254369512238
  0
ARC
  5
BA6A
  8
0
 10
4353.6287756282808914
 20
197.5152120242304079
 30
0.0
 40
0.0222652392835257
 50
200.9793303175090102
 51
306.1455154983643752
  0
ARC
  5
BA6B
  8
0
 10
4353.6235505983268013
 20
197.5150323600826141
 30
0.0
 40
0.0542207425891386
 50
137.429359188515491
 51
209.4768689281050911
  0
ARC
  5
BA6C
  8
0
 10
4353.6286730410820383
 20
197.5103268744973946
 30
0.0
 40
0.0611763888112017
 50
40.6956337502772811
 51
137.429359188515491
  0
ARC
  5
BA6D
  8
0
 10
4353.6339485470662112
 20
197.514863826094313
 30
0.0
 40
0.0542183076698685
 50
308.8075088532232826
 51
40.6956337502772811
  0
ARC
  5
BA6E
  8
0
 10
4353.6290855322004063
 20
197.5209105738244943
 30
0.0
 40
0.06197795145601
 50
211.6903023509165962
 51
308.807508853221691
  0
ARC
  5
BA6F
  8
0
 10
4353.6305708264353598
 20
197.5121456772170916
 30
0.0
 40
0.1347312038520274
 50
61.8379417631064001
 51
148.5609699788772957
  0
ARC
  5
BA70
  8
0
 10
4353.6377119727112586
 20
197.5254850619973013
 30
0.0
 40
0.1196006005446139
 50
358.5027518535500235
 51
61.8379417631064001
  0
ARC
  5
BA71
  8
0
 10
4353.6601021722672158
 20
197.5248998301007077
 30
0.0
 40
0.097202753939292
 50
289.0336043742684069
 51
358.502751853548375
  0
ARC
  5
BA72
  8
0
 10
4353.6294622186651395
 20
197.5543674098697124
 30
0.0
 40
0.136431499735677
 50
215.3826183276910058
 51
297.1893377399098881
  0
ARC
  5
BA73
  8
0
 10
4353.6047016297961818
 20
197.5310350206063958
 30
0.0
 40
0.1028406664190445
 50
150.0225778082181023
 51
212.7711300227188929
  0
ARC
  5
BA74
  8
0
 10
4353.1944593345051544
 20
197.6896002878839056
 30
0.0
 40
0.0205254987755425
 50
95.1802509417619547
 51
198.465691757800812
  0
ARC
  5
BA75
  8
0
 10
4353.1947123977788578
 20
197.6868089312546033
 30
0.0
 40
0.0233283032376547
 50
16.1825436951262809
 51
95.1802509417619973
  0
ARC
  5
BA76
  8
0
 10
4353.2001980604409255
 20
197.6884008513592903
 30
0.0
 40
0.0176163242059638
 50
299.6496699581354051
 51
16.18254369512238
  0
ARC
  5
BA77
  8
0
 10
4353.1957798908852055
 20
197.6910707569319925
 30
0.0
 40
0.0222652392835257
 50
200.9793303175090102
 51
306.1455154983643752
  0
ARC
  5
BA78
  8
0
 10
4353.1905548609320249
 20
197.6908910927841987
 30
0.0
 40
0.0542207425891386
 50
137.429359188515491
 51
209.4768689281050911
  0
ARC
  5
BA79
  8
0
 10
4353.1956773036872619
 20
197.6861856071990076
 30
0.0
 40
0.0611763888112017
 50
40.6956337502772811
 51
137.429359188515491
  0
ARC
  5
BA7A
  8
0
 10
4353.2009528096687063
 20
197.6907225587958976
 30
0.0
 40
0.0542183076698685
 50
308.8075088532232826
 51
40.6956337502772811
  0
ARC
  5
BA7B
  8
0
 10
4353.1960897948038109
 20
197.6967693065261926
 30
0.0
 40
0.06197795145601
 50
211.6903023509165962
 51
308.807508853221691
  0
ARC
  5
BA7C
  8
0
 10
4353.1975750890396739
 20
197.6880044099187899
 30
0.0
 40
0.1347312038520274
 50
61.8379417631064001
 51
148.5609699788772957
  0
ARC
  5
BA7D
  8
0
 10
4353.2047162353155727
 20
197.7013437946988859
 30
0.0
 40
0.1196006005446139
 50
358.5027518535500235
 51
61.8379417631064001
  0
ARC
  5
BA7E
  8
0
 10
4353.2271064348724394
 20
197.7007585628022071
 30
0.0
 40
0.097202753939292
 50
289.0336043742684069
 51
358.502751853548375
  0
ARC
  5
BA7F
  8
0
 10
4353.1964664812703631
 20
197.730226142571297
 30
0.0
 40
0.136431499735677
 50
215.3826183276910058
 51
297.1893377399098881
  0
ARC
  5
BA80
  8
0
 10
4353.1717058924014054
 20
197.7068937533080941
 30
0.0
 40
0.1028406664190445
 50
150.0225778082181023
 51
212.7711300227188929
  0
ARC
  5
BA81
  8
0
 10
4352.1477335513982325
 20
197.2136233582176033
 30
0.0
 40
0.0230598053813681
 50
136.7902065223422028
 51
210.1534179693314002
  0
ARC
  5
BA82
  8
0
 10
4352.1534645082638235
 20
197.2082397877892959
 30
0.0
 40
0.0309228008124618
 50
68.2352806899885422
 51
136.7902065223422028
  0
ARC
  5
BA83
  8
0
 10
4352.1559497943617316
 20
197.2144645598314128
 30
0.0
 40
0.0242202316060076
 50
358.1469108116622806
 51
68.2352806899885422
  0
ARC
  5
BA84
  8
0
 10
4352.1552155361905534
 20
197.214488315865708
 30
0.0
 40
0.024954873976504
 50
275.8473334696060988
 51
358.1469108116622806
  0
ARC
  5
BA85
  8
0
 10
4352.1515714042052423
 20
197.2171450939752049
 30
0.0
 40
0.028169530813542
 50
212.4266984813646957
 51
282.6864984073097276
  0
ARC
  5
BA86
  8
0
 10
4352.1489362116226403
 20
197.2096117058003131
 30
0.0
 40
0.0442294214127631
 50
106.9255892286436023
 51
179.105644514127107
  0
ARC
  5
BA87
  8
0
 10
4352.1541332173492265
 20
197.2062789297154097
 30
0.0
 40
0.049094191410641
 50
36.0876642339592024
 51
111.6009006247494995
  0
ARC
  5
BA88
  8
0
 10
4352.1605161919660532
 20
197.2134746425874141
 30
0.0
 40
0.0397507348356916
 50
333.5153519207590875
 51
33.1239376860807724
  0
ARC
  5
BA89
  8
0
 10
4352.1511007946946847
 20
197.2200638206147119
 30
0.0
 40
0.0511447404189115
 50
252.7511919090864865
 51
331.6118944458917781
  0
ARC
  5
BA8A
  8
0
 10
4352.147226730168768
 20
197.2122533599340954
 30
0.0
 40
0.0425593071084757
 50
182.6278533982203953
 51
254.6145542593478126
  0
ARC
  5
BA8B
  8
0
 10
4352.1525736994781255
 20
197.2404624066057011
 30
0.0
 40
0.0305967840099481
 50
213.2485648308316115
 51
269.2713820627380983
  0
ARC
  5
BA8C
  8
0
 10
4352.1525597402169296
 20
197.2393647618413866
 30
0.0
 40
0.029499050486001
 50
269.2713820627380983
 51
329.6401876224703074
  0
ARC
  5
BA8D
  8
0
 10
4351.5693814889691566
 20
196.2515871928260935
 30
0.0
 40
0.0230598053813681
 50
136.7902065223422028
 51
210.1534179693314002
  0
ARC
  5
BA8E
  8
0
 10
4351.5751124458347476
 20
196.2462036223977009
 30
0.0
 40
0.0309228008124618
 50
68.2352806899885422
 51
136.7902065223422028
  0
ARC
  5
BA8F
  8
0
 10
4351.5775977319326557
 20
196.2524283944397894
 30
0.0
 40
0.0242202316060076
 50
358.1469108116622806
 51
68.2352806899885422
  0
ARC
  5
BA90
  8
0
 10
4351.576863473762387
 20
196.2524521504741983
 30
0.0
 40
0.024954873976504
 50
275.8473334696060988
 51
358.1469108116622806
  0
ARC
  5
BA91
  8
0
 10
4351.5732193417752569
 20
196.2551089285834962
 30
0.0
 40
0.028169530813542
 50
212.4266984813646957
 51
282.6864984073097276
  0
ARC
  5
BA92
  8
0
 10
4351.5705841491935644
 20
196.2475755404086044
 30
0.0
 40
0.0442294214127631
 50
106.9255892286436023
 51
179.105644514127107
  0
ARC
  5
BA93
  8
0
 10
4351.5757811549192411
 20
196.2442427643237011
 30
0.0
 40
0.049094191410641
 50
36.0876642339592024
 51
111.6009006247494995
  0
ARC
  5
BA94
  8
0
 10
4351.5821641295369773
 20
196.2514384771957907
 30
0.0
 40
0.0397507348356916
 50
333.5153519207590875
 51
33.1239376860807724
  0
ARC
  5
BA95
  8
0
 10
4351.5727487322656089
 20
196.2580276552230885
 30
0.0
 40
0.0511447404189115
 50
252.7511919090864865
 51
331.6118944458917781
  0
ARC
  5
BA96
  8
0
 10
4351.5688746677396921
 20
196.2502171945425005
 30
0.0
 40
0.0425593071084757
 50
182.6278533982203953
 51
254.6145542593478126
  0
ARC
  5
BA97
  8
0
 10
4351.5742216370490496
 20
196.2784262412141061
 30
0.0
 40
0.0305967840099481
 50
213.2485648308316115
 51
269.2713820627380983
  0
ARC
  5
BA98
  8
0
 10
4351.5742076777878538
 20
196.2773285964497916
 30
0.0
 40
0.029499050486001
 50
269.2713820627380983
 51
329.6401876224703074
  0
ARC
  5
BA99
  8
0
 10
4352.148775067294082
 20
195.290524358711707
 30
0.0
 40
0.0230598053813681
 50
136.7902065223422028
 51
210.1534179693314002
  0
ARC
  5
BA9A
  8
0
 10
4352.1545060241587635
 20
195.2851407882832859
 30
0.0
 40
0.0309228008124618
 50
68.2352806899885422
 51
136.7902065223422028
  0
ARC
  5
BA9B
  8
0
 10
4352.1569913102566716
 20
195.2913655603254028
 30
0.0
 40
0.0242202316060076
 50
358.1469108116622806
 51
68.2352806899885422
  0
ARC
  5
BA9C
  8
0
 10
4352.1562570520864028
 20
195.2913893163598118
 30
0.0
 40
0.024954873976504
 50
275.8473334696060988
 51
358.1469108116622806
  0
ARC
  5
BA9D
  8
0
 10
4352.1526129200992727
 20
195.2940460944691949
 30
0.0
 40
0.028169530813542
 50
212.4266984813646957
 51
282.6864984073097276
  0
ARC
  5
BA9E
  8
0
 10
4352.1499777275193992
 20
195.2865127062941895
 30
0.0
 40
0.0442294214127631
 50
106.9255892286436023
 51
179.105644514127107
  0
ARC
  5
BA9F
  8
0
 10
4352.1551747332450759
 20
195.2831799302093998
 30
0.0
 40
0.049094191410641
 50
36.0876642339592024
 51
111.6009006247494995
  0
ARC
  5
BAA0
  8
0
 10
4352.1615577078609931
 20
195.2903756430814042
 30
0.0
 40
0.0397507348356916
 50
333.5153519207590875
 51
33.1239376860807724
  0
ARC
  5
BAA1
  8
0
 10
4352.1521423105914437
 20
195.2969648211087019
 30
0.0
 40
0.0511447404189115
 50
252.7511919090864865
 51
331.6118944458917781
  0
ARC
  5
BAA2
  8
0
 10
4352.1482682460637079
 20
195.2891543604281992
 30
0.0
 40
0.0425593071084757
 50
182.6278533982203953
 51
254.6145542593478126
  0
ARC
  5
BAA3
  8
0
 10
4352.1536152153739749
 20
195.3173634070996911
 30
0.0
 40
0.0305967840099481
 50
213.2485648308316115
 51
269.2713820627380983
  0
ARC
  5
BAA4
  8
0
 10
4352.1536012561109601
 20
195.316265762335405
 30
0.0
 40
0.029499050486001
 50
269.2713820627380983
 51
329.6401876224703074
  0
ARC
  5
BAA5
  8
0
 10
4353.3150563860917828
 20
195.29071789205409
 30
0.0
 40
0.0230598053813681
 50
136.7902065223422028
 51
210.1534179693314002
  0
ARC
  5
BAA6
  8
0
 10
4353.3207873429582833
 20
195.2853343216256974
 30
0.0
 40
0.0309228008124618
 50
68.2352806899885422
 51
136.7902065223422028
  0
ARC
  5
BAA7
  8
0
 10
4353.3232726290552819
 20
195.2915590936677859
 30
0.0
 40
0.0242202316060076
 50
358.1469108116622806
 51
68.2352806899885422
  0
ARC
  5
BAA8
  8
0
 10
4353.3225383708831941
 20
195.2915828497021948
 30
0.0
 40
0.024954873976504
 50
275.8473334696060988
 51
358.1469108116622806
  0
ARC
  5
BAA9
  8
0
 10
4353.318894238897883
 20
195.2942396278116064
 30
0.0
 40
0.028169530813542
 50
212.4266984813646957
 51
282.6864984073097276
  0
ARC
  5
BAAA
  8
0
 10
4353.3162590463161905
 20
195.2867062396366862
 30
0.0
 40
0.0442294214127631
 50
106.9255892286436023
 51
179.105644514127107
  0
ARC
  5
BAAB
  8
0
 10
4353.3214560520418672
 20
195.2833734635518113
 30
0.0
 40
0.049094191410641
 50
36.0876642339592024
 51
111.6009006247494995
  0
ARC
  5
BAAC
  8
0
 10
4353.3278390266577844
 20
195.2905691764237872
 30
0.0
 40
0.0397507348356916
 50
333.5153519207590875
 51
33.1239376860807724
  0
ARC
  5
BAAD
  8
0
 10
4353.3184236293891445
 20
195.2971583544511134
 30
0.0
 40
0.0511447404189115
 50
252.7511919090864865
 51
331.6118944458917781
  0
ARC
  5
BAAE
  8
0
 10
4353.3145495648623182
 20
195.2893478937706107
 30
0.0
 40
0.0425593071084757
 50
182.6278533982203953
 51
254.6145542593478126
  0
ARC
  5
BAAF
  8
0
 10
4353.3198965341716757
 20
195.3175569404421026
 30
0.0
 40
0.0305967840099481
 50
213.2485648308316115
 51
269.2713820627380983
  0
ARC
  5
BAB0
  8
0
 10
4353.3198825749086609
 20
195.3164592956777881
 30
0.0
 40
0.029499050486001
 50
269.2713820627380983
 51
329.6401876224703074
  0
ARC
  5
BAB1
  8
0
 10
4353.9000272616713119
 20
196.2519361190018969
 30
0.0
 40
0.0230598053813681
 50
136.7902065223422028
 51
210.1534179693314002
  0
ARC
  5
BAB2
  8
0
 10
4353.9057582185359934
 20
196.2465525485735043
 30
0.0
 40
0.0309228008124618
 50
68.2352806899885422
 51
136.7902065223422028
  0
ARC
  5
BAB3
  8
0
 10
4353.9082435046339015
 20
196.2527773206155928
 30
0.0
 40
0.0242202316060076
 50
358.1469108116622806
 51
68.2352806899885422
  0
ARC
  5
BAB4
  8
0
 10
4353.9075092464627232
 20
196.2528010766500017
 30
0.0
 40
0.024954873976504
 50
275.8473334696060988
 51
358.1469108116622806
  0
ARC
  5
BAB5
  8
0
 10
4353.9038651144783216
 20
196.2554578547594133
 30
0.0
 40
0.028169530813542
 50
212.4266984813646957
 51
282.6864984073097276
  0
ARC
  5
BAB6
  8
0
 10
4353.9012299218957196
 20
196.2479244665844931
 30
0.0
 40
0.0442294214127631
 50
106.9255892286436023
 51
179.105644514127107
  0
ARC
  5
BAB7
  8
0
 10
4353.9064269276223058
 20
196.2445916904995897
 30
0.0
 40
0.049094191410641
 50
36.0876642339592024
 51
111.6009006247494995
  0
ARC
  5
BAB8
  8
0
 10
4353.912809902238223
 20
196.2517874033715941
 30
0.0
 40
0.0397507348356916
 50
333.5153519207590875
 51
33.1239376860807724
  0
ARC
  5
BAB9
  8
0
 10
4353.9033945049677641
 20
196.2583765813988919
 30
0.0
 40
0.0511447404189115
 50
252.7511919090864865
 51
331.6118944458917781
  0
ARC
  5
BABA
  8
0
 10
4353.8995204404409378
 20
196.2505661207183891
 30
0.0
 40
0.0425593071084757
 50
182.6278533982203953
 51
254.6145542593478126
  0
ARC
  5
BABB
  8
0
 10
4353.9048674097521143
 20
196.2787751673899095
 30
0.0
 40
0.0305967840099481
 50
213.2485648308316115
 51
269.2713820627380983
  0
ARC
  5
BABC
  8
0
 10
4353.9048534504890995
 20
196.277677522625595
 30
0.0
 40
0.029499050486001
 50
269.2713820627380983
 51
329.6401876224703074
  0
ARC
  5
BABD
  8
0
 10
4353.3160979019939987
 20
197.2134298248116124
 30
0.0
 40
0.0230598053813681
 50
136.7902065223422028
 51
210.1534179693314002
  0
ARC
  5
BABE
  8
0
 10
4353.3218288588586802
 20
197.208046254383305
 30
0.0
 40
0.0309228008124618
 50
68.2352806899885422
 51
136.7902065223422028
  0
ARC
  5
BABF
  8
0
 10
4353.3243141449565883
 20
197.2142710264253935
 30
0.0
 40
0.0242202316060076
 50
358.1469108116622806
 51
68.2352806899885422
  0
ARC
  5
BAC0
  8
0
 10
4353.3235798867863195
 20
197.2142947824598025
 30
0.0
 40
0.024954873976504
 50
275.8473334696060988
 51
358.1469108116622806
  0
ARC
  5
BAC1
  8
0
 10
4353.3199357547991895
 20
197.2169515605692141
 30
0.0
 40
0.028169530813542
 50
212.4266984813646957
 51
282.6864984073097276
  0
ARC
  5
BAC2
  8
0
 10
4353.3173005622184064
 20
197.2094181723942938
 30
0.0
 40
0.0442294214127631
 50
106.9255892286436023
 51
179.105644514127107
  0
ARC
  5
BAC3
  8
0
 10
4353.3224975679449926
 20
197.2060853963093905
 30
0.0
 40
0.049094191410641
 50
36.0876642339592024
 51
111.6009006247494995
  0
ARC
  5
BAC4
  8
0
 10
4353.3288805425609098
 20
197.2132811091813949
 30
0.0
 40
0.0397507348356916
 50
333.5153519207590875
 51
33.1239376860807724
  0
ARC
  5
BAC5
  8
0
 10
4353.3194651452904509
 20
197.2198702872086926
 30
0.0
 40
0.0511447404189115
 50
252.7511919090864865
 51
331.6118944458917781
  0
ARC
  5
BAC6
  8
0
 10
4353.3155910807636246
 20
197.2120598265281899
 30
0.0
 40
0.0425593071084757
 50
182.6278533982203953
 51
254.6145542593478126
  0
ARC
  5
BAC7
  8
0
 10
4353.3209380500738916
 20
197.2402688731997102
 30
0.0
 40
0.0305967840099481
 50
213.2485648308316115
 51
269.2713820627380983
  0
ARC
  5
BAC8
  8
0
 10
4353.3209240908108768
 20
197.2391712284353957
 30
0.0
 40
0.029499050486001
 50
269.2713820627380983
 51
329.6401876224703074
  0
ARC
  5
BAC9
  8
0
 10
4352.7298169067280469
 20
195.7732180573543985
 30
0.0
 40
0.1002033027112655
 50
124.5419305103938967
 51
181.5063052829532921
  0
ARC
  5
BACA
  8
0
 10
4352.7365106797433327
 20
195.746526427466307
 30
0.0
 40
0.1263517351656761
 50
55.005914148867241
 51
120.1750940493389948
  0
ARC
  5
BACB
  8
0
 10
4352.7472944745168206
 20
195.7748427859056903
 30
0.0
 40
0.0972525622231571
 50
348.4672101682724019
 51
50.6390776878054183
  0
ARC
  5
BACC
  8
0
 10
4352.7407518904956305
 20
195.7761777893680062
 30
0.0
 40
0.1039299599148467
 50
286.3214645845670816
 51
348.4672101682724019
  0
ARC
  5
BACD
  8
0
 10
4352.7376002381870421
 20
195.7869406304714914
 30
0.0
 40
0.1151447564306994
 50
235.0224312196214953
 51
286.3214645845670816
  0
ARC
  5
BACE
  8
0
 10
4352.7274767105345745
 20
195.7724706808780866
 30
0.0
 40
0.0974850493737464
 50
198.5927093719159018
 51
235.0224312196214953
  0
ARC
  5
BACF
  8
0
 10
4352.7355219984056021
 20
195.775177079759203
 30
0.0
 40
0.105973350252981
 50
182.484073162977694
 51
198.5927093719159018
  0
ARC
  5
BAD0
  8
0
 10
4352.7332418526066249
 20
195.7523519617587056
 30
0.0
 40
0.1195560771582622
 50
120.9510838247862949
 51
144.8567241156025887
  0
ARC
  5
BAD1
  8
0
 10
4352.721649506540416
 20
195.7605122866239924
 30
0.0
 40
0.1053795687990776
 50
144.856724115583603
 51
180.7810472396618877
  0
ARC
  5
BAD2
  8
0
 10
4352.7315011975160814
 20
195.7606465916769878
 30
0.0
 40
0.1152321752025376
 50
180.7810472396618877
 51
216.9818127922409019
  0
ARC
  5
BAD3
  8
0
 10
4352.7331756213397966
 20
195.7619075274099032
 30
0.0
 40
0.1173282796991973
 50
216.9818127922409019
 51
253.6379293784025037
  0
ARC
  5
BAD4
  8
0
 10
4352.7389431191149924
 20
195.7815518068562994
 30
0.0
 40
0.1378017197021016
 50
253.6379293784025037
 51
272.7510568763784136
  0
ARC
  5
BAD5
  8
0
 10
4352.7398638945760467
 20
195.7623897169283111
 30
0.0
 40
0.1186175200091823
 50
272.7510568763784136
 51
303.197599834927928
  0
ARC
  5
BAD6
  8
0
 10
4352.7388830284962751
 20
195.7638887744651868
 30
0.0
 40
0.1204089640541783
 50
303.1975998349265069
 51
338.8071427335249837
  0
ARC
  5
BAD7
  8
0
 10
4352.754907590444418
 20
195.7576755546353979
 30
0.0
 40
0.1032220304626262
 50
338.8071427335249837
 51
18.835496017496471
  0
ARC
  5
BAD8
  8
0
 10
4352.7312695295040612
 20
195.7496121573948926
 30
0.0
 40
0.128197544473104
 50
18.835496017496471
 51
37.4732365337072721
  0
ARC
  5
BAD9
  8
0
 10
4352.7544704820566039
 20
195.7673976622261875
 30
0.0
 40
0.0989638587407726
 50
37.4732365337066327
 51
56.437811906266603
  0
ARC
  5
BADA
  8
0
 10
4352.7321181205852554
 20
195.767997693042588
 30
0.0
 40
0.1112216634211518
 50
155.558273182981992
 51
195.6610501986174029
  0
ARC
  5
BADB
  8
0
 10
4352.7276477693339984
 20
195.7667444124134875
 30
0.0
 40
0.1065789537992331
 50
195.6610501986174029
 51
239.0575269514361878
  0
ARC
  5
BADC
  8
0
 10
4352.7413034622368286
 20
195.7895230757534932
 30
0.0
 40
0.1331372943385255
 50
239.0575269514361878
 51
259.4184630893324766
  0
ARC
  5
BADD
  8
0
 10
4352.7354207648377269
 20
195.7580330423834027
 30
0.0
 40
0.1011024955981498
 50
259.4184630893324766
 51
272.1792325898640001
  0
ARC
  5
BADE
  8
0
 10
4352.7342563898555454
 20
195.7886317031475016
 30
0.0
 40
0.131723302407511
 50
272.1792325898640001
 51
297.0879449099007843
  0
ARC
  5
BADF
  8
0
 10
4352.7455143264232902
 20
195.7666203472290931
 30
0.0
 40
0.1070000153058211
 50
297.0879449099007843
 51
333.703045946485986
  0
ARC
  5
BAE0
  8
0
 10
4352.7411956056075724
 20
195.7687545063371033
 30
0.0
 40
0.1118172743380207
 50
333.7030459464849059
 51
2.559412995271769
  0
ARC
  5
BAE1
  8
0
 10
4352.7568323788518683
 20
195.7694534688411068
 30
0.0
 40
0.0961648871056914
 50
2.559412995271769
 51
22.2854267372977795
  0
ARC
  5
BAE2
  8
0
 10
4352.6673698226586566
 20
195.7327887802422879
 30
0.0
 40
0.1928491585800036
 50
22.2854267372977795
 51
24.4383160638148489
  0
ARC
  5
BAE3
  8
0
 10
4352.7051020407570832
 20
195.8370392351922931
 30
0.0
 40
0.0293934443056747
 50
177.1090770527715961
 51
236.8810901364427934
  0
ARC
  5
BAE4
  8
0
 10
4352.7072800818541509
 20
195.8403779343344979
 30
0.0
 40
0.0333797677975816
 50
236.8810901364427934
 51
290.5199771733105081
  0
ARC
  5
BAE5
  8
0
 10
4352.7082326176023344
 20
195.8377478297327059
 30
0.0
 40
0.03058266170877
 50
290.5758882875582003
 51
349.7261774160068057
  0
ARC
  5
BAE6
  8
0
 10
4352.7108806697096952
 20
195.8372678468051902
 30
0.0
 40
0.0278914605698114
 50
349.7261774160052141
 51
46.9708779320916605
  0
ARC
  5
BAE7
  8
0
 10
4352.7069579163926392
 20
195.833065493265309
 30
0.0
 40
0.0336401794577519
 50
46.9708779320916605
 51
111.938139913538194
  0
ARC
  5
BAE8
  8
0
 10
4352.7055478195979958
 20
195.8365664832847983
 30
0.0
 40
0.029865884280092
 50
111.9381399135375972
 51
176.2463861921669945
  0
ARC
  5
BAE9
  8
0
 10
4352.7963788336828657
 20
195.7813522694563062
 30
0.0
 40
0.0293934443056747
 50
177.1090770527715961
 51
236.8810901364427934
  0
ARC
  5
BAEA
  8
0
 10
4352.7985568747799334
 20
195.7846909685985111
 30
0.0
 40
0.0333797677975816
 50
236.8810901364427934
 51
290.5199771733105081
  0
ARC
  5
BAEB
  8
0
 10
4352.7995094105290264
 20
195.7820608639966906
 30
0.0
 40
0.03058266170877
 50
290.5758882875582003
 51
349.7261774160068057
  0
ARC
  5
BAEC
  8
0
 10
4352.8021574626363872
 20
195.7815808810692033
 30
0.0
 40
0.0278914605698114
 50
349.7261774160052141
 51
46.9708779320916605
  0
ARC
  5
BAED
  8
0
 10
4352.7982347093193312
 20
195.7773785275292937
 30
0.0
 40
0.0336401794577519
 50
46.9708779320916605
 51
111.938139913538194
  0
ARC
  5
BAEE
  8
0
 10
4352.7968246125237783
 20
195.7808795175488115
 30
0.0
 40
0.029865884280092
 50
111.9381399135375972
 51
176.2463861921669945
  0
ARC
  5
BAEF
  8
0
 10
4352.6996387052722639
 20
195.7399561996988098
 30
0.0
 40
0.0293934443056747
 50
177.1090770527715961
 51
236.8810901364427934
  0
ARC
  5
BAF0
  8
0
 10
4352.7018167463693317
 20
195.7432948988409862
 30
0.0
 40
0.0333797677975816
 50
236.8810901364427934
 51
290.5199771733105081
  0
ARC
  5
BAF1
  8
0
 10
4352.7027692821184246
 20
195.7406647942391942
 30
0.0
 40
0.03058266170877
 50
290.5758882875582003
 51
349.7261774160068057
  0
ARC
  5
BAF2
  8
0
 10
4352.705417334224876
 20
195.7401848113115932
 30
0.0
 40
0.0278914605698114
 50
349.7261774160052141
 51
46.9708779320916605
  0
ARC
  5
BAF3
  8
0
 10
4352.7014945809078199
 20
195.735982457771712
 30
0.0
 40
0.0336401794577519
 50
46.9708779320916605
 51
111.938139913538194
  0
ARC
  5
BAF4
  8
0
 10
4352.7000844841140861
 20
195.7394834477912013
 30
0.0
 40
0.029865884280092
 50
111.9381399135375972
 51
176.2463861921669945
  0
LINE
  5
BAF5
  8
0
 10
4345.822875524835581
 20
215.7781088125776137
 30
0.0
 11
4345.8277419276691944
 21
215.7277716549185982
 31
0.0
  0
ARC
  5
BAF6
  8
0
 10
4345.8355794030412653
 20
215.7285293518987999
 30
0.0
 40
0.0078740158059688
 50
185.521974996829897
 51
267.9999992659937789
  0
LINE
  5
BAF7
  8
0
 10
4345.8353046037509557
 20
215.7206601327341104
 30
0.0
 11
4345.9273093531000995
 21
215.7174472549098141
 31
0.0
  0
ARC
  5
BAF8
  8
0
 10
4345.927584152241252
 20
215.7253164698381056
 30
0.0
 40
0.007874011566988
 50
267.9999992659937789
 51
309.8822942584500879
  0
LINE
  5
BAF9
  8
0
 10
4345.8875006888711141
 20
215.7781088125776137
 30
0.0
 11
4345.8923969356383168
 21
215.7277428830718122
 31
0.0
  0
ARC
  5
BAFA
  8
0
 10
4345.9002137767120075
 20
215.7285027853152997
 30
0.0
 40
0.0078536905855321
 50
185.5524742488213121
 51
273.1009319640843955
  0
ARC
  5
BAFB
  8
0
 10
4346.0780891069225618
 20
219.4460102431642952
 30
0.0
 40
3.7295735254335241
 50
267.2728775221253841
 51
268.6664936892078117
  0
ARC
  5
BAFC
  8
0
 10
4345.9912056629982544
 20
215.7266159597942021
 30
0.0
 40
0.009169596108519
 50
270.5555188050807942
 51
343.6986969634182856
  0
LINE
  5
BAFD
  8
0
 10
4346.0000066313368734
 20
215.7240421592775874
 30
0.0
 11
4346.0090462867356109
 21
215.7781088125776137
 31
0.0
  0
LINE
  5
BAFE
  8
0
 10
4346.0794124757394457
 20
215.7781088125776137
 30
0.0
 11
4346.0843975397356189
 21
215.7276574562775977
 31
0.0
  0
ARC
  5
BAFF
  8
0
 10
4346.092258206535007
 20
215.7284341633857139
 30
0.0
 40
0.007898946541044
 50
185.643039482470698
 51
267.9014325605381259
  0
ARC
  5
BB00
  8
0
 10
4346.2030515111173372
 20
217.7094888953245118
 30
0.0
 40
1.9920479399360249
 50
266.803357761065115
 51
269.4513496349568982
  0
ARC
  5
BB01
  8
0
 10
4346.1842037387459641
 20
215.7254387232806891
 30
0.0
 40
0.0079097046931907
 50
268.3532748354605815
 51
350.5836344767874948
  0
LINE
  5
BB02
  8
0
 10
4346.1920068638883095
 20
215.7241446342735003
 30
0.0
 11
4346.2009564127747581
 21
215.7781088125776137
 31
0.0
  0
ARC
  5
BB03
  8
0
 10
4346.0948453302098642
 20
214.6762599569782139
 30
0.0
 40
1.0442169822588461
 50
86.2273177070304371
 51
89.0194202113934807
  0
ARC
  5
BB04
  8
0
 10
4346.1688479276081125
 20
216.4592899516283921
 30
0.0
 40
0.7410947959591
 50
265.6561137122840819
 51
269.5906242061205944
  0
LINE
  5
BB05
  8
0
 10
4346.3927794483097387
 20
215.7781088125776137
 30
0.0
 11
4346.3979097597357395
 21
215.7275180252775897
 31
0.0
  0
ARC
  5
BB06
  8
0
 10
4346.4057923455447963
 20
215.7283173826745042
 30
0.0
 40
0.0079230127652789
 50
185.790456645534988
 51
260.8902750468008094
  0
ARC
  5
BB07
  8
0
 10
4346.4919398638103303
 20
217.0437503886228967
 30
0.0
 40
1.326139421609754
 50
266.2210651511093147
 51
270.240366111552305
  0
ARC
  5
BB08
  8
0
 10
4346.4966022966173114
 20
215.7268590555910919
 30
0.0
 40
0.009280255098631
 50
275.5711562158904826
 51
344.0206705662134254
  0
LINE
  5
BB09
  8
0
 10
4346.5055239726343643
 20
215.7243042891161053
 30
0.0
 11
4346.5143084876372086
 21
215.7781088125776137
 31
0.0
  0
ARC
  5
BB0A
  8
0
 10
4346.434933872397778
 20
215.4215519083062986
 30
0.0
 40
0.2997091250167576
 50
81.9132535850135639
 51
91.5593739689956436
  0
ARC
  5
BB0B
  8
0
 10
4346.5264933943026335
 20
217.0271900616737923
 30
0.0
 40
1.30984110201674
 50
265.6339680950206912
 51
267.838659459005612
  0
LINE
  5
BB0C
  8
0
 10
4346.5517803188840844
 20
215.7781088125776137
 30
0.0
 11
4346.55802857013623
 21
215.7268229743775976
 31
0.0
  0
ARC
  5
BB0D
  8
0
 10
4346.5658985865738941
 20
215.7277817934549091
 30
0.0
 40
0.007928208672754
 50
186.9462212056812973
 51
268.2075616340046054
  0
ARC
  5
BB0E
  8
0
 10
4346.3917310186780014
 20
203.1865345525507962
 30
0.0
 40
12.5345295574200097
 50
88.7856530488350302
 51
89.2049819033107525
  0
ARC
  5
BB0F
  8
0
 10
4346.65740316539177
 20
215.7263831398014986
 30
0.0
 40
0.008134241723715
 50
269.7830733181019127
 51
349.8423119945484814
  0
LINE
  5
BB10
  8
0
 10
4346.6654099119368766
 20
215.7249486021775908
 30
0.0
 11
4346.6734587624359847
 21
215.7781088125776137
 31
0.0
  0
LINE
  5
BB11
  8
0
 10
4346.705830935555241
 20
215.7781088125776137
 30
0.0
 11
4346.7118284803582355
 21
215.7267767830880132
 31
0.0
  0
ARC
  5
BB12
  8
0
 10
4346.7196407116189221
 20
215.7276895505642074
 30
0.0
 40
0.0078653735919127
 50
186.6641241815920864
 51
266.3202427810472273
  0
ARC
  5
BB13
  8
0
 10
4346.8328823680221831
 20
219.7325345662895018
 30
0.0
 40
4.014306015682978
 50
268.3762911609683783
 51
269.6959918497826152
  0
ARC
  5
BB14
  8
0
 10
4346.8113279877343302
 20
215.7266150320556903
 30
0.0
 40
0.0083338701981979
 50
271.7520402296754014
 51
348.751060169022594
  0
LINE
  5
BB15
  8
0
 10
4346.8195017550360717
 20
215.7249893258776012
 30
0.0
 11
4346.8218030979905961
 21
215.7402397969875096
 31
0.0
  0
LINE
  5
BB16
  8
0
 10
4346.8170918515288577
 20
215.7781088125776137
 30
0.0
 11
4346.8234088517983764
 21
215.7273327422591933
 31
0.0
  0
ARC
  5
BB17
  8
0
 10
4346.831563252541855
 20
215.728347223123194
 30
0.0
 40
0.0082172637121832
 50
187.0916732239772102
 51
263.9703720623979279
  0
ARC
  5
BB18
  8
0
 10
4346.9077651330362642
 20
216.8698221292648896
 30
0.0
 40
1.1522267909868269
 50
266.1649906753100936
 51
270.7800017570781961
  0
ARC
  5
BB19
  8
0
 10
4346.9230300290437299
 20
215.7257957090689899
 30
0.0
 40
0.0081045211766919
 50
272.9746203700348133
 51
350.7829525499320766
  0
LINE
  5
BB1A
  8
0
 10
4346.9310299099197437
 20
215.7244975683026098
 30
0.0
 11
4346.9395964056357116
 21
215.7781088125776137
 31
0.0
  0
LINE
  5
BB1B
  8
0
 10
4347.0071993146402747
 20
215.7781088125776137
 30
0.0
 11
4347.0132837386599931
 21
215.7266965676963935
 31
0.0
  0
ARC
  5
BB1C
  8
0
 10
4347.021116482826983
 20
215.7276235401884037
 30
0.0
 40
0.007887405098959
 50
186.749322814230112
 51
268.9841298514816117
  0
ARC
  5
BB1D
  8
0
 10
4347.1093632350830376
 20
218.4934527284954129
 30
0.0
 40
2.775123250002657
 50
268.1748431561074995
 51
270.0759521202633096
  0
ARC
  5
BB1E
  8
0
 10
4347.1131431947142119
 20
215.726239608671392
 30
0.0
 40
0.0079083396323484
 50
269.2666654249043745
 51
351.4861922401972834
  0
LINE
  5
BB1F
  8
0
 10
4347.1209643861357108
 20
215.7250687967776059
 30
0.0
 11
4347.1289043377373673
 21
215.7781088125776137
 31
0.0
  0
ARC
  5
BB20
  8
0
 10
4347.0605022710933554
 20
215.5159305342459106
 30
0.0
 40
0.2057454125232466
 50
80.7072111032788655
 51
95.0526625617388845
  0
ARC
  5
BB21
  8
0
 10
4347.0904141607688871
 20
216.3239455155641906
 30
0.0
 40
0.604978826654231
 50
265.4462211204277082
 51
270.3136525445863754
  0
LINE
  5
BB22
  8
0
 10
4347.241838959072993
 20
215.7781088125776137
 30
0.0
 11
4347.2488995002322554
 21
215.7258729969776141
 31
0.0
  0
ARC
  5
BB23
  8
0
 10
4347.2567025575926891
 20
215.7269277102435012
 30
0.0
 40
0.0078740157659048
 50
187.6978260274067054
 51
269.9999995809037046
  0
LINE
  5
BB24
  8
0
 10
4347.2567025575363004
 20
215.7190536944775943
 30
0.0
 11
4347.3662504130215893
 21
215.719053693676301
 31
0.0
  0
ARC
  5
BB25
  8
0
 10
4347.365735938799844
 20
215.7750679235153086
 30
0.0
 40
0.0560165637766475
 50
257.158581064475527
 51
270.5257668979010077
  0
ARC
  5
BB26
  8
0
 10
4347.3557814658706775
 20
215.7278499871086126
 30
0.0
 40
0.0078071379420895
 50
184.9495424281539897
 51
251.3594360474073994
  0
LINE
  5
BB27
  8
0
 10
4347.3480034402346064
 20
215.7271763996645859
 30
0.0
 11
4347.342300742657244
 21
215.7781088125776137
 31
0.0
  0
ARC
  5
BB28
  8
0
 10
4347.323096108199934
 20
209.0323344887497115
 30
0.0
 40
6.6868584782482401
 50
88.9329736131627868
 51
89.6302373161947372
  0
ARC
  5
BB29
  8
0
 10
4347.4477665459116906
 20
215.7259497446171963
 30
0.0
 40
0.0079176876606697
 50
268.932973613162801
 51
351.2301721921480748
  0
LINE
  5
BB2A
  8
0
 10
4347.4555916663630342
 20
215.724742571121908
 30
0.0
 11
4347.4638244229872726
 21
215.7781088125776137
 31
0.0
  0
LINE
  5
BB2B
  8
0
 10
4347.5643842277358999
 20
215.7781088125776137
 30
0.0
 11
4347.5566087479801354
 21
215.7251899522483995
 31
0.0
  0
ARC
  5
BB2C
  8
0
 10
4347.5487091177383263
 20
215.7263506615805113
 30
0.0
 40
0.0079844476396133
 50
268.6300599045608237
 51
351.6412205229419214
  0
ARC
  5
BB2D
  8
0
 10
4347.5329133653749523
 20
217.9929476570540885
 30
0.0
 40
2.2746326892575541
 50
268.0780923179019055
 51
270.3930743586258814
  0
ARC
  5
BB2E
  8
0
 10
4347.4566489402823208
 20
215.7270497807294021
 30
0.0
 40
0.0074552825317789
 50
243.8986332857803916
 51
269.8411067719418952
  0
ARC
  5
BB2F
  8
0
 10
4347.4934874980008317
 20
215.3723456181160998
 30
0.0
 40
0.3481837148226274
 50
85.1285719142408652
 51
92.5073517773178082
  0
ARC
  5
BB30
  8
0
 10
4347.5160736872785492
 20
216.466988162537092
 30
0.0
 40
0.7477491442376524
 50
267.1009547574080898
 51
270.5349680803720958
  0
LINE
  5
BB31
  8
0
 10
4347.6216094680303286
 20
215.7781088125776137
 30
0.0
 11
4347.6286700091377497
 21
215.7258729969288993
 31
0.0
  0
ARC
  5
BB32
  8
0
 10
4347.6364730664363378
 20
215.7269277101775913
 30
0.0
 40
0.0078740156999998
 50
187.6978259660538129
 51
270.0
  0
LINE
  5
BB33
  8
0
 10
4347.6364730664363378
 20
215.7190536944775943
 30
0.0
 11
4347.7285611373363281
 21
215.7190536944775943
 31
0.0
  0
ARC
  5
BB34
  8
0
 10
4347.7285611373363281
 20
215.7269453961829981
 30
0.0
 40
0.0078917017053897
 50
270.0000000000259774
 51
352.1899425905104977
  0
LINE
  5
BB35
  8
0
 10
4347.7363796356357852
 20
215.7258729969325941
 30
0.0
 11
4347.7435443938020398
 21
215.7781088125776137
 31
0.0
  0
LINE
  5
BB36
  8
0
 10
4347.9497790350178548
 20
215.7781088125776137
 30
0.0
 11
4347.9556447409368047
 21
215.7268261447775899
 31
0.0
  0
ARC
  5
BB37
  8
0
 10
4347.9637004967598841
 20
215.7278095530263045
 30
0.0
 40
0.0081155587408458
 50
186.9599585448264065
 51
258.1619750198191241
  0
ARC
  5
BB38
  8
0
 10
4348.0220662405308758
 20
216.4985687463376962
 30
0.0
 40
0.7810126163311149
 50
265.5917528896645194
 51
272.4435513141372098
  0
ARC
  5
BB39
  8
0
 10
4348.0536135845850367
 20
215.7283278594863987
 30
0.0
 40
0.0102128230145051
 50
279.8733291840064226
 51
341.1076502176438225
  0
LINE
  5
BB3A
  8
0
 10
4348.0632762285285935
 20
215.7250210383641047
 30
0.0
 11
4348.0712704068364474
 21
215.7781088125776137
 31
0.0
  0
ARC
  5
BB3B
  8
0
 10
4348.0003932293184334
 20
215.4214396095136976
 30
0.0
 40
0.2991652282975051
 50
83.36961773200359
 51
93.2524244286427546
  0
ARC
  5
BB3C
  8
0
 10
4348.0183196186735586
 20
216.0293861716212973
 30
0.0
 40
0.3112261390342768
 50
263.561560121793093
 51
273.060482038904297
  0
ARC
  5
BB3D
  8
0
 10
4348.0873174268581351
 20
216.1592029721028041
 30
0.0
 40
0.440799960090032
 50
266.2486276592192098
 51
271.5859681075709204
  0
ARC
  5
BB3E
  8
0
 10
4348.0992893053617081
 20
215.7268090862442875
 30
0.0
 40
0.0082403706659575
 50
271.5859681075709204
 51
353.4772360778296161
  0
LINE
  5
BB3F
  8
0
 10
4348.1074763344677194
 20
215.7258729969776141
 30
0.0
 11
4348.1150070426356251
 21
215.7781088125776137
 31
0.0
  0
LINE
  5
BB40
  8
0
 10
4348.1939181620564341
 20
215.7781088125776137
 30
0.0
 11
4348.1868576209408275
 21
215.7258729969776141
 31
0.0
  0
ARC
  5
BB41
  8
0
 10
4348.1790545635067247
 20
215.7269277102467129
 30
0.0
 40
0.0078740158376197
 50
269.9924413202630831
 51
352.3021740196900851
  0
LINE
  5
BB42
  8
0
 10
4348.179053524736446
 20
215.7190536944775943
 30
0.0
 11
4348.1021026599992183
 21
215.7190638461318883
 31
0.0
  0
ARC
  5
BB43
  8
0
 10
4348.3074802983310292
 20
218.8934157981082933
 30
0.0
 40
3.182831464433693
 50
265.5375944857033801
 51
265.8847711702017023
  0
ARC
  5
BB44
  8
0
 10
4348.1097559280542555
 20
216.6324189497017016
 30
0.0
 40
0.9141435660350005
 50
266.8203214486918
 51
268.0764733689359218
  0
LINE
  5
BB45
  8
0
 10
4348.2353282581289022
 20
215.7781088125776137
 30
0.0
 11
4348.2423887992381424
 21
215.7258729969288993
 31
0.0
  0
ARC
  5
BB46
  8
0
 10
4348.2501918734096762
 20
215.726927712458405
 30
0.0
 40
0.0078740327272283
 50
187.6978259660554045
 51
270.1108875796406892
  0
LINE
  5
BB47
  8
0
 10
4348.2502071124363283
 20
215.7190536944775943
 30
0.0
 11
4348.3422953683357264
 21
215.7190536944775943
 31
0.0
  0
ARC
  5
BB48
  8
0
 10
4348.3422953683311789
 20
215.7269277101815987
 30
0.0
 40
0.0078740157059179
 50
269.9987451050840832
 51
352.3021740295312725
  0
LINE
  5
BB49
  8
0
 10
4348.350098425635224
 20
215.7258729969315141
 30
0.0
 11
4348.3571589667471926
 21
215.7781088125775
 31
0.0
  0
LINE
  5
BB4A
  8
0
 10
4348.6217909446477279
 20
215.7781088125776137
 30
0.0
 11
4348.6279800812362737
 21
215.726528080877614
 31
0.0
  0
ARC
  5
BB4B
  8
0
 10
4348.6359576645272682
 20
215.7274853056202062
 30
0.0
 40
0.0080348064304398
 50
186.8421698134218047
 51
253.9647436090857013
  0
ARC
  5
BB4C
  8
0
 10
4348.6925574059241626
 20
216.4696177968627921
 30
0.0
 40
0.7521580523906345
 50
265.5148582404331137
 51
272.7102519889303949
  0
ARC
  5
BB4D
  8
0
 10
4348.7254767844451635
 20
215.7287140123418965
 30
0.0
 40
0.0107439879750336
 50
284.2603666202747945
 51
341.1469669538006997
  0
LINE
  5
BB4E
  8
0
 10
4348.7356443635362666
 20
215.7252421809776024
 30
0.0
 11
4348.7432722933363038
 21
215.7781088125776137
 31
0.0
  0
LINE
  5
BB4F
  8
0
 10
4348.8317590014576126
 20
215.7781088125776137
 30
0.0
 11
4348.824698460342006
 21
215.7258729969776141
 31
0.0
  0
ARC
  5
BB50
  8
0
 10
4348.8168954029852102
 20
215.7269277102365947
 30
0.0
 40
0.0078740157589429
 50
270.0000003748288009
 51
352.3021740168945826
  0
LINE
  5
BB51
  8
0
 10
4348.8168954030361419
 20
215.7190536944775943
 30
0.0
 11
4348.7437852615948941
 21
215.7190536939993137
 31
0.0
  0
ARC
  5
BB52
  8
0
 10
4348.7209455338106636
 20
216.5118271387096058
 30
0.0
 40
0.7935585155070976
 50
270.5182521544293195
 51
270.9857174341987047
  0
ARC
  5
BB53
  8
0
 10
4348.7312631482172947
 20
215.9121649886583896
 30
0.0
 40
0.193807611071728
 50
270.9857174341987047
 51
272.936419042094883
  0
ARC
  5
BB54
  8
0
 10
4348.7406164821795755
 20
215.7298213687849966
 30
0.0
 40
0.0112242586959508
 50
272.936419042094883
 51
286.3984435135295143
  0
ARC
  5
BB55
  8
0
 10
4348.7416076044437432
 20
215.7264534864324048
 30
0.0
 40
0.0077135671850723
 50
286.398443513529287
 51
352.8928233197938766
  0
LINE
  5
BB56
  8
0
 10
4348.7492619040358477
 20
215.7254991193775879
 30
0.0
 11
4348.7566363731402816
 21
215.7781088125776137
 31
0.0
  0
LINE
  5
BB57
  8
0
 10
4348.7809694371098885
 20
215.7781088125776137
 30
0.0
 11
4348.7739319612419422
 21
215.7258729969776141
 31
0.0
  0
ARC
  5
BB58
  8
0
 10
4348.7660608912810858
 20
215.7269334277235089
 30
0.0
 40
0.0079421820478636
 50
277.1897470546376212
 51
352.3270210682728134
  0
LINE
  5
BB59
  8
0
 10
4348.8490470482383898
 20
215.7781088125776137
 30
0.0
 11
4348.8556467181379048
 21
215.7292826482022008
 31
0.0
  0
ARC
  5
BB5A
  8
0
 10
4348.8673513042140257
 20
215.7308647180904018
 30
0.0
 40
0.0118110236790291
 50
187.6978259554323074
 51
270.0060658503829245
  0
LINE
  5
BB5B
  8
0
 10
4348.8673525546373639
 20
215.7190536944775943
 30
0.0
 11
4348.9525735004590388
 21
215.7190627167391881
 31
0.0
  0
ARC
  5
BB5C
  8
0
 10
4348.9525722497373863
 20
215.7308765739514058
 30
0.0
 40
0.0118138572784277
 50
270.0060658503829245
 51
352.246005363502718
  0
LINE
  5
BB5D
  8
0
 10
4348.9642780869307899
 20
215.7292826481775876
 30
0.0
 11
4348.970926503492592
 21
215.7781088125776137
 31
0.0
  0
LINE
  5
BB5E
  8
0
 10
4349.5845965469416115
 20
215.7781088125776137
 30
0.0
 11
4349.5775360058405568
 21
215.7258729969776141
 31
0.0
  0
ARC
  5
BB5F
  8
0
 10
4349.569732948487399
 20
215.7269277102338094
 30
0.0
 40
0.0078740157562617
 50
270.0000003577886787
 51
352.3021740339461871
  0
LINE
  5
BB60
  8
0
 10
4349.5697329485374212
 20
215.7190536944775943
 30
0.0
 11
4349.4776294367356968
 21
215.7190536939025094
 31
0.0
  0
ARC
  5
BB61
  8
0
 10
4349.4776294366865841
 20
215.726927701201987
 30
0.0
 40
0.0078740072995132
 50
249.0614767282017965
 51
270.0000003577886787
  0
ARC
  5
BB62
  8
0
 10
4349.4713496602371379
 20
215.7308647217074906
 30
0.0
 40
0.0118110283961921
 50
287.064249371338974
 51
334.9990984180723785
  0
ARC
  5
BB63
  8
0
 10
4349.4713496750164268
 20
215.7308647148155956
 30
0.0
 40
0.0118110120892752
 50
334.9990984180772102
 51
352.3021823553809213
  0
LINE
  5
BB64
  8
0
 10
4349.4830542498357318
 20
215.7292826481775876
 30
0.0
 11
4349.4896539125265917
 21
215.7781088125776137
 31
0.0
  0
LINE
  5
BB65
  8
0
 10
4349.3380065530182037
 20
215.7781088125776137
 30
0.0
 11
4349.3445434812356325
 21
215.7262108324775909
 31
0.0
  0
ARC
  5
BB66
  8
0
 10
4349.3524247610466773
 20
215.7272035370162087
 30
0.0
 40
0.0079435529684514
 50
187.1790140482281117
 51
269.3998710248454245
  0
ARC
  5
BB67
  8
0
 10
4349.4017477779098044
 20
216.3953296955305916
 30
0.0
 40
0.6778721413185345
 50
265.8203327235947881
 51
273.6040380916346066
  0
ARC
  5
BB68
  8
0
 10
4349.4443560044173864
 20
215.7267450867994967
 30
0.0
 40
0.0079469059866006
 50
270.0244997903943158
 51
351.4086355473348249
  0
LINE
  5
BB69
  8
0
 10
4349.4522137374360682
 20
215.725557927777686
 30
0.0
 11
4349.4601063580721529
 21
215.7781088125776137
 31
0.0
  0
ARC
  5
BB6A
  8
0
 10
4349.4713639218525714
 20
215.7307524086598107
 30
0.0
 40
0.0116987228708201
 50
269.9301697805317986
 51
287.154087410784598
  0
LINE
  5
BB6B
  8
0
 10
4349.4713496638350989
 20
215.7190536944775943
 30
0.0
 11
4349.4464681971476239
 21
215.7190840192093049
 31
0.0
  0
ARC
  5
BB6C
  8
0
 10
4349.3956233944181804
 20
215.584758023644298
 30
0.0
 40
0.1370898124499647
 50
78.0856084396411774
 51
99.8389312350174691
  0
ARC
  5
BB6D
  8
0
 10
4349.402347542237294
 20
215.955975105516103
 30
0.0
 40
0.2380605175250288
 50
262.7240564143868937
 51
275.2004832602743818
  0
LINE
  5
BB6E
  8
0
 10
4354.4558614484358259
 20
215.7781088125776137
 30
0.0
 11
4354.450995045603122
 21
215.7277716549185982
 31
0.0
  0
ARC
  5
BB6F
  8
0
 10
4354.4431575702319606
 20
215.7285293518987999
 30
0.0
 40
0.0078740158059688
 50
272.0000007340062211
 51
354.4780250031699893
  0
LINE
  5
BB70
  8
0
 10
4354.4434323695213607
 20
215.7206601327341104
 30
0.0
 11
4354.3514276201731263
 21
215.7174472549098141
 31
0.0
  0
ARC
  5
BB71
  8
0
 10
4354.3511528210319739
 20
215.7253164698381056
 30
0.0
 40
0.007874011566988
 50
230.1177057415499121
 51
272.0000007340062211
  0
LINE
  5
BB72
  8
0
 10
4354.3912362844002928
 20
215.7781088125776137
 30
0.0
 11
4354.3863400376358186
 21
215.7277428830718122
 31
0.0
  0
ARC
  5
BB73
  8
0
 10
4354.3785231965612184
 20
215.7285027853152997
 30
0.0
 40
0.0078536905855321
 50
266.8990680359156045
 51
354.4475257511787163
  0
ARC
  5
BB74
  8
0
 10
4354.2006478663479356
 20
219.4460102431642952
 30
0.0
 40
3.7295735254335241
 50
271.333506310792302
 51
272.7271224778746159
  0
ARC
  5
BB75
  8
0
 10
4354.2875313102749715
 20
215.7266159597942021
 30
0.0
 40
0.009169596108519
 50
196.3013030365804923
 51
269.4444811949192058
  0
LINE
  5
BB76
  8
0
 10
4354.278730341937262
 20
215.7240421592775874
 30
0.0
 11
4354.269690686535796
 21
215.7781088125776137
 31
0.0
  0
LINE
  5
BB77
  8
0
 10
4354.1993244975328707
 20
215.7781088125776137
 30
0.0
 11
4354.194339433535788
 21
215.7276574562775977
 31
0.0
  0
ARC
  5
BB78
  8
0
 10
4354.1864787667373093
 20
215.7284341633857139
 30
0.0
 40
0.007898946541044
 50
272.0985674394618741
 51
354.3569605175292736
  0
ARC
  5
BB79
  8
0
 10
4354.0756854621558887
 20
217.7094888953245118
 30
0.0
 40
1.9920479399360249
 50
270.5486503650429881
 51
273.196642238934885
  0
ARC
  5
BB7A
  8
0
 10
4354.0945332345263523
 20
215.7254387232806891
 30
0.0
 40
0.0079097046931907
 50
189.4163655232125052
 51
271.6467251645394185
  0
LINE
  5
BB7B
  8
0
 10
4354.0867301093849164
 20
215.7241446342735003
 30
0.0
 11
4354.0777805604975583
 21
215.7781088125776137
 31
0.0
  0
ARC
  5
BB7C
  8
0
 10
4354.1838916430633617
 20
214.6762599569782139
 30
0.0
 40
1.0442169822588461
 50
90.9805797886065051
 51
93.7726822929695629
  0
ARC
  5
BB7D
  8
0
 10
4354.1098890456642039
 20
216.4592899516283921
 30
0.0
 40
0.7410947959591
 50
270.4093757938794056
 51
274.3438862877159181
  0
LINE
  5
BB7E
  8
0
 10
4353.8859575249616682
 20
215.7781088125776137
 30
0.0
 11
4353.8808272135356674
 21
215.7275180252775897
 31
0.0
  0
ARC
  5
BB7F
  8
0
 10
4353.8729446277266106
 20
215.7283173826745042
 30
0.0
 40
0.0079230127652789
 50
279.1097249531991906
 51
354.2095433544649268
  0
ARC
  5
BB80
  8
0
 10
4353.7867971094628956
 20
217.0437503886228967
 30
0.0
 40
1.326139421609754
 50
269.7596338884478087
 51
273.7789348488906853
  0
ARC
  5
BB81
  8
0
 10
4353.7821346766559145
 20
215.7268590555910919
 30
0.0
 40
0.009280255098631
 50
195.9793294337864893
 51
264.4288437841094037
  0
LINE
  5
BB82
  8
0
 10
4353.7732130006379521
 20
215.7243042891161053
 30
0.0
 11
4353.7644284856360173
 21
215.7781088125776137
 31
0.0
  0
ARC
  5
BB83
  8
0
 10
4353.8438031008736289
 20
215.4215519083062986
 30
0.0
 40
0.2997091250167576
 50
88.4406260310043848
 51
98.0867464149864929
  0
ARC
  5
BB84
  8
0
 10
4353.7522435789687734
 20
217.0271900616737923
 30
0.0
 40
1.30984110201674
 50
272.161340540994388
 51
274.3660319049793088
  0
LINE
  5
BB85
  8
0
 10
4353.726956654388232
 20
215.7781088125776137
 30
0.0
 11
4353.7207084031360864
 21
215.7268229743775976
 31
0.0
  0
ARC
  5
BB86
  8
0
 10
4353.7128383866984223
 20
215.7277817934549091
 30
0.0
 40
0.007928208672754
 50
271.7924383659694172
 51
353.053778794318589
  0
ARC
  5
BB87
  8
0
 10
4353.8870059545952245
 20
203.1865345525507962
 30
0.0
 40
12.5345295574200097
 50
90.7950180966892333
 51
91.2143469511910183
  0
ARC
  5
BB88
  8
0
 10
4353.6213338078805464
 20
215.7263831398014986
 30
0.0
 40
0.008134241723715
 50
190.1576880054510923
 51
270.2169266818980873
  0
LINE
  5
BB89
  8
0
 10
4353.6133270613363493
 20
215.7249486021775908
 30
0.0
 11
4353.6052782108363317
 21
215.7781088125776137
 31
0.0
  0
LINE
  5
BB8A
  8
0
 10
4353.5729060377179849
 20
215.7781088125776137
 30
0.0
 11
4353.5669084929140809
 21
215.7267767830880132
 31
0.0
  0
ARC
  5
BB8B
  8
0
 10
4353.5590962616533943
 20
215.7276895505642074
 30
0.0
 40
0.0078653735919127
 50
273.6797572189527727
 51
353.3358758184061799
  0
ARC
  5
BB8C
  8
0
 10
4353.4458546052519523
 20
219.7325345662895018
 30
0.0
 40
4.014306015682978
 50
270.3040081502173848
 51
271.6237088390316217
  0
ARC
  5
BB8D
  8
0
 10
4353.4674089855379862
 20
215.7266150320556903
 30
0.0
 40
0.0083338701981979
 50
191.2489398309772923
 51
268.2479597703245986
  0
LINE
  5
BB8E
  8
0
 10
4353.4592352182362447
 20
215.7249893258776012
 30
0.0
 11
4353.4569338752808108
 21
215.7402397969875096
 31
0.0
  0
LINE
  5
BB8F
  8
0
 10
4353.4616451217425492
 20
215.7781088125776137
 30
0.0
 11
4353.4553281214748495
 21
215.7273327422591933
 31
0.0
  0
ARC
  5
BB90
  8
0
 10
4353.4471737207295519
 20
215.728347223123194
 30
0.0
 40
0.0082172637121832
 50
276.0296279376020721
 51
352.9083267760228182
  0
ARC
  5
BB91
  8
0
 10
4353.3709718402360522
 20
216.8698221292648896
 30
0.0
 40
1.1522267909868269
 50
269.2199982429216902
 51
273.8350093246899064
  0
ARC
  5
BB92
  8
0
 10
4353.3557069442285865
 20
215.7257957090689899
 30
0.0
 40
0.0081045211766919
 50
189.2170474500678097
 51
267.0253796299651867
  0
LINE
  5
BB93
  8
0
 10
4353.3477070633516632
 20
215.7244975683026098
 30
0.0
 11
4353.3391405676356953
 21
215.7781088125776137
 31
0.0
  0
LINE
  5
BB94
  8
0
 10
4353.2715376586320417
 20
215.7781088125776137
 30
0.0
 11
4353.2654532346123233
 21
215.7266965676963935
 31
0.0
  0
ARC
  5
BB95
  8
0
 10
4353.2576204904444239
 20
215.7276235401884037
 30
0.0
 40
0.007887405098959
 50
271.0158701485183883
 51
353.2506771857699164
  0
ARC
  5
BB96
  8
0
 10
4353.1693737381901883
 20
218.4934527284954129
 30
0.0
 40
2.775123250002657
 50
269.9240478797366904
 51
271.8251568438926142
  0
ARC
  5
BB97
  8
0
 10
4353.1655937785581045
 20
215.726239608671392
 30
0.0
 40
0.0079083396323484
 50
188.5138077598026882
 51
270.7333345750956255
  0
LINE
  5
BB98
  8
0
 10
4353.1577725871356961
 20
215.7250687967776059
 30
0.0
 11
4353.1498326355358586
 21
215.7781088125776137
 31
0.0
  0
ARC
  5
BB99
  8
0
 10
4353.2182347021780515
 20
215.5159305342459106
 30
0.0
 40
0.2057454125232466
 50
84.9473374382611155
 51
99.2927888967211345
  0
ARC
  5
BB9A
  8
0
 10
4353.1883228125034293
 20
216.3239455155641906
 30
0.0
 40
0.604978826654231
 50
269.6863474554136246
 51
274.5537788795722918
  0
LINE
  5
BB9B
  8
0
 10
4353.0368980141993234
 20
215.7781088125776137
 30
0.0
 11
4353.02983747304188
 21
215.7258729969776141
 31
0.0
  0
ARC
  5
BB9C
  8
0
 10
4353.0220344156787178
 20
215.7269277102435012
 30
0.0
 40
0.0078740157659048
 50
270.0000004190964091
 51
352.302173972593323
  0
LINE
  5
BB9D
  8
0
 10
4353.0220344157360159
 20
215.7190536944775943
 30
0.0
 11
4352.9124865602489081
 21
215.719053693676301
 31
0.0
  0
ARC
  5
BB9E
  8
0
 10
4352.9130010344715629
 20
215.7750679235153086
 30
0.0
 40
0.0560165637766475
 50
269.4742331020988786
 51
282.841418935524473
  0
ARC
  5
BB9F
  8
0
 10
4352.9229555074007294
 20
215.7278499871086126
 30
0.0
 40
0.0078071379420895
 50
288.6405639525925153
 51
355.0504575718442766
  0
LINE
  5
BBA0
  8
0
 10
4352.93073353303771
 20
215.7271763996645859
 30
0.0
 11
4352.9364362306159819
 21
215.7781088125776137
 31
0.0
  0
ARC
  5
BBA1
  8
0
 10
4352.9556408650723824
 20
209.0323344887497115
 30
0.0
 40
6.6868584782482401
 50
90.3697626838313255
 51
91.0670263868372132
  0
ARC
  5
BBA2
  8
0
 10
4352.8309704273588068
 20
215.7259497446171963
 30
0.0
 40
0.0079176876606697
 50
188.7698278078518115
 51
271.067026386837199
  0
LINE
  5
BBA3
  8
0
 10
4352.8231453069111012
 20
215.724742571121908
 30
0.0
 11
4352.8149125502841343
 21
215.7781088125776137
 31
0.0
  0
LINE
  5
BBA4
  8
0
 10
4352.7143527455364165
 20
215.7781088125776137
 30
0.0
 11
4352.7221282252930905
 21
215.7251899522483995
 31
0.0
  0
ARC
  5
BBA5
  8
0
 10
4352.7300278555339901
 20
215.7263506615805113
 30
0.0
 40
0.0079844476396133
 50
188.358779477058107
 51
271.3699400954130851
  0
ARC
  5
BBA6
  8
0
 10
4352.7458236078982736
 20
217.9929476570540885
 30
0.0
 40
2.2746326892575541
 50
269.6069256413741186
 51
271.9219076820980945
  0
ARC
  5
BBA7
  8
0
 10
4352.822088032990905
 20
215.7270497807294021
 30
0.0
 40
0.0074552825317789
 50
270.1588932280579911
 51
296.10136671421958
  0
ARC
  5
BBA8
  8
0
 10
4352.7852494752705752
 20
215.3723456181160998
 30
0.0
 40
0.3481837148226274
 50
87.492648222682206
 51
94.8714280857591348
  0
ARC
  5
BBA9
  8
0
 10
4352.7626632859946767
 20
216.466988162537092
 30
0.0
 40
0.7477491442376524
 50
269.4650319196277906
 51
272.8990452425919102
  0
LINE
  5
BBAA
  8
0
 10
4352.6571275052428973
 20
215.7781088125776137
 30
0.0
 11
4352.6500669641363856
 21
215.7258729969288993
 31
0.0
  0
ARC
  5
BBAB
  8
0
 10
4352.6422639068368881
 20
215.7269277101775913
 30
0.0
 40
0.0078740156999998
 50
270.0
 51
352.3021740339445955
  0
LINE
  5
BBAC
  8
0
 10
4352.6422639068368881
 20
215.7190536944775943
 30
0.0
 11
4352.5501758359350788
 21
215.7190536944775943
 31
0.0
  0
ARC
  5
BBAD
  8
0
 10
4352.5501758359350788
 20
215.7269453961829981
 30
0.0
 40
0.0078917017053897
 50
187.8100574094895023
 51
269.9999999999739089
  0
LINE
  5
BBAE
  8
0
 10
4352.5423573376374407
 20
215.7258729969325941
 30
0.0
 11
4352.535192579471186
 21
215.7781088125776137
 31
0.0
  0
LINE
  5
BBAF
  8
0
 10
4352.3289579382535521
 20
215.7781088125776137
 30
0.0
 11
4352.3230922323364211
 21
215.7268261447775899
 31
0.0
  0
ARC
  5
BBB0
  8
0
 10
4352.3150364765124323
 20
215.7278095530263045
 30
0.0
 40
0.0081155587408458
 50
281.8380249801808759
 51
353.0400414551718882
  0
ARC
  5
BBB1
  8
0
 10
4352.2566707327414406
 20
216.4985687463376962
 30
0.0
 40
0.7810126163311149
 50
267.5564486858629039
 51
274.4082471103355942
  0
ARC
  5
BBB2
  8
0
 10
4352.2251233886872797
 20
215.7283278594863987
 30
0.0
 40
0.0102128230145051
 50
198.8923497823543016
 51
260.1266708159935206
  0
LINE
  5
BBB3
  8
0
 10
4352.2154607447428134
 20
215.7250210383641047
 30
0.0
 11
4352.207466566435869
 21
215.7781088125776137
 31
0.0
  0
ARC
  5
BBB4
  8
0
 10
4352.2783437439557019
 20
215.4214396095136976
 30
0.0
 40
0.2991652282975051
 50
86.7475755713572454
 51
96.6303822679964242
  0
ARC
  5
BBB5
  8
0
 10
4352.2604173545987578
 20
216.0293861716212973
 30
0.0
 40
0.3112261390342768
 50
266.939517961095703
 51
276.4384398782070207
  0
ARC
  5
BBB6
  8
0
 10
4352.1914195464132717
 20
216.1592029721028041
 30
0.0
 40
0.440799960090032
 50
268.4140318924291932
 51
273.7513723407806765
  0
ARC
  5
BBB7
  8
0
 10
4352.1794476679124273
 20
215.7268090862442875
 30
0.0
 40
0.0082403706659575
 50
186.5227639221702987
 51
268.4140318924291932
  0
LINE
  5
BBB8
  8
0
 10
4352.1712606388036875
 20
215.7258729969776141
 30
0.0
 11
4352.1637299306357818
 21
215.7781088125776137
 31
0.0
  0
LINE
  5
BBB9
  8
0
 10
4352.0848188112158823
 20
215.7781088125776137
 30
0.0
 11
4352.0918793523305794
 21
215.7258729969776141
 31
0.0
  0
ARC
  5
BBBA
  8
0
 10
4352.0996824097646822
 20
215.7269277102467129
 30
0.0
 40
0.0078740158376197
 50
187.6978259803098865
 51
270.0075586797369169
  0
LINE
  5
BBBB
  8
0
 10
4352.0996834485358704
 20
215.7190536944775943
 30
0.0
 11
4352.1766343132730981
 21
215.7190638461318883
 31
0.0
  0
ARC
  5
BBBC
  8
0
 10
4351.9712566749412872
 20
218.8934157981082933
 30
0.0
 40
3.182831464433693
 50
274.1152288297984114
 51
274.4624055142966199
  0
ARC
  5
BBBD
  8
0
 10
4352.1689810452180609
 20
216.6324189497017016
 30
0.0
 40
0.9141435660350005
 50
271.9235266310640213
 51
273.1796785513083137
  0
LINE
  5
BBBE
  8
0
 10
4352.0434087151415952
 20
215.7781088125776137
 30
0.0
 11
4352.0363481740350835
 21
215.7258729969288993
 31
0.0
  0
ARC
  5
BBBF
  8
0
 10
4352.0285450998617307
 20
215.726927712458405
 30
0.0
 40
0.0078740327272283
 50
269.8891124203591971
 51
352.3021740339445955
  0
LINE
  5
BBC0
  8
0
 10
4352.0285298608359881
 20
215.7190536944775943
 30
0.0
 11
4351.9364416049356805
 21
215.7190536944775943
 31
0.0
  0
ARC
  5
BBC1
  8
0
 10
4351.936441604942047
 20
215.7269277101815987
 30
0.0
 40
0.0078740157059179
 50
187.6978259704686138
 51
270.0012548949159168
  0
LINE
  5
BBC2
  8
0
 10
4351.9286385476370924
 20
215.7258729969315141
 30
0.0
 11
4351.9215780065260333
 21
215.7781088125775
 31
0.0
  0
LINE
  5
BBC3
  8
0
 10
4351.6569460286227695
 20
215.7781088125776137
 30
0.0
 11
4351.6507568920360427
 21
215.726528080877614
 31
0.0
  0
ARC
  5
BBC4
  8
0
 10
4351.6427793087450482
 20
215.7274853056202062
 30
0.0
 40
0.0080348064304398
 50
286.0352563909142987
 51
353.1578301865765752
  0
ARC
  5
BBC5
  8
0
 10
4351.5861795673472443
 20
216.4696177968627921
 30
0.0
 40
0.7521580523906345
 50
267.2897480110696051
 51
274.4851417595668863
  0
ARC
  5
BBC6
  8
0
 10
4351.5532601888280624
 20
215.7287140123418965
 30
0.0
 40
0.0107439879750336
 50
198.8530330461993003
 51
255.7396333797252055
  0
LINE
  5
BBC7
  8
0
 10
4351.5430926097360498
 20
215.7252421809776024
 30
0.0
 11
4351.5354646799360125
 21
215.7781088125776137
 31
0.0
  0
LINE
  5
BBC8
  8
0
 10
4351.4469779718137943
 20
215.7781088125776137
 30
0.0
 11
4351.4540385129312199
 21
215.7258729969776141
 31
0.0
  0
ARC
  5
BBC9
  8
0
 10
4351.4618415702880156
 20
215.7269277102365947
 30
0.0
 40
0.0078740157589429
 50
187.6978259831037974
 51
269.9999996251713128
  0
LINE
  5
BBCA
  8
0
 10
4351.4618415702370839
 20
215.7190536944775943
 30
0.0
 11
4351.5349517116774223
 21
215.7190536939993137
 31
0.0
  0
ARC
  5
BBCB
  8
0
 10
4351.5577914394616528
 20
216.5118271387096058
 30
0.0
 40
0.7935585155070976
 50
269.014282565801409
 51
269.4817478455706805
  0
ARC
  5
BBCC
  8
0
 10
4351.5474738250559312
 20
215.9121649886583896
 30
0.0
 40
0.193807611071728
 50
267.063580957905117
 51
269.014282565801409
  0
ARC
  5
BBCD
  8
0
 10
4351.5381204910927408
 20
215.7298213687849966
 30
0.0
 40
0.0112242586959508
 50
253.6015564864705141
 51
267.063580957905117
  0
ARC
  5
BBCE
  8
0
 10
4351.5371293688276637
 20
215.7264534864324048
 30
0.0
 40
0.0077135671850723
 50
187.1071766802060097
 51
253.6015564864707983
  0
LINE
  5
BBCF
  8
0
 10
4351.5294750692355592
 20
215.7254991193775879
 30
0.0
 11
4351.5221006001311252
 21
215.7781088125776137
 31
0.0
  0
LINE
  5
BBD0
  8
0
 10
4351.4977675361624279
 20
215.7781088125776137
 30
0.0
 11
4351.5048050120312837
 21
215.7258729969776141
 31
0.0
  0
ARC
  5
BBD1
  8
0
 10
4351.5126760819903211
 20
215.7269334277235089
 30
0.0
 40
0.0079421820478636
 50
187.6729789317271866
 51
262.8102529453623788
  0
LINE
  5
BBD2
  8
0
 10
4351.4296899250330171
 20
215.7781088125776137
 30
0.0
 11
4351.4230902551344116
 21
215.7292826482022008
 31
0.0
  0
ARC
  5
BBD3
  8
0
 10
4351.4113856690592002
 20
215.7308647180904018
 30
0.0
 40
0.0118110236790291
 50
269.9939341496170755
 51
352.302174044567721
  0
LINE
  5
BBD4
  8
0
 10
4351.4113844186367714
 20
215.7190536944775943
 30
0.0
 11
4351.3261634728150966
 21
215.7190627167391881
 31
0.0
  0
ARC
  5
BBD5
  8
0
 10
4351.3261647235358396
 20
215.7308765739514058
 30
0.0
 40
0.0118138572784277
 50
187.7539946364973105
 51
269.9939341496170755
  0
LINE
  5
BBD6
  8
0
 10
4351.314458886340617
 20
215.7292826481775876
 30
0.0
 11
4351.3078104697788149
 21
215.7781088125776137
 31
0.0
  0
LINE
  5
BBD7
  8
0
 10
4350.694140426328886
 20
215.7781088125776137
 30
0.0
 11
4350.7012009674308501
 21
215.7258729969776141
 31
0.0
  0
ARC
  5
BBD8
  8
0
 10
4350.7090040247849174
 20
215.7269277102338094
 30
0.0
 40
0.0078740157562617
 50
187.6978259660538129
 51
269.9999996422113213
  0
LINE
  5
BBD9
  8
0
 10
4350.7090040247367142
 20
215.7190536944775943
 30
0.0
 11
4350.8011075365357101
 21
215.7190536939025094
 31
0.0
  0
ARC
  5
BBDA
  8
0
 10
4350.8011075365848228
 20
215.726927701201987
 30
0.0
 40
0.0078740072995132
 50
269.9999996422113213
 51
290.9385232717978056
  0
ARC
  5
BBDB
  8
0
 10
4350.807387313036088
 20
215.7308647217074906
 30
0.0
 40
0.0118110283961921
 50
205.000901581927593
 51
252.9357506286609976
  0
ARC
  5
BBDC
  8
0
 10
4350.8073872982567991
 20
215.7308647148155956
 30
0.0
 40
0.0118110120892752
 50
187.6978176446191071
 51
205.0009015819209139
  0
LINE
  5
BBDD
  8
0
 10
4350.7956827234356751
 20
215.7292826481775876
 30
0.0
 11
4350.7890830607448152
 21
215.7781088125776137
 31
0.0
  0
LINE
  5
BBDE
  8
0
 10
4350.9407304202541127
 20
215.7781088125776137
 30
0.0
 11
4350.9341934920357744
 21
215.7262108324775909
 31
0.0
  0
ARC
  5
BBDF
  8
0
 10
4350.9263122122256391
 20
215.7272035370162087
 30
0.0
 40
0.0079435529684514
 50
270.6001289751545755
 51
352.8209859517718883
  0
ARC
  5
BBE0
  8
0
 10
4350.8769891953616025
 20
216.3953296955305916
 30
0.0
 40
0.6778721413185345
 50
266.3959619083653934
 51
274.1796672764050982
  0
ARC
  5
BBE1
  8
0
 10
4350.834380968856749
 20
215.7267450867994967
 30
0.0
 40
0.0079469059866006
 50
188.5913644526636119
 51
269.9755002096057979
  0
LINE
  5
BBE2
  8
0
 10
4350.8265232358362482
 20
215.725557927777686
 30
0.0
 11
4350.8186306152010729
 21
215.7781088125776137
 31
0.0
  0
ARC
  5
BBE3
  8
0
 10
4350.8073730514188355
 20
215.7307524086598107
 30
0.0
 40
0.0116987228708201
 50
252.845912589215402
 51
270.0698302194682014
  0
LINE
  5
BBE4
  8
0
 10
4350.807387309436308
 20
215.7190536944775943
 30
0.0
 11
4350.8322687761246925
 21
215.7190840192093049
 31
0.0
  0
ARC
  5
BBE5
  8
0
 10
4350.8831135788550455
 20
215.584758023644298
 30
0.0
 40
0.1370898124499647
 50
80.1610687649825451
 51
101.9143915603587942
  0
ARC
  5
BBE6
  8
0
 10
4350.8763894310359319
 20
215.955975105516103
 30
0.0
 40
0.2380605175250288
 50
264.7995167397256182
 51
277.2759435856131063
  0
LINE
  5
BBE7
  8
0
 10
4350.0764846284118903
 20
215.7781088125776137
 30
0.0
 11
4350.0835451694356379
 21
215.7258729969776141
 31
0.0
  0
ARC
  5
BBE8
  8
0
 10
4350.0914970178509975
 20
215.726947821813809
 30
0.0
 40
0.0080241598713232
 50
187.6978258827016077
 51
269.9223382799285105
  0
ARC
  5
BBE9
  8
0
 10
4350.1367754099283047
 20
216.4089653762100056
 30
0.0
 40
0.6915263372369828
 50
266.244911623331916
 51
273.8666347675983275
  0
ARC
  5
BBEA
  8
0
 10
4350.1833819671919628
 20
215.7268965336207884
 30
0.0
 40
0.0078834281459747
 50
270.1892081110183881
 51
353.2070649470966828
  0
LINE
  5
BBEB
  8
0
 10
4350.1912100544650457
 20
215.725964069692111
 30
0.0
 11
4350.1974214174861117
 21
215.7781088125776137
 31
0.0
  0
ARC
  5
BBEC
  8
0
 10
4350.1396127822526978
 20
215.2627433877835017
 30
0.0
 40
0.4572008958143434
 50
86.9357008791324262
 51
93.4826215713333255
  0
ARC
  5
BBED
  8
0
 10
4350.1367525669129463
 20
216.0462420455988024
 30
0.0
 40
0.328089309085753
 50
265.6451661862670903
 51
274.7731562656979918
  0
LINE
  5
BBEE
  8
0
 10
4349.7259826598356085
 20
218.2367702298776067
 30
0.0
 11
4349.7259826224371864
 21
218.2792583922775975
 31
0.0
  0
LINE
  5
BBEF
  8
0
 10
4349.7259826224371864
 20
218.2792583922775975
 30
0.0
 11
4349.7751952582366357
 21
218.3284710267776063
 31
0.0
  0
LINE
  5
BBF0
  8
0
 10
4349.7751952582366357
 20
218.3284710267776063
 30
0.0
 11
4349.7751952582366357
 21
218.446581253577591
 31
0.0
  0
LINE
  5
BBF1
  8
0
 10
4349.7456676739520844
 20
218.446581253577591
 30
0.0
 11
4350.5330710014859505
 21
218.446581253577591
 31
0.0
  0
LINE
  5
BBF2
  8
0
 10
4350.5035417149356363
 20
218.446581253577591
 30
0.0
 11
4350.5035417149356363
 21
218.3284710267776063
 31
0.0
  0
LINE
  5
BBF3
  8
0
 10
4350.5035417149356363
 20
218.3284710267776063
 30
0.0
 11
4350.5527543134367079
 21
218.2792583922775975
 31
0.0
  0
LINE
  5
BBF4
  8
0
 10
4350.5527543134367079
 20
218.2792583922775975
 30
0.0
 11
4350.5527543134367079
 21
218.2367702298776067
 31
0.0
  0
LINE
  5
BBF5
  8
0
 10
4350.5527543134367079
 20
218.2792583922775975
 30
0.0
 11
4349.7259826598356085
 21
218.2792583922775975
 31
0.0
  0
LINE
  5
BBF6
  8
0
 10
4349.7751952582366357
 20
218.3284710267776063
 30
0.0
 11
4350.5035417149356363
 21
218.3284710267776063
 31
0.0
  0
LINE
  5
BBF7
  8
0
 10
4349.7456676992360372
 20
217.5094715086655981
 30
0.0
 11
4349.7456676992360372
 21
217.312346657035306
 31
0.0
  0
LINE
  5
BBF8
  8
0
 10
4350.5330692740362792
 20
217.5094715086655981
 30
0.0
 11
4350.5330692740362792
 21
217.312346657035306
 31
0.0
  0
LINE
  5
BBF9
  8
0
 10
4349.7456676992360372
 20
215.7781088125776137
 30
0.0
 11
4349.7456676992360372
 21
205.2182347968170006
 31
0.0
  0
LINE
  5
BBFA
  8
0
 10
4350.5330692740362792
 20
215.7781088125776137
 30
0.0
 11
4350.5330692740362792
 21
205.2182347963743041
 31
0.0
  0
ARC
  5
BBFB
  8
0
 10
4350.1399881134211682
 20
202.5919811358812979
 30
0.0
 40
2.8026371758630049
 50
98.0881346124287887
 51
106.0409899470568007
  0
ARC
  5
BBFC
  8
0
 10
4349.4200222359004329
 20
205.0960380191006038
 30
0.0
 40
0.1971330520527078
 50
106.0409899470568007
 51
147.0790251479847939
  0
ARC
  5
BBFD
  8
0
 10
4351.5761279306489087
 20
203.6393338125259049
 30
0.0
 40
2.7991699149976621
 50
146.0353861600806056
 51
178.1866403138394901
  0
ARC
  5
BBFE
  8
0
 10
4349.1322261516479557
 20
203.7834835623378922
 30
0.0
 40
0.3582035463392073
 50
188.9251814830830938
 51
210.1538665292848975
  0
ARC
  5
BBFF
  8
0
 10
4351.02784910147966
 20
205.3289187275904055
 30
0.0
 40
2.8000869115751792
 50
218.03801812345651
 51
240.458118215938498
  0
LINE
  5
BC00
  8
0
 10
4350.6314944708356052
 20
197.7627687882863938
 30
0.0
 11
4350.6314944708356052
 21
203.4859513322776081
 31
0.0
  0
ARC
  5
BC01
  8
0
 10
4349.8637402841195581
 20
203.6934321959952001
 30
0.0
 40
1.5606150184216161
 50
94.3390146594098269
 51
102.2981724114072932
  0
ARC
  5
BC02
  8
0
 10
4349.8637402841195581
 20
203.6934321959952001
 30
0.0
 40
1.5606150184216161
 50
103.742470954006393
 51
106.0542887102545961
  0
ARC
  5
BC03
  8
0
 10
4349.4868165564766969
 20
205.003236210198196
 30
0.0
 40
0.1976557189256611
 50
106.0542887102545961
 51
145.6415505233470924
  0
ARC
  5
BC04
  8
0
 10
4351.5769611248269939
 20
203.6389279054600934
 30
0.0
 40
2.6936189880767198
 50
146.7762981145000083
 51
177.2237026328467948
  0
ARC
  5
BC05
  8
0
 10
4349.0857467336991249
 20
203.7636876081288904
 30
0.0
 40
0.1993247920076415
 50
178.3584502239980054
 51
217.6415640827474931
  0
ARC
  5
BC06
  8
0
 10
4351.0278496736900706
 20
205.3289195246476027
 30
0.0
 40
2.6936191204967579
 50
218.7762993840808008
 51
239.1662661399645913
  0
LINE
  5
BC07
  8
0
 10
4349.7395715205357192
 20
205.1985347968092981
 30
0.0
 11
4349.7395715205357192
 21
204.804848970077586
 31
0.0
  0
ARC
  5
BC08
  8
0
 10
4349.761376212297364
 20
204.8047581435930056
 30
0.0
 40
0.0218048809274086
 50
179.7613383303599051
 51
224.2782571209413902
  0
ARC
  5
BC09
  8
0
 10
4349.7569953035072103
 20
204.800486238247089
 30
0.0
 40
0.0156859319070589
 50
224.2782571209413902
 51
257.639060063271188
  0
ARC
  5
BC0A
  8
0
 10
4352.2781826784948862
 20
190.1859868222938985
 30
0.0
 40
0.007370969874551
 50
99.6867817541492371
 51
170.803665908162003
  0
LINE
  5
BC0B
  8
0
 10
4352.2709064514356214
 20
190.1871648361654934
 30
0.0
 11
4352.2787316700350857
 21
190.0514565600655033
 31
0.0
  0
LINE
  5
BC0C
  8
0
 10
4353.0946803224587711
 20
189.1689339381653951
 30
0.0
 11
4353.0981382202371606
 21
189.1689339381653951
 31
0.0
  0
ARC
  5
BC0D
  8
0
 10
4353.0978574807741097
 20
189.190343111240793
 30
0.0
 40
0.0214109937647432
 50
270.7472057874506959
 51
338.7018262886971911
  0
LINE
  5
BC0E
  8
0
 10
4353.1178061637356222
 20
189.1825661772654996
 30
0.0
 11
4353.1757333908371947
 21
190.1871648360655058
 31
0.0
  0
ARC
  5
BC0F
  8
0
 10
4353.1694004689334179
 20
190.1869235836124119
 30
0.0
 40
0.0063390870159943
 50
2.3310700660096249
 51
87.5321056647105848
  0
ARC
  5
BC10
  8
0
 10
4350.1387488598502387
 20
202.5919811358812979
 30
0.0
 40
2.8026371758630049
 50
73.9590100529431709
 51
81.9118653875712255
  0
ARC
  5
BC11
  8
0
 10
4350.8587147373718835
 20
205.0960380191006038
 30
0.0
 40
0.1971330520527078
 50
32.9209748520151493
 51
73.9590100529431709
  0
ARC
  5
BC12
  8
0
 10
4348.7029828967597496
 20
203.639515562493699
 30
0.0
 40
2.7987583072055928
 50
1.809903842138384
 51
33.9658037630909675
  0
ARC
  5
BC13
  8
0
 10
4351.2279920710334409
 20
203.7544957203946012
 30
0.0
 40
0.2736473611261454
 50
326.5225306723534118
 51
354.4247838439937937
  0
ARC
  5
BC14
  8
0
 10
4349.2508878704056769
 20
205.3289187293476061
 30
0.0
 40
2.8000869137500679
 50
299.541805669552275
 51
321.9619818656951793
  0
ARC
  5
BC15
  8
0
 10
4350.2235611432361111
 20
203.0034637384171106
 30
0.0
 40
2.2766261710962801
 50
74.1178498267526606
 51
75.7080110586078661
  0
ARC
  5
BC16
  8
0
 10
4350.2235611432361111
 20
203.0034637384171106
 30
0.0
 40
2.2766261710962801
 50
76.6134763851148932
 51
82.1864222427946345
  0
ARC
  5
BC17
  8
0
 10
4350.79192041679471
 20
205.003236210198196
 30
0.0
 40
0.1976557189256611
 50
34.3584494766529076
 51
73.9457112897453754
  0
ARC
  5
BC18
  8
0
 10
4348.701775848446232
 20
203.6389279054600934
 30
0.0
 40
2.6936189880767198
 50
2.776297367153151
 51
33.2237018855000272
  0
ARC
  5
BC19
  8
0
 10
4351.192990239574101
 20
203.7636876081288904
 30
0.0
 40
0.1993247920076415
 50
322.3584359172523932
 51
1.641549776002011
  0
ARC
  5
BC1A
  8
0
 10
4349.2508868320328475
 20
205.3289200213839081
 30
0.0
 40
2.6936197960942501
 50
300.83365567711229
 51
321.22369860717248
  0
LINE
  5
BC1B
  8
0
 10
4349.6472425023366668
 20
188.1614565600654885
 30
0.0
 11
4349.6472425023366668
 21
172.4820143245063946
 31
0.0
  0
LINE
  5
BC1C
  8
0
 10
4350.6314944708356052
 20
188.1614565600654885
 30
0.0
 11
4350.6314944708356052
 21
172.4820143245063946
 31
0.0
  0
LINE
  5
BC1D
  8
0
 10
4346.0217061072362412
 20
170.7093101652727967
 30
0.0
 11
4350.1393684865361138
 21
170.7093101652727967
 31
0.0
  0
LINE
  5
BC1E
  8
0
 10
4350.1393684865361138
 20
170.7093101652727967
 30
0.0
 11
4354.3519684079356011
 21
170.7093101652727967
 31
0.0
  0
LINE
  5
BC1F
  8
0
 10
4354.7259510836829577
 20
170.7093101652727967
 30
0.0
 11
4355.4136765353359806
 21
170.7093101652727967
 31
0.0
  0
ARC
  5
BC20
  8
0
 10
4346.0217067426183348
 20
170.6699389643854943
 30
0.0
 40
0.0393712008924827
 50
90.0009246535862957
 51
134.9996747191513862
  0
LINE
  5
BC21
  8
0
 10
4345.9938672575362943
 20
170.6977787655713996
 30
0.0
 11
4345.8989297142616124
 21
170.602841225246209
 31
0.0
  0
ARC
  5
BC22
  8
0
 10
4345.9552442120948399
 20
170.5643203576545091
 30
0.0
 40
0.068228878829173
 50
145.6266583649673123
 51
173.9241140892382873
  0
LINE
  5
BC23
  8
0
 10
4345.8873986035705457
 20
170.5715420825436013
 30
0.0
 11
4345.8873986035705457
 21
168.9374249693489105
 31
0.0
  0
ARC
  5
BC24
  8
0
 10
4345.9832729871459378
 20
168.9549729586601927
 30
0.0
 40
0.0974670680518698
 50
190.372100683922497
 51
210.0771362779418894
  0
LINE
  5
BC25
  8
0
 10
4345.8989297157359033
 20
168.9061258305713977
 30
0.0
 11
4345.99395636409281
 21
168.8110994666679119
 31
0.0
  0
ARC
  5
BC26
  8
0
 10
4346.0217061074918092
 20
168.8390271387490031
 30
0.0
 40
0.039370079077643
 50
225.1830998758113935
 51
269.9999996269169742
  0
LINE
  5
BC27
  8
0
 10
4346.0217061072362412
 20
168.7996570596714037
 30
0.0
 11
4354.3517351897071421
 21
168.7996570596714037
 31
0.0
  0
LINE
  5
BC28
  8
0
 10
4354.4956691953357222
 20
168.7996570596714037
 30
0.0
 11
4354.8169678362355626
 21
168.7996570596714037
 31
0.0
  0
LINE
  5
BC29
  8
0
 10
4355.2072815078363419
 20
168.7996570596714037
 30
0.0
 11
4355.4136765353359806
 21
168.7996570596714037
 31
0.0
  0
ARC
  5
BC2A
  8
0
 10
4348.5928295005396649
 20
169.2929860211378923
 30
0.0
 40
2.7662083846266681
 50
167.9672484455961126
 51
178.1806858461729917
  0
ARC
  5
BC2B
  8
0
 10
4346.0639443875534198
 20
169.3901413881563087
 30
0.0
 40
0.2361134608738979
 50
182.2657559972194861
 51
215.701392070527703
  0
ARC
  5
BC2C
  8
0
 10
4348.0695033856891314
 20
170.9722537406235006
 30
0.0
 40
2.790372284938039
 50
218.0514609969814046
 51
218.554831218934595
  0
ARC
  5
BC2D
  8
0
 10
4347.9383775038513704
 20
169.7077956631011091
 30
0.0
 40
1.9937210671864121
 50
145.0922315707894086
 51
149.8454425661898028
  0
ARC
  5
BC2E
  8
0
 10
4346.4659375402006845
 20
170.7477265426547035
 30
0.0
 40
0.1913754640615267
 50
105.7380237263477056
 51
148.1493712120798136
  0
ARC
  5
BC2F
  8
0
 10
4347.1863684866184485
 20
168.2455480155472003
 30
0.0
 40
2.79520020202414
 50
74.0516816824166852
 51
106.0400481778869022
  0
ARC
  5
BC30
  8
0
 10
4347.9038657098899421
 20
170.7420337319844919
 30
0.0
 40
0.1976964362347204
 50
32.8118916330504007
 51
75.1880997944574716
  0
ARC
  5
BC31
  8
0
 10
4345.7607373786613607
 20
169.2943585757084008
 30
0.0
 40
2.7839185035300908
 50
30.5479309595265889
 51
33.9517524938001571
  0
ARC
  5
BC32
  8
0
 10
4347.7174022091357983
 20
169.8557731968228097
 30
0.0
 40
1.6212956694168521
 50
146.0762803576479882
 51
148.2338483610481035
  0
ARC
  5
BC33
  8
0
 10
4346.5351169928453601
 20
170.6509465479558116
 30
0.0
 40
0.1964802459293783
 50
105.9237669551690999
 51
146.0762803576479882
  0
ARC
  5
BC34
  8
0
 10
4347.1868566724815537
 20
168.3665934676828897
 30
0.0
 40
2.5719872666230068
 50
74.0949684615599153
 51
105.9237669551690999
  0
ARC
  5
BC35
  8
0
 10
4347.8378541802030668
 20
170.6511765064848021
 30
0.0
 40
0.1964626053659471
 50
33.905078577670551
 51
74.0949684615597022
  0
ARC
  5
BC36
  8
0
 10
4346.8989736561288737
 20
170.0201541714494908
 30
0.0
 40
1.327694600051033
 50
31.2693623761951898
 51
33.905078577670551
  0
ARC
  5
BC37
  8
0
 10
4348.0877788729358144
 20
171.0024163167462063
 30
0.0
 40
2.8256991603762831
 50
231.2189221058704049
 51
249.8614516555464888
  0
ARC
  5
BC38
  8
0
 10
4347.1863684866120821
 20
168.544322338786202
 30
0.0
 40
0.2075382239447395
 50
249.8614516555464888
 51
290.1385405664100858
  0
ARC
  5
BC39
  8
0
 10
4346.286579649997293
 20
170.9979954749651085
 30
0.0
 40
2.8209903106879799
 50
290.1385405664100858
 51
308.8053943707587905
  0
ARC
  5
BC3A
  8
0
 10
4348.0742459187586064
 20
170.9773081002039135
 30
0.0
 40
2.6910030426394749
 50
234.0211543300314929
 51
249.2049302460106048
  0
ARC
  5
BC3B
  8
0
 10
4347.1863685772095778
 20
168.6510829708990968
 30
0.0
 40
0.2011401348326379
 50
250.3917356541523134
 51
289.6082025833009084
  0
ARC
  5
BC3C
  8
0
 10
4346.2994360139446144
 20
170.9752418653876873
 30
0.0
 40
2.6887359884895958
 50
290.7918758669118233
 51
305.9872476045428016
  0
LINE
  5
BC3D
  8
0
 10
4345.8873984866413593
 20
169.7539649249233094
 30
0.0
 11
4354.3913384866445995
 21
169.7539649249233094
 31
0.0
  0
LINE
  5
BC3E
  8
0
 10
4354.475984155936203
 20
169.7539649249233094
 30
0.0
 11
4355.5479841559354099
 21
169.7539649249233094
 31
0.0
  0
LINE
  5
BC3F
  8
0
 10
4346.0217061072362412
 20
170.7093101652727967
 30
0.0
 11
4346.0217061072362412
 21
168.7996570596714037
 31
0.0
  0
ARC
  5
BC40
  8
0
 10
4352.3626546862205942
 20
169.7077956631011091
 30
0.0
 40
1.9937210671864121
 50
30.154557433810151
 51
34.9077684292105914
  0
ARC
  5
BC41
  8
0
 10
4353.8350946498721896
 20
170.7477265426547035
 30
0.0
 40
0.1913754640615267
 50
31.8506287879201508
 51
74.2619762736522944
  0
ARC
  5
BC42
  8
0
 10
4353.1146637034544256
 20
168.2455480155472003
 30
0.0
 40
2.79520020202414
 50
73.9599518221130126
 51
105.9483183175833005
  0
ARC
  5
BC43
  8
0
 10
4352.3971664801820225
 20
170.7420337319844919
 30
0.0
 40
0.1976964362347204
 50
104.8119002055425
 51
147.1881083669495922
  0
ARC
  5
BC44
  8
0
 10
4354.5402948114106039
 20
169.2943585757084008
 30
0.0
 40
2.7839185035300908
 50
146.0482475061998002
 51
149.4520690404733898
  0
ARC
  5
BC45
  8
0
 10
4352.5836299809361662
 20
169.8557731968228097
 30
0.0
 40
1.6212956694168521
 50
31.7661516389518717
 51
33.9237196423519833
  0
ARC
  5
BC46
  8
0
 10
4353.765915197225695
 20
170.6509465479558116
 30
0.0
 40
0.1964802459293783
 50
33.9237196423519833
 51
74.076233044830829
  0
ARC
  5
BC47
  8
0
 10
4353.1141755175904109
 20
168.3665934676828897
 30
0.0
 40
2.5719872666230068
 50
74.076233044830829
 51
105.9050315384400989
  0
ARC
  5
BC48
  8
0
 10
4352.4631780098698073
 20
170.6511765064848021
 30
0.0
 40
0.1964626053659471
 50
105.9050315384402978
 51
146.0949214223294064
  0
ARC
  5
BC49
  8
0
 10
4353.4020585339430909
 20
170.0201541714494908
 30
0.0
 40
1.327694600051033
 50
146.0949214223294064
 51
148.7306376238051087
  0
ARC
  5
BC4A
  8
0
 10
4352.2132533171370596
 20
171.0024163167462063
 30
0.0
 40
2.8256991603762831
 50
290.1385483444535112
 51
308.7810778941292824
  0
ARC
  5
BC4B
  8
0
 10
4353.1146637034598825
 20
168.544322338786202
 30
0.0
 40
0.2075382239447395
 50
249.8614594335899142
 51
290.1385483444535112
  0
ARC
  5
BC4C
  8
0
 10
4354.0144525400746716
 20
170.9979954749651085
 30
0.0
 40
2.8209903106879799
 50
231.1946056292412095
 51
249.8614594335899142
  0
ARC
  5
BC4D
  8
0
 10
4352.2267862713133582
 20
170.9773081002039135
 30
0.0
 40
2.6910030426394749
 50
290.7950697539894236
 51
305.9788456699683934
  0
ARC
  5
BC4E
  8
0
 10
4353.1146636128632963
 20
168.6510829708990968
 30
0.0
 40
0.2011401348326379
 50
250.3917974166990916
 51
289.608264345847715
  0
ARC
  5
BC4F
  8
0
 10
4354.0015961761282597
 20
170.9752418653876873
 30
0.0
 40
2.6887359884895958
 50
234.0127523954571984
 51
249.2081241330882904
  0
ARC
  5
BC50
  8
0
 10
4354.351851798836833
 20
168.8393086573950086
 30
0.0
 40
0.0396517691877506
 50
269.8315025831691969
 51
354.7699459039276917
  0
LINE
  5
BC51
  8
0
 10
4354.3913384866445995
 20
168.8356942022849125
 30
0.0
 11
4354.3913384866445995
 21
170.6699399158713959
 31
0.0
  0
LINE
  5
BC52
  8
0
 10
4354.475984155936203
 20
168.819342099071406
 30
0.0
 11
4354.475984155936203
 21
170.4130213681349915
 31
0.0
  0
ARC
  5
BC53
  8
0
 10
4354.4956691953357222
 20
168.8193420990722871
 30
0.0
 40
0.0196850394008781
 50
180.0002910651064099
 51
269.9999999981761221
  0
ARC
  5
BC54
  8
0
 10
4354.3913384866409615
 20
168.9631449443880058
 30
0.0
 40
0.0787401574166751
 50
270.0000000024751898
 51
317.9226380043244262
  0
ARC
  5
BC55
  8
0
 10
4354.5401618114283337
 20
168.8287795221029057
 30
0.0
 40
0.1217653255663617
 50
121.8070379800504952
 51
137.9226380043243978
  0
ARC
  5
BC56
  8
0
 10
4354.3913384866518754
 20
170.5458221099763989
 30
0.0
 40
0.0787401573949325
 50
42.0773619886612309
 51
90.0000000045596522
  0
ARC
  5
BC57
  8
0
 10
4354.5374488549750822
 20
170.6777381343196112
 30
0.0
 40
0.1181102355699456
 50
222.0773619886612948
 51
266.2868004580649881
  0
ARC
  5
BC58
  8
0
 10
4354.4775310755230748
 20
169.7544836141148039
 30
0.0
 40
0.8070865269477236
 50
83.7387653447376721
 51
86.2868004580650449
  0
ARC
  5
BC59
  8
0
 10
4354.3519681160842083
 20
170.6699397947124908
 30
0.0
 40
0.0393703705613876
 50
0.0001763227261346
 51
89.9995752666572741
  0
ARC
  5
BC5A
  8
0
 10
4354.7359183701273651
 20
170.4618360701203983
 30
0.0
 40
0.2476747354304319
 50
92.306402815868978
 51
100.8451258029944029
  0
ARC
  5
BC5B
  8
0
 10
4354.6945995541882439
 20
170.6775145642756115
 30
0.0
 40
0.0280740583106416
 50
100.8453906551093979
 51
139.6464467011869885
  0
ARC
  5
BC5C
  8
0
 10
4356.1586446760129547
 20
169.4335595500548095
 30
0.0
 40
1.949233134531813
 50
139.6464467011869885
 51
144.8145554306983058
  0
ARC
  5
BC5D
  8
0
 10
4356.2707826418400145
 20
169.3544975728584916
 30
0.0
 40
2.0864399842803611
 50
144.8145554306983058
 51
149.1821115375302043
  0
ARC
  5
BC5E
  8
0
 10
4354.4969959335940075
 20
170.4126374028396924
 30
0.0
 40
0.0210152855452039
 50
149.182111537547712
 51
178.9531152381362915
  0
LINE
  5
BC5F
  8
0
 10
4354.4497826341357722
 20
170.598588519888807
 30
0.0
 11
4354.4497826341357722
 21
168.9103785344539972
 31
0.0
  0
ARC
  5
BC60
  8
0
 10
4355.4136765345610911
 20
168.8390271400008942
 30
0.0
 40
0.0393700803295296
 50
270.0000011278211787
 51
314.9999992231198007
  0
LINE
  5
BC61
  8
0
 10
4355.4415153849604394
 20
168.8111882888464947
 30
0.0
 11
4355.5364529280477655
 21
168.906125829359496
 31
0.0
  0
ARC
  5
BC62
  8
0
 10
4355.5085027843251737
 20
168.9340759738402085
 30
0.0
 40
0.0395274728589813
 50
314.9999992231198007
 51
2.7674938623416399
  0
LINE
  5
BC63
  8
0
 10
4355.5479841559354099
 20
168.9321674649090994
 30
0.0
 11
4355.5479841559354099
 21
170.4257284573795062
 31
0.0
  0
ARC
  5
BC64
  8
0
 10
4355.4136758999902668
 20
170.6699389644736868
 30
0.0
 40
0.0393712008042562
 50
64.6288213758641206
 51
89.9990753995921438
  0
LINE
  5
BC65
  8
0
 10
4355.4136765353359806
 20
170.7093101652727967
 30
0.0
 11
4355.4136765353359806
 21
168.7996570596714037
 31
0.0
  0
ARC
  5
BC66
  8
0
 10
4355.0121247516508447
 20
169.1076232954025897
 30
0.0
 40
0.3588810419165302
 50
81.807818929563922
 51
98.1922096407805753
  0
ARC
  5
BC67
  8
0
 10
4354.9675129079196267
 20
169.4331107895787056
 30
0.0
 40
0.0304393319179302
 50
102.3812658235785022
 51
151.5172972076175881
  0
ARC
  5
BC68
  8
0
 10
4355.4959743922636335
 20
169.028975222761602
 30
0.0
 40
0.6953666175842801
 50
142.9824787051560122
 51
167.3439977518426929
  0
ARC
  5
BC69
  8
0
 10
4354.843943475638298
 20
169.1759630446647975
 30
0.0
 40
0.0269792318574081
 50
168.5300383143620877
 51
180.9350252738979066
  0
LINE
  5
BC6A
  8
0
 10
4354.8169678362355626
 20
169.1764033064812907
 30
0.0
 11
4354.8169678362355626
 21
168.4405684293342063
 31
0.0
  0
LINE
  5
BC6B
  8
0
 10
4355.2072815078363419
 20
169.1755227108959048
 30
0.0
 11
4355.2072815078363419
 21
168.4416387278328102
 31
0.0
  0
ARC
  5
BC6C
  8
0
 10
4354.9490958849501112
 20
168.4593274106545095
 30
0.0
 40
0.1334530652969073
 50
188.080607236036002
 51
193.7074779619790093
  0
ARC
  5
BC6D
  8
0
 10
4355.3832337584435663
 20
168.5652188469611019
 30
0.0
 40
0.5803184695119868
 50
193.7074779619790093
 51
220.3530046923023917
  0
ARC
  5
BC6E
  8
0
 10
4354.9686230732140757
 20
168.2129434797975023
 30
0.0
 40
0.0362596908714482
 50
220.3530046923023917
 51
249.1259190775539025
  0
ARC
  5
BC6F
  8
0
 10
4355.0121293035372219
 20
168.5047345626277888
 30
0.0
 40
0.3305229782881743
 50
260.1704511015851153
 51
269.3165937761165196
  0
ARC
  5
BC70
  8
0
 10
4355.057090188471193
 20
169.4335811322351901
 30
0.0
 40
0.0299051009944789
 50
28.0137167600938994
 51
78.0875173205837569
  0
ARC
  5
BC71
  8
0
 10
4354.5283303908699963
 20
169.0290008632329091
 30
0.0
 40
0.6953069098616677
 50
12.6549423590984098
 51
37.0185789201250302
  0
ARC
  5
BC72
  8
0
 10
4355.1811042209892548
 20
169.1760802009245026
 30
0.0
 40
0.0261735648038471
 50
358.6783425470891871
 51
11.5661670193242898
  0
ARC
  5
BC73
  8
0
 10
4355.0121335805361014
 20
168.1584617414387139
 30
0.0
 40
0.5473280232660928
 50
90.4131400336754183
 51
95.3620712739703578
  0
ARC
  5
BC74
  8
0
 10
4354.9639036868429685
 20
168.6723111525411127
 30
0.0
 40
0.0312201470076078
 50
95.3620712739703578
 51
137.8463527335499919
  0
ARC
  5
BC75
  8
0
 10
4355.3223215550569876
 20
168.3478456543757034
 30
0.0
 40
0.5146880650273244
 50
137.8463527335499919
 51
168.3916657091718889
  0
ARC
  5
BC76
  8
0
 10
4354.9216547085115963
 20
168.4301514853092954
 30
0.0
 40
0.1056548491079653
 50
168.3916657091743048
 51
172.2382879752429972
  0
ARC
  5
BC77
  8
0
 10
4355.0121207539095849
 20
168.2578626329488998
 30
0.0
 40
0.3708672099954051
 50
90.6077390160338041
 51
93.4053153717008797
  0
ARC
  5
BC78
  8
0
 10
4355.0148102016974008
 20
168.5497886971477897
 30
0.0
 40
0.0820960120826543
 50
107.5232978207450003
 51
123.5569607245737984
  0
ARC
  5
BC79
  8
0
 10
4355.3603952555249634
 20
168.2982437595825047
 30
0.0
 40
0.5052000033511715
 50
140.7037314823560052
 51
167.0560529168278947
  0
ARC
  5
BC7A
  8
0
 10
4354.9333870009922975
 20
168.3999834090591037
 30
0.0
 40
0.0663453978009556
 50
170.0848412255637925
 51
178.730368549511013
  0
ARC
  5
BC7B
  8
0
 10
4355.3739191997619855
 20
168.5227398023804142
 30
0.0
 40
0.5211705713892542
 50
193.4572099219977872
 51
219.0940854525125872
  0
ARC
  5
BC7C
  8
0
 10
4354.9935488273040392
 20
168.2180125110077995
 30
0.0
 40
0.033967379973835
 50
224.7668449951844991
 51
264.166852119025009
  0
ARC
  5
BC7D
  8
0
 10
4355.0121246662210979
 20
168.5547060199835983
 30
0.0
 40
0.3711392927122326
 50
266.5973583652124148
 51
269.3921025257815245
  0
LINE
  5
BC7E
  8
0
 10
4354.9499243376385493
 20
168.7001937979810009
 30
0.0
 11
4354.9794150683619591
 21
168.6238625774034006
 31
0.0
  0
LINE
  5
BC7F
  8
0
 10
4354.8169678362355626
 20
168.4444205396962957
 30
0.0
 11
4354.8673573844998828
 21
168.4064488212864887
 31
0.0
  0
ARC
  5
BC80
  8
0
 10
4355.1041758028159165
 20
168.4529835077377982
 30
0.0
 40
0.1037279636303848
 50
345.8892827544415809
 51
353.7209706984764921
  0
ARC
  5
BC81
  8
0
 10
4354.640983968078217
 20
168.5652101359083872
 30
0.0
 40
0.5803184695119868
 50
319.6469953076975798
 51
346.2925220380193991
  0
ARC
  5
BC82
  8
0
 10
4355.0555946533067981
 20
168.2129347687447023
 30
0.0
 40
0.0362596908714482
 50
290.8740809224461259
 51
319.6469953076975798
  0
ARC
  5
BC83
  8
0
 10
4355.0037405662487799
 20
168.6098419352462088
 30
0.0
 40
0.4356295324732664
 50
270.5848261939348731
 51
278.551046564811486
  0
ARC
  5
BC84
  8
0
 10
4355.0034737356481855
 20
167.9620231610907126
 30
0.0
 40
0.7437673092187481
 50
85.391617382536964
 51
89.6369116939857236
  0
ARC
  5
BC85
  8
0
 10
4355.0603140396779054
 20
168.672302441488398
 30
0.0
 40
0.0312201470076078
 50
42.1536472664496813
 51
84.6379287260296564
  0
ARC
  5
BC86
  8
0
 10
4354.7018961714647958
 20
168.3478369433229034
 30
0.0
 40
0.5146880650273244
 50
11.60833429082804
 51
42.1536472664496813
  0
ARC
  5
BC87
  8
0
 10
4355.0655720270069651
 20
168.42318890175099
 30
0.0
 40
0.1432898795549174
 50
8.5175204121321801
 51
11.3557406425890104
  0
ARC
  5
BC88
  8
0
 10
4355.0022968136736381
 20
167.8671932967313865
 30
0.0
 40
0.7615384629689977
 50
87.604565441122304
 51
89.5568346863143461
  0
ARC
  5
BC89
  8
0
 10
4355.0094075248243826
 20
168.5497799860951034
 30
0.0
 40
0.0820960120826543
 50
56.4430392754261518
 51
72.4767021792550139
  0
ARC
  5
BC8A
  8
0
 10
4354.6638224709959104
 20
168.2982350485297047
 30
0.0
 40
0.5052000033511715
 50
12.9439470831721302
 51
39.2962685176439592
  0
ARC
  5
BC8B
  8
0
 10
4355.0908307255285763
 20
168.3999746980063037
 30
0.0
 40
0.0663453978009556
 50
1.2696314504889821
 51
9.9151587744361507
  0
ARC
  5
BC8C
  8
0
 10
4354.6502985267597978
 20
168.5227310913276142
 30
0.0
 40
0.5211705713892542
 50
320.9059145474873844
 51
346.5427900780022128
  0
ARC
  5
BC8D
  8
0
 10
4355.0306688992168347
 20
168.2180037999551132
 30
0.0
 40
0.033967379973835
 50
275.833147880974991
 51
315.2331550048152735
  0
ARC
  5
BC8E
  8
0
 10
4355.002802568570587
 20
168.9457697920911983
 30
0.0
 40
0.7622011948482218
 50
270.404760598430812
 51
272.3549203548830064
  0
LINE
  5
BC8F
  8
0
 10
4355.074293388883234
 20
168.7001850869282862
 30
0.0
 11
4355.0448026581580052
 21
168.6238538663506006
 31
0.0
  0
LINE
  5
BC90
  8
0
 10
4355.2072815078363419
 20
168.4444118286434957
 30
0.0
 11
4355.1568603420219006
 21
168.4064401102338024
 31
0.0
  0
LINE
  5
BC91
  8
0
 10
4354.9789063362022716
 20
168.1873631987481872
 30
0.0
 11
4354.9541279128361566
 21
168.1796605484713041
 31
0.0
  0
LINE
  5
BC92
  8
0
 10
4355.0478149523205502
 20
168.1886815257389003
 30
0.0
 11
4355.0710296724573709
 21
168.1801243227565124
 31
0.0
  0
LINE
  5
BC93
  8
0
 10
4354.9499243376385493
 20
168.7001937979810009
 30
0.0
 11
4354.9499243376385493
 21
169.4579706973539999
 31
0.0
  0
LINE
  5
BC94
  8
0
 10
4355.0743250228779289
 20
168.7001937755071879
 30
0.0
 11
4355.0743250228779289
 21
169.4580203537537955
 31
0.0
  0
LINE
  5
BC95
  8
0
 10
4353.0087529919355802
 20
188.8979132529655089
 30
0.0
 11
4353.0087529919355802
 21
188.2245874470654883
 31
0.0
  0
LINE
  5
BC96
  8
0
 10
4352.437886850236282
 20
188.2245874470451099
 30
0.0
 11
4352.437886850236282
 21
188.8976770325280938
 31
0.0
  0
LINE
  5
BC97
  8
0
 10
4350.6313684866363474
 20
171.0056406316064113
 30
0.0
 11
4350.6313684866363474
 21
171.7930422064063976
 31
0.0
  0
LINE
  5
BC98
  8
0
 10
4350.6313684866363474
 20
171.8127272457064123
 30
0.0
 11
4350.6313684866363474
 21
171.8520973245063885
 31
0.0
  0
LINE
  5
BC99
  8
0
 10
4350.6313684866363474
 20
171.8620973245064079
 30
0.0
 11
4350.6313684866363474
 21
172.4720143245064037
 31
0.0
  0
LINE
  5
BC9A
  8
0
 10
4349.6472425023366668
 20
171.7930422064063976
 30
0.0
 11
4350.6313684866363474
 21
171.7930422064063976
 31
0.0
  0
LINE
  5
BC9B
  8
0
 10
4349.6472425023366668
 20
171.8127272457064123
 30
0.0
 11
4350.6313684866363474
 21
171.8127272457064123
 31
0.0
  0
LINE
  5
BC9C
  8
0
 10
4349.6472425023366668
 20
171.8520973245063885
 30
0.0
 11
4350.6313684866363474
 21
171.8520973245063885
 31
0.0
  0
LINE
  5
BC9D
  8
0
 10
4349.6472425023366668
 20
171.8520973245063885
 30
0.0
 11
4349.6472425023366668
 21
171.8127272457064123
 31
0.0
  0
LINE
  5
BC9E
  8
0
 10
4349.6472425023366668
 20
171.8620973245064079
 30
0.0
 11
4349.6472425023366668
 21
172.4720143245064037
 31
0.0
  0
ARC
  5
BC9F
  8
0
 10
4349.6572425023359756
 20
171.8620973245064079
 30
0.0
 40
0.01
 50
179.9999999999893987
 51
270.0
  0
LINE
  5
BCA0
  8
0
 10
4349.6472425023366668
 20
171.7930422064063976
 30
0.0
 11
4349.6472425023366668
 21
171.0056406316064113
 31
0.0
  0
ARC
  5
BCA1
  8
0
 10
4350.6213684866361291
 20
171.8620973245064079
 30
0.0
 40
0.01
 50
270.0
 51
0.0
  0
LINE
  5
BCA2
  8
0
 10
4349.7118684866363765
 20
171.8024941138453983
 30
0.0
 11
4349.7307149532480253
 21
171.7930422064063976
 31
0.0
  0
LINE
  5
BCA3
  8
0
 10
4349.7118684866363765
 20
171.8024941138453983
 30
0.0
 11
4349.7118684866363765
 21
171.8127272457064123
 31
0.0
  0
ARC
  5
BCA4
  8
0
 10
4349.8713697816219792
 20
172.1090050843228028
 30
0.0
 40
0.3364836114245229
 50
241.7041806330761915
 51
249.8866521803477099
  0
ARC
  5
BCA5
  8
0
 10
4349.9529627220981638
 20
172.0102414996918867
 30
0.0
 40
0.2413647283925433
 50
234.9172476896887076
 51
244.1422990695124895
  0
ARC
  5
BCA6
  8
0
 10
4350.3470037940751354
 20
171.2534608833051095
 30
0.0
 40
0.5495642042719863
 50
79.0625525561818563
 51
100.9374474438181011
  0
ARC
  5
BCA7
  8
0
 10
4350.3471668631909779
 20
171.2904071176224079
 30
0.0
 40
0.5228966430433946
 50
73.997843504201569
 51
87.3092403644749311
  0
ARC
  5
BCA8
  8
0
 10
4350.3445693866851798
 20
171.0758236024749976
 30
0.0
 40
0.7391752649165035
 50
94.493070212718095
 51
103.9999989061567049
  0
LINE
  5
BCA9
  8
0
 10
4350.6313684866363474
 20
171.0056406316064113
 30
0.0
 11
4349.6472425023366668
 21
171.0056406316064113
 31
0.0
  0
LINE
  5
BCAA
  8
0
 10
4350.6313684866363474
 20
170.9662406316064107
 30
0.0
 11
4350.6313684866363474
 21
170.767223419756391
 31
0.0
  0
LINE
  5
BCAB
  8
0
 10
4349.6473684866350595
 20
170.9662406316064107
 30
0.0
 11
4349.6473684866350595
 21
170.767223419756391
 31
0.0
  0
ARC
  5
BCAC
  8
0
 10
4350.5919684866366879
 20
170.9662406316064107
 30
0.0
 40
0.0394
 50
359.9999999999976126
 51
90.0
  0
ARC
  5
BCAD
  8
0
 10
4349.6867684866374475
 20
170.9662406316064107
 30
0.0
 40
0.0394
 50
90.0
 51
180.0000000000023874
  0
LINE
  5
BCAE
  8
0
 10
4350.0015732110368845
 20
171.635561891406411
 30
0.0
 11
4350.2771637622199705
 21
171.635561891406411
 31
0.0
  0
LINE
  5
BCAF
  8
0
 10
4350.2771637622199705
 20
171.635561891406411
 30
0.0
 11
4350.2771637622199705
 21
171.1631209465427901
 31
0.0
  0
LINE
  5
BCB0
  8
0
 10
4350.2771637622199705
 20
171.1631209465427901
 30
0.0
 11
4350.0015732110368845
 21
171.1631209465427901
 31
0.0
  0
LINE
  5
BCB1
  8
0
 10
4350.0015732110368845
 20
171.1631209465427901
 30
0.0
 11
4350.0015732110368845
 21
171.635561891406411
 31
0.0
  0
ARC
  5
BCB2
  8
0
 10
4350.1393684866288822
 20
171.3118340267951965
 30
0.0
 40
0.351834148856187
 50
66.9428944260104544
 51
113.057105573989503
  0
ARC
  5
BCB3
  8
0
 10
4350.1393684866288822
 20
171.5020012212162044
 30
0.0
 40
0.3658242454216512
 50
247.8723898362692921
 51
292.1276101637064926
  0
ARC
  5
BCB4
  8
0
 10
4350.5363169170277615
 20
172.2533029647977969
 30
0.0
 40
0.5464842844187603
 50
189.6143598059495048
 51
214.2401034265452893
  0
ARC
  5
BCB5
  8
0
 10
4350.0270870626463875
 20
172.1670418990914868
 30
0.0
 40
0.03
 50
170.4672388609114932
 51
189.6143598059487942
  0
ARC
  5
BCB6
  8
0
 10
4350.1093460998154114
 20
171.9626968098405939
 30
0.0
 40
0.03
 50
214.2401034265456872
 51
262.3319922085950111
  0
ARC
  5
BCB7
  8
0
 10
4349.7477048572491185
 20
172.2516846698281086
 30
0.0
 40
0.5409999984490634
 50
325.555573689824314
 51
350.4668346946327802
  0
ARC
  5
BCB8
  8
0
 10
4350.2516478943798575
 20
172.1670536250368002
 30
0.0
 40
0.03
 50
350.4668346946319843
 51
9.533165355006286
  0
ARC
  5
BCB9
  8
0
 10
4349.7477048571381602
 20
172.0824225797778979
 30
0.0
 40
0.5409999986366192
 50
9.533165355006286
 51
34.4444258920345021
  0
ARC
  5
BCBA
  8
0
 10
4350.5310864113043863
 20
172.0824050529622866
 30
0.0
 40
0.5410564931301129
 50
145.5526778448447089
 51
170.4672388609122891
  0
ARC
  5
BCBB
  8
0
 10
4350.1096454143071242
 20
172.3714832866994868
 30
0.0
 40
0.03
 50
97.501794742974127
 51
145.5526778448447089
  0
ARC
  5
BCBC
  8
0
 10
4350.1392446041518269
 20
172.1467095264567888
 30
0.0
 40
0.2567142592186969
 50
82.4293545726767292
 51
97.501794742974127
  0
ARC
  5
BCBD
  8
0
 10
4350.1691138767000666
 20
172.3714475559278014
 30
0.0
 40
0.03
 50
34.4444258920341682
 51
82.4293545726767292
  0
ARC
  5
BCBE
  8
0
 10
4350.1393684867425691
 20
172.1856848296255862
 30
0.0
 40
0.25500000152119
 50
262.3319922085950111
 51
277.5968400316098155
  0
ARC
  5
BCBF
  8
0
 10
4350.1691138745491116
 20
171.9626596907087901
 30
0.0
 40
0.03
 50
277.5968400316098155
 51
325.5555736898259056
  0
ARC
  5
BCC0
  8
0
 10
4350.5310514541661178
 20
172.0824160173341113
 30
0.0
 40
0.4908071362571782
 50
148.1702497144084134
 51
168.937720606954997
  0
ARC
  5
BCC1
  8
0
 10
4350.5310365760469722
 20
172.2516860300850965
 30
0.0
 40
0.4907914528478473
 50
191.0619315030394034
 51
211.8299336462316944
  0
ARC
  5
BCC2
  8
0
 10
4350.098140442300064
 20
172.1670538425779
 30
0.0
 40
0.0497
 50
168.937720606954997
 51
191.0619315030386076
  0
ARC
  5
BCC3
  8
0
 10
4349.7477018410199889
 20
172.2516861770153866
 30
0.0
 40
0.4907901525333047
 50
328.1696624740714014
 51
348.9379264601540171
  0
ARC
  5
BCC4
  8
0
 10
4350.180596488808078
 20
172.1670531658490972
 30
0.0
 40
0.0497
 50
348.9379264601540171
 51
11.0632140838304291
  0
ARC
  5
BCC5
  8
0
 10
4349.7476412827872991
 20
172.0823993672867118
 30
0.0
 40
0.4908535742024086
 50
11.0632140838304291
 51
31.8286758915104109
  0
ARC
  5
BCC6
  8
0
 10
4350.139367900365869
 20
172.1478952900372974
 30
0.0
 40
0.205313904023112
 50
88.752361150724866
 51
91.2473285042712376
  0
ARC
  5
BCC7
  8
0
 10
4350.1393687742393013
 20
172.1867438052859995
 30
0.0
 40
0.2058457311633301
 50
268.7771306228975732
 51
271.2442695301039066
  0
ARC
  5
BCC8
  8
0
 10
4350.1345167860299625
 20
172.0214971838900908
 30
0.0
 40
0.0416082544458299
 50
282.9464231684971764
 51
316.4709218712749248
  0
ARC
  5
BCC9
  8
0
 10
4350.1440895508167159
 20
172.021320915143292
 30
0.0
 40
0.0413917854113531
 50
223.4731863885751864
 51
257.2801318279143175
  0
ARC
  5
BCCA
  8
0
 10
4350.1442160676397179
 20
172.3126157026179897
 30
0.0
 40
0.0416016808599128
 50
102.9422715799563974
 51
136.4737358385139885
  0
ARC
  5
BCCB
  8
0
 10
4350.1345252057326434
 20
172.3126228746768902
 30
0.0
 40
0.0415936907974006
 50
43.5231324115424627
 51
77.0613626963697556
  0
LINE
  5
BCCC
  8
0
 10
4350.2302964888076531
 20
172.1670531658490972
 30
0.0
 11
4350.2816478943732363
 21
172.1670542702229909
 31
0.0
  0
LINE
  5
BCCD
  8
0
 10
4350.0484404422995794
 20
172.1670537180359872
 30
0.0
 11
4349.9970870649740391
 21
172.1670537180359872
 31
0.0
  0
LINE
  5
BCCE
  8
0
 10
4350.0935757352799556
 20
171.9371763160665978
 30
0.0
 11
4350.1227852631018322
 21
171.9858327872059078
 31
0.0
  0
LINE
  5
BCCF
  8
0
 10
4350.1551374267728534
 20
171.9853580636269044
 30
0.0
 11
4350.1848228395083424
 21
171.9371013570406888
 31
0.0
  0
LINE
  5
BCD0
  8
0
 10
4350.1235991064868358
 20
172.3487493540135063
 30
0.0
 11
4350.0939522117150773
 21
172.3970513017264921
 31
0.0
  0
LINE
  5
BCD1
  8
0
 10
4350.1551380487426286
 20
172.3487496766005904
 30
0.0
 11
4350.1848169989370945
 21
172.3970094797994932
 31
0.0
  0
LINE
  5
BCD2
  8
0
 10
4349.6472425023366668
 20
172.4820143245063946
 30
0.0
 11
4350.6314944708356052
 21
172.4820143245063946
 31
0.0
  0
ARC
  5
BCD3
  8
0
 10
4349.6572425023359756
 20
172.4720143245064037
 30
0.0
 40
0.01
 50
90.0
 51
180.0000000000104876
  0
ARC
  5
BCD4
  8
0
 10
4350.6213684866361291
 20
172.4720143245064037
 30
0.0
 40
0.01
 50
0.0000000000048853
 51
90.0
  0
LINE
  5
BCD5
  8
0
 10
4350.6314944708356052
 20
174.174927710306406
 30
0.0
 11
4349.6472425023366668
 21
174.174927710306406
 31
0.0
  0
LINE
  5
BCD6
  8
0
 10
4350.6314944708356052
 20
174.2142977890063946
 30
0.0
 11
4349.6472425023366668
 21
174.2142977890063946
 31
0.0
  0
ARC
  5
BCD7
  8
0
 10
4350.16783452589425
 20
173.7105456738902944
 30
0.0
 40
2.8864373986051679
 50
266.2416440800935789
 51
269.4349399890608083
  0
ARC
  5
BCD8
  8
0
 10
4349.8540915915673395
 20
168.9344264286266935
 30
0.0
 40
1.899975629312191
 50
86.2416440800936073
 51
90.3065238098048866
  0
ARC
  5
BCD9
  8
0
 10
4349.8583832019176043
 20
168.1322413889953964
 30
0.0
 40
2.7021721487060621
 50
90.3065238098048866
 51
92.3735599945223527
  0
ARC
  5
BCDA
  8
0
 10
4349.7543055734286099
 20
170.6431520988593036
 30
0.0
 40
0.1891053478309395
 50
92.3735599945223527
 51
111.4329948272523012
  0
ARC
  5
BCDB
  8
0
 10
4349.7125465840999823
 20
170.7495281192989012
 30
0.0
 40
0.0748264306400748
 50
111.4329948272523012
 51
130.8742005956565038
  0
ARC
  5
BCDC
  8
0
 10
4349.6938006154641698
 20
170.7711887581212977
 30
0.0
 40
0.0461804079783578
 50
130.8742005956565038
 51
159.95336929474729
  0
ARC
  5
BCDD
  8
0
 10
4349.7551341083071748
 20
170.7607538774294937
 30
0.0
 40
0.1079596414960436
 50
165.9195705549985007
 51
176.5644598310911988
  0
ARC
  5
BCDE
  8
0
 10
4349.5635927686180366
 20
170.7699603750886013
 30
0.0
 40
0.083820414302403
 50
313.6497116766352065
 51
358.1288106250704004
  0
ARC
  5
BCDF
  8
0
 10
4350.1109024471788871
 20
173.7105456738902944
 30
0.0
 40
2.8864373986051679
 50
270.565060010939078
 51
273.7583559199064211
  0
ARC
  5
BCE0
  8
0
 10
4350.4246453815048881
 20
168.9344264286266935
 30
0.0
 40
1.899975629312191
 50
89.6934761901951134
 51
93.7583559199064069
  0
ARC
  5
BCE1
  8
0
 10
4350.4203537711546232
 20
168.1322413889953964
 30
0.0
 40
2.7021721487060621
 50
87.6264400054776615
 51
89.6934761901951134
  0
ARC
  5
BCE2
  8
0
 10
4350.5244313996427081
 20
170.6431520988593036
 30
0.0
 40
0.1891053478309395
 50
68.5670051727476846
 51
87.6264400054776615
  0
ARC
  5
BCE3
  8
0
 10
4350.5661903889713358
 20
170.7495281192989012
 30
0.0
 40
0.0748264306400748
 50
49.1257994043434394
 51
68.5670051727476846
  0
ARC
  5
BCE4
  8
0
 10
4350.5849363576080577
 20
170.7711887581212977
 30
0.0
 40
0.0461804079783578
 50
20.0466307052530013
 51
49.1257994043434394
  0
ARC
  5
BCE5
  8
0
 10
4350.5236028420440562
 20
170.7607538728402972
 30
0.0
 40
0.1079596646511913
 50
3.4355418711058898
 51
14.0804288737223509
  0
ARC
  5
BCE6
  8
0
 10
4350.7151442033346029
 20
170.7699603742987904
 30
0.0
 40
0.0838204129589852
 50
181.87118886475929
 51
226.3502885038415116
  0
ARC
  5
BCE7
  8
0
 10
4418.8488496965001104
 20
188.0220373362955115
 30
0.0
 40
65.8404082658487368
 50
179.8237361356291046
 51
186.7499853385230892
  0
ARC
  5
BCE8
  8
0
 10
4389.9761856830982651
 20
184.9336745911315916
 30
0.0
 40
36.8063277153911201
 50
187.2584898335863102
 51
197.9300886698754027
  0
ARC
  5
BCE9
  8
0
 10
4395.0915937328518339
 20
187.0194782518163095
 30
0.0
 40
42.3174060947573096
 50
198.4848004438896112
 51
205.7097273736713987
  0
ARC
  5
BCEA
  8
0
 10
4342.6461382600837169
 20
162.0487156291503084
 30
0.0
 40
15.7707698413847304
 50
17.0150059830791598
 51
24.79151309454355
  0
ARC
  5
BCEB
  8
0
 10
4351.6299019036368918
 20
164.93569906258179
 30
0.0
 40
6.395777818959659
 50
349.2298559799548912
 51
359.3836793683174164
  0
ARC
  5
BCEC
  8
0
 10
4352.0260739545983597
 20
164.7926477237064944
 30
0.0
 40
5.9996952635354104
 50
0.709131480267752
 51
18.1701482975036406
  0
ARC
  5
BCED
  8
0
 10
4353.253838564815851
 20
164.7566409537209893
 30
0.0
 40
4.7686930968305452
 50
313.436028433887202
 51
347.6970395542870165
  0
ARC
  5
BCEE
  8
0
 10
4353.9354094955169785
 20
164.0368071403069905
 30
0.0
 40
3.7773810104970118
 50
291.6833159511248823
 51
313.436028433887202
  0
ARC
  5
BCEF
  8
0
 10
4353.9491910798105891
 20
164.0021461726410905
 30
0.0
 40
3.7400806787931762
 50
239.68025973055299
 51
291.6833159511248823
  0
ARC
  5
BCF0
  8
0
 10
4354.2172599931327568
 20
164.4605285180250007
 30
0.0
 40
4.2710941596478502
 50
198.6589608060762089
 51
239.68025973055299
  0
ARC
  5
BCF1
  8
0
 10
4355.9130753856743468
 20
165.0331768650312938
 30
0.0
 40
6.0609868868546704
 50
181.4179240572449885
 51
198.6589608060762089
  0
ARC
  5
BCF2
  8
0
 10
4354.8494066310950075
 20
164.8496068537060069
 30
0.0
 40
4.4247061827511969
 50
179.6302445402106969
 51
218.1805676529328935
  0
ARC
  5
BCF3
  8
0
 10
4354.074085872649448
 20
164.2399152568362979
 30
0.0
 40
3.438376561492885
 50
218.1805676529342009
 51
243.4976737338780879
  0
ARC
  5
BCF4
  8
0
 10
4353.9463190386677525
 20
163.983680686280394
 30
0.0
 40
3.1520541575261278
 50
243.4976737338780879
 51
296.5205694924699173
  0
ARC
  5
BCF5
  8
0
 10
4353.4501776456399966
 20
164.666570563623111
 30
0.0
 40
3.9870470337919892
 50
298.5186310062553048
 51
348.4170581105483961
  0
ARC
  5
BCF6
  8
0
 10
4351.5678981208047844
 20
164.843444227555409
 30
0.0
 40
5.8700768382180257
 50
350.4151196243382174
 51
23.1525924781275414
  0
ARC
  5
BCF7
  8
0
 10
4051.047944256557912
 20
36.3346562377618767
 30
0.0
 40
332.7136958078634734
 50
23.1525924781275414
 51
23.6806649001764917
  0
ARC
  5
BCF8
  8
0
 10
4393.3777286765653116
 20
186.4691622490460077
 30
0.0
 40
41.0911345465621523
 50
199.0726706243054025
 51
203.6806649001765095
  0
ARC
  5
BCF9
  8
0
 10
4388.9446643635719738
 20
184.667665196586313
 30
0.0
 40
36.3136422832990817
 50
189.3320248244781112
 51
198.6718675700734025
  0
ARC
  5
BCFA
  8
0
 10
4405.4670535862451288
 20
187.1205351937697117
 30
0.0
 40
53.0157392813353496
 50
180.2430106527718863
 51
189.0523438153379061
  0
ARC
  5
BCFB
  8
0
 10
6537.1718319428837276
 20
210.4188094756250109
 30
0.0
 40
2184.8466752455510687
 50
180.5820349488406862
 51
180.6168863893898902
  0
LINE
  5
BCFC
  8
0
 10
4350.4247925859363022
 20
164.878161276506404
 30
0.0
 11
4350.4247925859363022
 21
168.7996570596714037
 31
0.0
  0
LINE
  5
BCFD
  8
0
 10
4349.8539443872359698
 20
164.8831982452616103
 30
0.0
 11
4349.8539443872359698
 21
168.7996570596714037
 31
0.0
  0
ENDSEC
  0
EOF
