  0
SECTION
  2
HEADER
  9
$ACADVER
  1
AC1009
  9
$INSBASE
 10
4373.1572242487436597
 20
199.568292607989008
 30
0.0
  9
$EXTMIN
 10
4367.8597536794486587
 20
175.5042779963567057
 30
-0.0000000349181948
  9
$EXTMAX
 10
4381.2297927907548001
 20
199.5766202394835886
 30
0.0000000814935746
  9
$LIMMIN
 10
0.0
 20
0.0
  9
$LIMMAX
 10
11.6929133858000007
 20
8.2677165353999982
  9
$ORTHOMODE
 70
     0
  9
$REGENMODE
 70
     1
  9
$FILLMODE
 70
     1
  9
$QTEXTMODE
 70
     0
  9
$MIRRTEXT
 70
     0
  9
$DRAGMODE
 70
     2
  9
$LTSCALE
 40
0.6431102362
  9
$OSMODE
 70
     7
  9
$ATTMODE
 70
     1
  9
$TEXTSIZE
 40
0.2
  9
$TRACEWID
 40
0.05
  9
$TEXTSTYLE
  7
STANDARD
  9
$CLAYER
  8
0
  9
$CELTYPE
  6
BYLAYER
  9
$CECOLOR
 62
   256
  9
$DIMSCALE
 40
1.0
  9
$DIMASZ
 40
0.1875
  9
$DIMEXO
 40
0.0625
  9
$DIMDLI
 40
0.4443307087
  9
$DIMRND
 40
0.0
  9
$DIMDLE
 40
0.0
  9
$DIMEXE
 40
0.125
  9
$DIMTP
 40
0.01
  9
$DIMTM
 40
0.01
  9
$DIMTXT
 40
2.0
  9
$DIMCEN
 40
0.1052362205
  9
$DIMTSZ
 40
0.0
  9
$DIMTOL
 70
     1
  9
$DIMLIM
 70
     0
  9
$DIMTIH
 70
     1
  9
$DIMTOH
 70
     1
  9
$DIMSE1
 70
     0
  9
$DIMSE2
 70
     0
  9
$DIMTAD
 70
     0
  9
$DIMZIN
 70
     0
  9
$DIMBLK
  1

  9
$DIMASO
 70
     1
  9
$DIMSHO
 70
     1
  9
$DIMPOST
  1
\X
  9
$DIMAPOST
  1

  9
$DIMALT
 70
     1
  9
$DIMALTD
 70
     2
  9
$DIMALTF
 40
25.3999999999999986
  9
$DIMLFAC
 40
1.0
  9
$DIMTOFL
 70
     0
  9
$DIMTVP
 40
0.0
  9
$DIMTIX
 70
     0
  9
$DIMSOXD
 70
     0
  9
$DIMSAH
 70
     0
  9
$DIMBLK1
  1

  9
$DIMBLK2
  1

  9
$DIMSTYLE
  2
STANDARD
  9
$DIMCLRD
 70
     0
  9
$DIMCLRE
 70
     0
  9
$DIMCLRT
 70
     0
  9
$DIMTFAC
 40
1.0
  9
$DIMGAP
 40
0.09
  9
$LUNITS
 70
     2
  9
$LUPREC
 70
     4
  9
$SKETCHINC
 40
0.1
  9
$FILLETRAD
 40
0.0
  9
$AUNITS
 70
     0
  9
$AUPREC
 70
     0
  9
$MENU
  1
.
  9
$ELEVATION
 40
0.0
  9
$PELEVATION
 40
0.0
  9
$THICKNESS
 40
0.0
  9
$LIMCHECK
 70
     0
  9
$BLIPMODE
 70
     0
  9
$CHAMFERA
 40
0.0
  9
$CHAMFERB
 40
0.0
  9
$SKPOLY
 70
     0
  9
$TDCREATE
 40
2458060.468368056230247
  9
$TDUPDATE
 40
2459571.4422685191966593
  9
$TDINDWG
 40
0.4224376157
  9
$TDUSRTIMER
 40
0.4224376157
  9
$USRTIMER
 70
     1
  9
$ANGBASE
 50
0.0
  9
$ANGDIR
 70
     0
  9
$PDMODE
 70
     0
  9
$PDSIZE
 40
0.3125
  9
$PLINEWID
 40
0.0
  9
$COORDS
 70
     1
  9
$SPLFRAME
 70
     0
  9
$SPLINETYPE
 70
     6
  9
$SPLINESEGS
 70
     8
  9
$ATTDIA
 70
     1
  9
$ATTREQ
 70
     1
  9
$HANDLING
 70
     1
  9
$HANDSEED
  5
BDE4
  9
$SURFTAB1
 70
     6
  9
$SURFTAB2
 70
     6
  9
$SURFTYPE
 70
     6
  9
$SURFU
 70
     6
  9
$SURFV
 70
     6
  9
$UCSNAME
  2

  9
$UCSORG
 10
0.0
 20
0.0
 30
0.0
  9
$UCSXDIR
 10
1.0
 20
0.0
 30
0.0
  9
$UCSYDIR
 10
0.0
 20
1.0
 30
0.0
  9
$PUCSNAME
  2

  9
$PUCSORG
 10
0.0
 20
0.0
 30
0.0
  9
$PUCSXDIR
 10
1.0
 20
0.0
 30
0.0
  9
$PUCSYDIR
 10
0.0
 20
1.0
 30
0.0
  9
$USERI1
 70
     0
  9
$USERI2
 70
     0
  9
$USERI3
 70
     0
  9
$USERI4
 70
     0
  9
$USERI5
 70
     0
  9
$USERR1
 40
0.0
  9
$USERR2
 40
0.0
  9
$USERR3
 40
0.0
  9
$USERR4
 40
0.0
  9
$USERR5
 40
0.0
  9
$WORLDVIEW
 70
     1
  9
$SHADEDGE
 70
     3
  9
$SHADEDIF
 70
    70
  9
$TILEMODE
 70
     1
  9
$MAXACTVP
 70
    64
  9
$PLIMCHECK
 70
     0
  9
$PEXTMIN
 10
1.0000000000000000E+20
 20
1.0000000000000000E+20
 30
1.0000000000000000E+20
  9
$PEXTMAX
 10
-1.0000000000000000E+20
 20
-1.0000000000000000E+20
 30
-1.0000000000000000E+20
  9
$PLIMMIN
 10
0.0
 20
0.0
  9
$PLIMMAX
 10
12.0
 20
9.0
  9
$UNITMODE
 70
     0
  9
$VISRETAIN
 70
     1
  9
$PLINEGEN
 70
     0
  9
$PSLTSCALE
 70
     1
  0
ENDSEC
  0
SECTION
  2
TABLES
  0
TABLE
  2
VPORT
 70
     1
  0
VPORT
  2
*ACTIVE
 70
     0
 10
0.0
 20
0.0
 11
1.0
 21
1.0
 12
571.0007058522895704
 22
61.5451869211702416
 13
0.0
 23
0.0
 14
1.0
 24
1.0
 15
0.0
 25
0.0
 16
0.0
 26
0.0
 36
17.1152628219792007
 17
3803.5440673828129547
 27
125.9952621967499056
 37
0.0
 40
24.2446979155121198
 41
1.8876941457586609
 42
50.0
 43
0.0
 44
0.0
 50
0.0
 51
0.0
 71
     0
 72
   100
 73
     1
 74
     1
 75
     0
 76
     1
 77
     0
 78
     0
  0
ENDTAB
  0
TABLE
  2
LTYPE
 70
     2
  0
LTYPE
  2
CONTINUOUS
 70
     0
  3
Solid line
 72
    65
 73
     0
 40
0.0
  0
LTYPE
  2
PHANTOM2
 70
     0
  3
___ _ _ ___ _ _ ___ _ _ ___ _ _
 72
    65
 73
     6
 40
1.25
 49
0.625
 49
-0.125
 49
0.125
 49
-0.125
 49
0.125
 49
-0.125
  0
ENDTAB
  0
TABLE
  2
LAYER
 70
     2
  0
LAYER
  2
0
 70
     0
 62
   255
  6
CONTINUOUS
  0
LAYER
  2
DEFPOINTS
 70
     0
 62
     7
  6
CONTINUOUS
  0
ENDTAB
  0
TABLE
  2
STYLE
 70
     1
  0
STYLE
  2
STANDARD
 70
     0
 40
0.0
 41
0.8
 50
0.0
 71
     0
 42
0.2
  3
txt
  4

  0
ENDTAB
  0
TABLE
  2
VIEW
 70
     0
  0
ENDTAB
  0
TABLE
  2
UCS
 70
     0
  0
ENDTAB
  0
TABLE
  2
APPID
 70
     9
  0
APPID
  2
ACAD
 70
     0
  0
APPID
  2
ACAD_MLEADERVER
 70
     0
  0
APPID
  2
ACAD_EXEMPT_FROM_CAD_STANDARDS
 70
     0
  0
APPID
  2
ACAD_NAV_VCDISPLAY
 70
     0
  0
APPID
  2
ACAECLAYERSTANDARD
 70
     0
  0
APPID
  2
ACCMTRANSPARENCY
 70
     0
  0
APPID
  2
ACAD_DSTYLE_DIMJAG
 70
     0
  0
APPID
  2
ACAD_DSTYLE_DIMTALN
 70
     0
  0
APPID
  2
ACDBATTR
 70
     0
  0
ENDTAB
  0
TABLE
  2
DIMSTYLE
 70
     1
  0
DIMSTYLE
  2
STANDARD
 70
     0
  3

  4

  5

  6

  7

 40
1.0
 41
0.1875
 42
0.0625
 43
0.38
 44
0.125
 45
0.0
 46
0.0
 47
0.01
 48
0.01
140
0.15625
141
0.09
142
0.0
143
25.3999999999999986
144
1.0
145
0.0
146
1.0
147
0.09
 71
     1
 72
     0
 73
     1
 74
     1
 75
     0
 76
     0
 77
     0
 78
     4
170
     0
171
     2
172
     0
173
     0
174
     0
175
     0
176
     0
177
     0
178
     0
  0
ENDTAB
  0
ENDSEC
  0
SECTION
  2
BLOCKS
  0
BLOCK
  8
0
  2
$MODEL_SPACE
 70
     0
 10
0.0
 20
0.0
 30
0.0
  3
$MODEL_SPACE
  1

  0
ENDBLK
  5
21
  8
0
  0
BLOCK
 67
     1
  8
0
  2
$PAPER_SPACE
 70
     0
 10
0.0
 20
0.0
 30
0.0
  3
$PAPER_SPACE
  1

  0
ENDBLK
  5
1D
 67
     1
  8
0
  0
ENDSEC
  0
SECTION
  2
ENTITIES
  0
ATTDEF
  5
3930
  8
DEFPOINTS
 10
4373.1520357997096653
 20
199.5665338276766079
 30
0.0
 40
0.001
  1
K-EX27030T-4E2
  3

  2
MODELNUMBER
 70
     0
1001
ACDBATTR
1070
     0
1070
     1
  0
ATTDEF
  5
3931
  8
DEFPOINTS
 10
4373.1520357997096653
 20
199.5648671610098859
 30
0.0
 40
0.001
  1
OCCASION
  3

  2
TRADENAME
 70
     0
1001
ACDBATTR
1070
     0
1070
     1
  0
ATTDEF
  5
3932
  8
DEFPOINTS
 10
4373.1520357997096653
 20
199.563200494343306
 30
0.0
 40
0.001
  1
SHOWER COLUMN KIT
  3

  2
PRODUCT
 70
     0
1001
ACDBATTR
1070
     0
1070
     1
  0
LINE
  5
BAFB
  8
0
 10
4368.8459342739106432
 20
199.5683874729051865
 30
0.0
 11
4371.5631285534118433
 21
199.5683874729051865
 31
0.0
  0
LINE
  5
BAFC
  8
0
 10
4371.5631285534118433
 20
199.5683874729051865
 30
0.0
 11
4371.5631280751122176
 21
199.3091301828052053
 31
0.0
  0
ARC
  5
BAFD
  8
0
 10
4371.5237099259547904
 20
199.3091302555270943
 30
0.0
 40
0.0394181491573149
 50
314.6000324237800214
 51
359.9998942958519024
  0
LINE
  5
BAFE
  8
0
 10
4371.5513875156111681
 20
199.2810635223050895
 30
0.0
 11
4371.454958672857174
 21
199.1835876437440902
 31
0.0
  0
ARC
  5
BAFF
  8
0
 10
4371.4273742778050291
 20
199.211559872056597
 30
0.0
 40
0.0392854223241483
 50
270.0348633578053068
 51
314.6000324237800214
  0
LINE
  5
BB00
  8
0
 10
4371.4273981822116184
 20
199.1722744570051873
 30
0.0
 11
4368.9816777933110643
 21
199.1722744570051873
 31
0.0
  0
ARC
  5
BB01
  8
0
 10
4368.9816770105544492
 20
199.2116286437141923
 30
0.0
 40
0.0393541867167825
 50
225.4034448769847927
 51
270.0011396178865084
  0
LINE
  5
BB02
  8
0
 10
4368.9540460330117639
 20
199.1836057764051873
 30
0.0
 11
4368.8576434955357399
 21
199.2810441748067944
 31
0.0
  0
ARC
  5
BB03
  8
0
 10
4368.8852424192546096
 20
199.3090341528161105
 30
0.0
 40
0.0393082619733252
 50
179.8604265225224879
 51
225.4030551088723087
  0
LINE
  5
BB04
  8
0
 10
4368.8459342739106432
 20
199.3091299083052093
 30
0.0
 11
4368.8459342739106432
 21
199.5683874729051865
 31
0.0
  0
ARC
  5
BB05
  8
0
 10
4369.2476492548012175
 20
198.9752441167362065
 30
0.0
 40
0.1970303408914982
 50
1.008670209214267
 51
89.9954453057624164
  0
LINE
  5
BB06
  8
0
 10
4369.4446490644122605
 20
198.9787125811052135
 30
0.0
 11
4369.4558037218967002
 21
198.3451568725776895
 31
0.0
  0
ARC
  5
BB07
  8
0
 10
4369.4754910475230645
 20
198.3455034961991998
 30
0.0
 40
0.0196903767929484
 50
181.0086702092141877
 51
269.6644851584812841
  0
LINE
  5
BB08
  8
0
 10
4369.4753757445132578
 20
198.3258134570052107
 30
0.0
 11
4370.9330147328373641
 21
198.3258134570052107
 31
0.0
  0
ARC
  5
BB09
  8
0
 10
4370.9336517771525905
 20
198.345523753845697
 30
0.0
 40
0.0197205889110937
 50
268.1488229455231931
 51
358.928408459144805
  0
LINE
  5
BB0A
  8
0
 10
4370.9533689170839352
 20
198.3451549451052074
 30
0.0
 11
4370.9652193333176911
 21
198.9786982684300085
 31
0.0
  0
ARC
  5
BB0B
  8
0
 10
4371.1624863249899136
 20
198.9750083929718869
 30
0.0
 40
0.1973014981803828
 50
91.085900243580241
 51
178.9284084591432133
  0
LINE
  5
BB0C
  8
0
 10
4368.8575595012080157
 20
199.2811272438052015
 30
0.0
 11
4371.5514633370103184
 21
199.2811272438052015
 31
0.0
  0
LINE
  5
BB0D
  8
0
 10
4372.7635864282119655
 20
196.2208163039092881
 30
0.0
 11
4372.7635864282119655
 21
180.5127143853360963
 31
0.0
  0
LINE
  5
BB0E
  8
0
 10
4373.5509897304609694
 20
180.5140862628890943
 30
0.0
 11
4373.5509897304609694
 21
196.2208163039092881
 31
0.0
  0
ARC
  5
BB0F
  8
0
 10
4373.157288079337377
 20
196.2208154401843103
 30
0.0
 40
0.3937016511259663
 50
0.0001256987290463
 51
179.9998743012693012
  0
ARC
  5
BB10
  8
0
 10
4373.1551020452116063
 20
196.2210001185320891
 30
0.0
 40
0.6484308007706689
 50
307.6282350081197023
 51
232.8582247601902111
  0
ARC
  5
BB11
  8
0
 10
4372.5667360344814369
 20
196.0016129826092879
 30
0.0
 40
0.0196850393695733
 50
179.9999999999772058
 51
200.3663101181440993
  0
ARC
  5
BB12
  8
0
 10
4373.1572872156120866
 20
196.2208163039092881
 30
0.0
 40
0.433070866100003
 50
335.3805712840056117
 51
204.6199773171140919
  0
LINE
  5
BB13
  8
0
 10
4374.5182644954265925
 20
199.5683874729051865
 30
0.0
 11
4374.5136464135121059
 21
199.3038433105051865
 31
0.0
  0
ARC
  5
BB14
  8
0
 10
4374.4741782382507154
 20
199.3045322966642914
 30
0.0
 40
0.0394741885334629
 50
314.5735131471059276
 51
358.9999033503942201
  0
LINE
  5
BB15
  8
0
 10
4374.5018821640633178
 20
199.2764128362317138
 30
0.0
 11
4374.4092703244587028
 21
199.1827855498663951
 31
0.0
  0
ARC
  5
BB16
  8
0
 10
4374.3823886459258574
 20
199.2117288427766084
 30
0.0
 40
0.0395011246076657
 50
270.225427360581989
 51
312.8850298610680056
  0
LINE
  5
BB17
  8
0
 10
4374.382544060710643
 20
199.1722280239052054
 30
0.0
 11
4371.9320303288122886
 21
199.1722280239052054
 31
0.0
  0
ARC
  5
BB18
  8
0
 10
4371.9320192500717894
 20
199.2115260317557102
 30
0.0
 40
0.0392980090567869
 50
225.5482630223355045
 51
269.9858036882973238
  0
LINE
  5
BB19
  8
0
 10
4371.9044985316868406
 20
199.1834735171555906
 30
0.0
 11
4371.8126790999276636
 21
199.2764128386060918
 31
0.0
  0
ARC
  5
BB1A
  8
0
 10
4371.8396105418223669
 20
199.3039757849041109
 30
0.0
 40
0.0385359386946226
 50
179.992595047395298
 51
225.663938412672195
  0
LINE
  5
BB1B
  8
0
 10
4371.8010746034487966
 20
199.3039807653198068
 30
0.0
 11
4371.7963099607668482
 21
199.5683874729051865
 31
0.0
  0
ARC
  5
BB1C
  8
0
 10
4373.5299929151788092
 20
196.8193834460086862
 30
0.0
 40
0.0577936473837235
 50
182.3499550368034079
 51
234.6348609202541979
  0
ARC
  5
BB1D
  8
0
 10
4373.1572872156120866
 20
196.2208163039092881
 30
0.0
 40
0.668598134099973
 50
118.1297183993055029
 51
233.924898700282796
  0
ARC
  5
BB1E
  8
0
 10
4374.5253188802607838
 20
199.7663449117436869
 30
0.0
 40
3.1316948984419142
 50
250.3506824013252867
 51
261.3241538056682884
  0
ARC
  5
BB1F
  8
0
 10
4374.5238708630722613
 20
199.7160492775057037
 30
0.0
 40
3.0817624910824062
 50
261.2097141397973132
 51
273.971269422199498
  0
LINE
  5
BB20
  8
0
 10
4371.8085789008609936
 20
199.2811272438052015
 30
0.0
 11
4374.5066672836201178
 21
199.2811272438052015
 31
0.0
  0
ARC
  5
BB21
  8
0
 10
4376.0345092464540357
 20
192.0381370819588085
 30
0.0
 40
4.5430103560764303
 50
72.3857305946888232
 51
83.0821891046565781
  0
ARC
  5
BB22
  8
0
 10
4376.7921435344978818
 20
194.4244407987436887
 30
0.0
 40
2.0393220481671932
 50
61.0682262262852475
 51
72.3857305946888232
  0
ARC
  5
BB23
  8
0
 10
4377.0884705499265692
 20
194.9605333839519119
 30
0.0
 40
1.4267822862020789
 50
53.226089834310649
 51
61.0682262262852475
  0
ARC
  5
BB24
  8
0
 10
4377.4104986799966355
 20
195.3914061719061124
 30
0.0
 40
0.8888664229336715
 50
7.6447661844134824
 51
53.2260898343086879
  0
ARC
  5
BB25
  8
0
 10
4367.4976122793423201
 20
194.8082103066109028
 30
0.0
 40
10.8166202297388505
 50
0.0851422506278542
 51
3.7181591661333031
  0
LINE
  5
BB26
  8
0
 10
4378.3142205662716151
 20
194.8242839347111044
 30
0.0
 11
4378.3142205662716151
 21
194.7476273812359011
 31
0.0
  0
ARC
  5
BB27
  8
0
 10
4378.0079883086691552
 20
194.7748482372842034
 30
0.0
 40
0.3074397023806791
 50
339.0908919897801184
 51
354.9203529848933272
  0
ARC
  5
BB28
  8
0
 10
4377.8260813624256116
 20
194.8609436303325992
 30
0.0
 40
0.5083304923273583
 50
299.7832245062355128
 51
337.3429187221767052
  0
ARC
  5
BB29
  8
0
 10
4376.8912837041816601
 20
196.3621355777929978
 30
0.0
 40
2.2765107345004738
 50
283.3661346035653992
 51
301.4357295481445931
  0
ARC
  5
BB2A
  8
0
 10
4376.1289346522544292
 20
198.9502215402027048
 30
0.0
 40
4.9727949780028444
 50
274.3472018254315117
 51
285.0186396454899977
  0
ARC
  5
BB2B
  8
0
 10
4375.760423223019643
 20
201.924834786305496
 30
0.0
 40
7.9680485386828472
 50
269.9593580733869089
 51
275.3681537412704188
  0
ARC
  5
BB2C
  8
0
 10
4375.998760430305083
 20
204.3689404128730871
 30
0.0
 40
10.4150104829119297
 50
262.8416718262718064
 51
268.6576267090975989
  0
ARC
  5
BB2D
  8
0
 10
4375.287823087108336
 20
198.7081843648992105
 30
0.0
 40
4.7097856021011788
 50
251.1040122514378936
 51
262.8416718262718064
  0
ARC
  5
BB2E
  8
0
 10
4374.4730868878541514
 20
196.1212677470720962
 30
0.0
 40
1.9995507822612519
 50
242.5385208555238137
 51
249.1853183440331918
  0
ARC
  5
BB2F
  8
0
 10
4374.5235973385961188
 20
194.7836411340323082
 30
0.0
 40
1.6338771404802019
 50
113.543770023387097
 51
116.1744334234531948
  0
ARC
  5
BB30
  8
0
 10
4375.0179326625457179
 20
193.6491186284513049
 30
0.0
 40
2.8714185451106831
 50
106.0036202391380016
 51
113.543770023387097
  0
ARC
  5
BB31
  8
0
 10
4375.3658989888881479
 20
192.4359051570355064
 30
0.0
 40
4.1335467048042771
 50
99.4191505908791981
 51
106.0036202391380016
  0
ARC
  5
BB32
  8
0
 10
4376.0155816609067188
 20
188.5196143520774115
 30
0.0
 40
8.1033604590405641
 50
98.3270720507286882
 51
99.4191505908791981
  0
ARC
  5
BB33
  8
0
 10
4374.7399642571617733
 20
196.6024062633559879
 30
0.0
 40
0.0393702278330425
 50
359.9999533561756948
 51
93.8849801875486207
  0
LINE
  5
BB34
  8
0
 10
4374.7793344849951609
 20
196.6024062313051957
 30
0.0
 11
4374.7793344245183107
 21
196.5281188004535977
 31
0.0
  0
LINE
  5
BB35
  8
0
 10
4374.7806730676948064
 20
196.6021086540052067
 30
0.0
 11
4374.8006730676952429
 21
196.6021086540052067
 31
0.0
  0
LINE
  5
BB36
  8
0
 10
4374.8006730676952429
 20
196.6021086540052067
 30
0.0
 11
4374.8006730676952429
 21
196.5313836847078903
 31
0.0
  0
LINE
  5
BB37
  8
0
 10
4374.7806730676948064
 20
196.6021086540052067
 30
0.0
 11
4374.7806730676948064
 21
196.5283253279804967
 31
0.0
  0
LINE
  5
BB38
  8
0
 10
4374.8185234613947614
 20
196.6052735732693861
 30
0.0
 11
4374.8185234613947614
 21
196.534070191129814
 31
0.0
  0
LINE
  5
BB39
  8
0
 10
4374.8006730676952429
 20
196.5546234815051889
 30
0.0
 11
4374.8185234613947614
 21
196.5546234815051889
 31
0.0
  0
ARC
  5
BB3A
  8
0
 10
4374.8578935400937553
 20
196.6052735736051886
 30
0.0
 40
0.0393700787000064
 50
90.0
 51
180.0000004887073999
  0
LINE
  5
BB3B
  8
0
 10
4374.8578935400937553
 20
196.6446436523052057
 30
0.0
 11
4374.8972569685884082
 21
196.6446436523052057
 31
0.0
  0
ARC
  5
BB3C
  8
0
 10
4374.869575668593825
 20
196.6204708461521022
 30
0.0
 40
0.0915584502552466
 50
330.7379016692643177
 51
357.3520204933998912
  0
ARC
  5
BB3D
  8
0
 10
4374.8891677213769071
 20
196.6094933343048865
 30
0.0
 40
0.0691006164631457
 50
297.0192055774609798
 51
330.7379016692656819
  0
ARC
  5
BB3E
  8
0
 10
4375.0164887384189569
 20
196.6171401662543019
 30
0.0
 40
0.0554633248053368
 50
181.043978555767012
 51
205.6860954365425869
  0
ARC
  5
BB3F
  8
0
 10
4375.0627660048312464
 20
196.6393980803460124
 30
0.0
 40
0.106815054340836
 50
205.6860954365411089
 51
226.8489270662072101
  0
ARC
  5
BB40
  8
0
 10
4375.1927076553592997
 20
196.778008891958109
 30
0.0
 40
0.2968092375091755
 50
226.8489270662072101
 51
246.2316434908065048
  0
ARC
  5
BB41
  8
0
 10
4375.4899299883445565
 20
197.4529113909530906
 30
0.0
 40
1.0342605907354661
 50
246.2316434908065048
 51
255.1200192973460048
  0
ARC
  5
BB42
  8
0
 10
4375.5824558931662978
 20
197.8011389094216952
 30
0.0
 40
1.3945708010844351
 50
255.1200192973460048
 51
262.6602244159495854
  0
ARC
  5
BB43
  8
0
 10
4375.7945925079766312
 20
199.448052037773607
 30
0.0
 40
3.055090236586933
 50
262.6602244159495854
 51
267.2548175717885783
  0
ARC
  5
BB44
  8
0
 10
4375.7344397592632959
 20
198.1935412548548072
 30
0.0
 40
1.79913814449204
 50
267.2548175717885783
 51
270.5424179808808276
  0
ARC
  5
BB45
  8
0
 10
4375.7210762663980859
 20
199.6050889790492135
 30
0.0
 40
3.210749125116652
 50
270.5424179808808276
 51
275.3907526542026858
  0
ARC
  5
BB46
  8
0
 10
4375.8719111844684448
 20
198.0066687356280966
 30
0.0
 40
1.6052278866748839
 50
275.3907526542026858
 51
287.083217113109697
  0
ARC
  5
BB47
  8
0
 10
4376.1754457912438738
 20
197.0189847521600939
 30
0.0
 40
0.5719549756247169
 50
287.083217113109697
 51
302.7348696428309722
  0
ARC
  5
BB48
  8
0
 10
4376.3986127075895638
 20
196.6718314652987942
 30
0.0
 40
0.1592578989086657
 50
302.7348696428326775
 51
327.0415489890781942
  0
ARC
  5
BB49
  8
0
 10
4376.4817002561439949
 20
196.6179594026054929
 30
0.0
 40
0.0602339630978468
 50
327.0415489890795016
 51
358.1841198118901275
  0
LINE
  5
BB4A
  8
0
 10
4376.541903970716703
 20
196.6160507218733073
 30
0.0
 11
4376.5396617899168632
 21
196.7385958911733042
 31
0.0
  0
ARC
  5
BB4B
  8
0
 10
4376.4473387609314159
 20
196.7364286899857859
 30
0.0
 40
0.0923484620452006
 50
1.344720626372119
 51
27.5785876146852793
  0
ARC
  5
BB4C
  8
0
 10
4376.3982240045606886
 20
196.7107754828410862
 30
0.0
 40
0.1477591679606261
 50
27.5785876146852793
 51
47.4158055817198232
  0
ARC
  5
BB4D
  8
0
 10
4376.2958759336106596
 20
196.5994111494279935
 30
0.0
 40
0.2990110849191916
 50
47.4158055817198232
 51
58.2009347306694735
  0
ARC
  5
BB4E
  8
0
 10
4376.2271174357074415
 20
196.4885110052173047
 30
0.0
 40
0.4294969961125736
 50
58.2009347306694735
 51
61.316696083530509
  0
ARC
  5
BB4F
  8
0
 10
4376.6297349587366625
 20
196.6203115748513994
 30
0.0
 40
0.0880432361466369
 50
183.5139198235372078
 51
214.4421231763865023
  0
ARC
  5
BB50
  8
0
 10
4376.6163912468982744
 20
196.6111605279473054
 30
0.0
 40
0.0718631154704718
 50
214.4421231763851949
 51
240.6202952272041955
  0
ARC
  5
BB51
  8
0
 10
4376.5863619455376465
 20
196.5601969050781861
 30
0.0
 40
0.0127750152554868
 50
245.8510313517585075
 51
270.1497252926408805
  0
ARC
  5
BB52
  8
0
 10
4375.752801444376928
 20
195.9581085737382011
 30
0.0
 40
0.8099676543117126
 50
86.9263279330737788
 51
89.5368773224531793
  0
ARC
  5
BB53
  8
0
 10
4375.7602213624068099
 20
196.0521738367488069
 30
0.0
 40
0.7156437658099281
 50
79.913204170450399
 51
87.1157120104267051
  0
ARC
  5
BB54
  8
0
 10
4375.8253276207387898
 20
196.3883711947291886
 30
0.0
 40
0.3732765982438451
 50
67.1547847431647114
 51
80.71422383829983
  0
ARC
  5
BB55
  8
0
 10
4375.9195337193777959
 20
196.6119845091324123
 30
0.0
 40
0.1306293163731253
 50
40.8076472809890802
 51
67.1547847431653508
  0
LINE
  5
BB56
  8
0
 10
4375.7593483542423201
 20
196.7680497685186936
 30
0.0
 11
4375.7612075944171011
 21
197.02793737567319
 31
0.0
  0
ARC
  5
BB57
  8
0
 10
4375.7811545202457637
 20
197.0277946750410081
 30
0.0
 40
0.0199474362640403
 50
143.166119900555401
 51
179.5901120528463082
  0
ARC
  5
BB58
  8
0
 10
4375.7796724289783015
 20
197.0285880611376115
 30
0.0
 40
0.0182873290240065
 50
89.4204288780483552
 51
142.3718531931467908
  0
ARC
  5
BB59
  8
0
 10
4375.7544031220522811
 20
194.9438678039992112
 30
0.0
 40
2.1031606912286551
 50
84.2471346194522965
 51
89.3065394962996635
  0
ARC
  5
BB5A
  8
0
 10
4375.8445799188002638
 20
195.6773271827088081
 30
0.0
 40
1.3644524509076701
 50
72.5910339587109803
 51
84.9275119450677352
  0
ARC
  5
BB5B
  8
0
 10
4376.1042725176776003
 20
196.5055530600023133
 30
0.0
 40
0.4964672265346375
 50
53.8162007398325315
 51
72.5910339587109803
  0
ARC
  5
BB5C
  8
0
 10
4376.2985993459378733
 20
196.7835279948853042
 30
0.0
 40
0.1575474256740353
 50
31.2684418830169406
 51
51.1736671158969401
  0
ARC
  5
BB5D
  8
0
 10
4376.3535705574768144
 20
196.8175439895009902
 30
0.0
 40
0.0929067007251719
 50
1.168133202518743
 51
30.9340167488634101
  0
LINE
  5
BB5E
  8
0
 10
4376.4464579500172476
 20
196.8194380187732122
 30
0.0
 11
4376.4471144645076492
 21
196.7479037365033037
 31
0.0
  0
LINE
  5
BB5F
  8
0
 10
4376.4471144645076492
 20
196.7479037365033037
 30
0.0
 11
4376.4476106797173998
 21
196.6938262800732957
 31
0.0
  0
ARC
  5
BB60
  8
0
 10
4375.766387929155826
 20
196.8687829018685136
 30
0.0
 40
0.0069694024425839
 50
204.5444948074595004
 51
246.8168760825367087
  0
ARC
  5
BB61
  8
0
 10
4375.7744986161851557
 20
196.8877219567796999
 30
0.0
 40
0.027572097533491
 50
246.8168760825367087
 51
259.6078698013631083
  0
ARC
  5
BB62
  8
0
 10
4375.7784569958375869
 20
196.9093061683113035
 30
0.0
 40
0.0495162757344164
 50
259.6078698013631083
 51
268.8147512758537232
  0
ARC
  5
BB63
  8
0
 10
4375.7599493384723246
 20
196.0147602649670091
 30
0.0
 40
0.8452210636961059
 50
85.7130569385323753
 51
88.8147512758537658
  0
ARC
  5
BB64
  8
0
 10
4375.7658230449924304
 20
196.0931168814288981
 30
0.0
 40
0.7666446055700148
 50
78.3488709309376077
 51
85.7130569385323753
  0
ARC
  5
BB65
  8
0
 10
4375.8430839956481577
 20
196.4678050601430925
 30
0.0
 40
0.3840737157150298
 50
64.4686697761783307
 51
78.3488709309376077
  0
ARC
  5
BB66
  8
0
 10
4375.9694387660329085
 20
196.7323409824386999
 30
0.0
 40
0.0909103104548535
 50
36.4375916965364866
 51
64.4686697761783307
  0
ARC
  5
BB67
  8
0
 10
4376.0205914258040139
 20
196.7701058044920899
 30
0.0
 40
0.0273274795460743
 50
8.3429180258089062
 51
36.437591696531257
  0
ARC
  5
BB68
  8
0
 10
4376.0257275352087163
 20
196.77085901138949
 30
0.0
 40
0.022136435291267
 50
325.6033200101796865
 51
8.3429180258137414
  0
ARC
  5
BB69
  8
0
 10
4375.9915372945488343
 20
196.800769117014795
 30
0.0
 40
0.0674588926286593
 50
302.0315708044387861
 51
321.0413585286464127
  0
ARC
  5
BB6A
  8
0
 10
4376.0383175676397514
 20
196.7273176576937885
 30
0.0
 40
0.019634148252867
 50
124.0764622237270061
 51
179.8745385065722928
  0
LINE
  5
BB6B
  8
0
 10
4376.0186834664591515
 20
196.7273606508707928
 30
0.0
 11
4376.0184080726448883
 21
196.6973535934789936
 31
0.0
  0
LINE
  5
BB6C
  8
0
 10
4376.0184080726448883
 20
196.6973535934789936
 30
0.0
 11
4376.0178631344169844
 21
196.6379768324732993
 31
0.0
  0
ARC
  5
BB6D
  8
0
 10
4376.0093378389774443
 20
196.6208548400989002
 30
0.0
 40
0.0172953812052577
 50
89.023090139103175
 51
113.7973168369684061
  0
ARC
  5
BB6E
  8
0
 10
4375.9907076762819997
 20
195.5285253945091881
 30
0.0
 40
1.1097836880827909
 50
88.597881331030095
 51
89.0228929508386102
  0
ARC
  5
BB6F
  8
0
 10
4376.0609045791679819
 20
198.3964590866956996
 30
0.0
 40
1.7590089617880531
 50
268.5978813310301234
 51
269.401518030158627
  0
ARC
  5
BB70
  8
0
 10
4375.7934583425003439
 20
174.3634336517569068
 30
0.0
 40
22.2755049772095397
 50
88.640143386162066
 51
89.3593356467787032
  0
ARC
  5
BB71
  8
0
 10
4376.3219751832139082
 20
196.6131946468292995
 30
0.0
 40
0.0194707316625731
 50
16.3246793470307097
 51
89.6474377438402286
  0
ARC
  5
BB72
  8
0
 10
4376.3781829404542805
 20
196.725812579327112
 30
0.0
 40
0.0824767050056292
 50
18.1097326883412784
 51
33.5760809816957888
  0
ARC
  5
BB73
  8
0
 10
4376.3926539286421757
 20
196.7305451482467902
 30
0.0
 40
0.067251505246778
 50
347.4346385617660076
 51
18.1097326883428309
  0
ARC
  5
BB74
  8
0
 10
4376.3906072038398634
 20
196.7350267383804123
 30
0.0
 40
0.0703340175648802
 50
324.1416889235341046
 51
344.2323320919641105
  0
ARC
  5
BB75
  8
0
 10
4376.273798852006621
 20
196.8348810578746964
 30
0.0
 40
0.2238459331609392
 50
294.8032665137924937
 51
320.9393824536945203
  0
ARC
  5
BB76
  8
0
 10
4376.1811343985173153
 20
196.9846833681681062
 30
0.0
 40
0.399269765835017
 50
293.5497845549907083
 51
297.8575397413529799
  0
ARC
  5
BB77
  8
0
 10
4375.9063827933623543
 20
197.6782654971104023
 30
0.0
 40
1.1451399307574961
 50
275.1793710084867257
 51
292.2863591322554839
  0
ARC
  5
BB78
  8
0
 10
4375.7509698814419608
 20
198.9822451659402134
 30
0.0
 40
2.458104582830027
 50
270.0135734691144194
 51
276.0432996747433094
  0
ARC
  5
BB79
  8
0
 10
4376.0367512638131302
 20
196.7291910709982972
 30
0.0
 40
0.0172401328203411
 50
91.8790040587130932
 51
120.0840620555698024
  0
ARC
  5
BB7A
  8
0
 10
32.2567233105455671
 20
-263877.7738315527094528
 30
0.0
 40
264110.2433968234108761
 50
89.057555239888174
 51
89.057622874433946
  0
ARC
  5
BB7B
  8
0
 10
4376.2614834306777993
 20
196.9025712124179108
 30
0.0
 40
0.1829757407151418
 50
298.1868060947770118
 51
326.0477263887381127
  0
ARC
  5
BB7C
  8
0
 10
4376.3555067055631298
 20
196.8369543384224869
 30
0.0
 40
0.0683628687702982
 50
327.6547660366417745
 51
22.2739958367145512
  0
ARC
  5
BB7D
  8
0
 10
4376.3075046210760775
 20
196.8126136424367019
 30
0.0
 40
0.1220859378579574
 50
24.3064789928086995
 51
51.4817861047417722
  0
ARC
  5
BB7E
  8
0
 10
4375.8772942229761611
 20
196.2160116954231057
 30
0.0
 40
0.8575048519718306
 50
53.8170695604997391
 51
60.3075029501724913
  0
ARC
  5
BB7F
  8
0
 10
4376.3441671844866505
 20
196.7180319956173946
 30
0.0
 40
0.0235615959496669
 50
3.6645742262057048
 51
80.8557177309660062
  0
LINE
  5
BB80
  8
0
 10
4376.3676806046905767
 20
196.719537941815986
 30
0.0
 11
4376.367703079517014
 21
196.6316841143732006
 31
0.0
  0
ARC
  5
BB81
  8
0
 10
4376.2377568462688942
 20
196.9409748989405955
 30
0.0
 40
0.2567382109918539
 50
300.4014373508568951
 51
315.141134106181994
  0
ARC
  5
BB82
  8
0
 10
4376.3506549055709911
 20
196.8286316674598027
 30
0.0
 40
0.0974680836804505
 50
315.141134106181994
 51
341.2941122857358778
  0
ARC
  5
BB83
  8
0
 10
4376.3772879664165885
 20
196.8196138232407861
 30
0.0
 40
0.0693497365679654
 50
341.2941122857358778
 51
356.3480050098431775
  0
ARC
  5
BB84
  8
0
 10
4376.355210368013104
 20
196.6595562791673899
 30
0.0
 40
0.1074948613879154
 50
24.0268927377987502
 51
30.9309103134063683
  0
ARC
  5
BB85
  8
0
 10
4376.4503934936255973
 20
196.7399078803973964
 30
0.0
 40
0.0895147999349426
 50
326.9811078289611146
 51
356.4731155244991214
  0
ARC
  5
BB86
  8
0
 10
4376.3401642122180419
 20
196.8239424332302008
 30
0.0
 40
0.2279699781392007
 50
297.5458307738098256
 51
324.3672292903473817
  0
ARC
  5
BB87
  8
0
 10
4375.9515680957792938
 20
197.6389764464971961
 30
0.0
 40
1.1307856017201521
 50
275.9930900011814856
 51
295.9052655108230852
  0
ARC
  5
BB88
  8
0
 10
4375.7561823892610846
 20
198.878713929061405
 30
0.0
 40
2.385029817737998
 50
270.5069930421653908
 51
277.5518681876206983
  0
ARC
  5
BB89
  8
0
 10
4375.7478812200597531
 20
198.8803441990496026
 30
0.0
 40
2.3867478621055138
 50
270.0881250818899275
 51
270.7059155074903174
  0
ARC
  5
BB8A
  8
0
 10
4375.7502869110012398
 20
197.447894793171514
 30
0.0
 40
0.8513628134046616
 50
270.0851533045179167
 51
273.3376782873514799
  0
ARC
  5
BB8B
  8
0
 10
4375.7571036364715837
 20
197.4940757544171106
 30
0.0
 40
0.8971188027562474
 50
272.7313290768091747
 51
277.51389778292031
  0
ARC
  5
BB8C
  8
0
 10
4375.7906591600831234
 20
197.2498990001456036
 30
0.0
 40
0.6506521822349929
 50
277.3961447014693817
 51
283.908269057332916
  0
ARC
  5
BB8D
  8
0
 10
4375.8464934051953605
 20
197.0204228676842888
 30
0.0
 40
0.4144842183602039
 50
284.0411761997914937
 51
289.0930230529369283
  0
ARC
  5
BB8E
  8
0
 10
4375.890190773946415
 20
196.8933907921081072
 30
0.0
 40
0.2801469227555777
 50
289.1459998843723156
 51
293.6026307057350095
  0
LINE
  5
BB8F
  8
0
 10
4374.9612004505988807
 20
196.6160507218733073
 30
0.0
 11
4374.96344263139963
 21
196.7385958911733042
 31
0.0
  0
ARC
  5
BB90
  8
0
 10
4375.0557656603859868
 20
196.7364286899857859
 30
0.0
 40
0.0923484620452006
 50
152.42141238531471
 51
178.6552793736279057
  0
ARC
  5
BB91
  8
0
 10
4375.1048804167548951
 20
196.7107754828410862
 30
0.0
 40
0.1477591679606261
 50
132.584194418280191
 51
152.42141238531471
  0
ARC
  5
BB92
  8
0
 10
4375.2072284877049242
 20
196.5994111494279935
 30
0.0
 40
0.2990110849191916
 50
121.799065269330498
 51
132.584194418280191
  0
ARC
  5
BB93
  8
0
 10
4375.2759869856090518
 20
196.4885110052173047
 30
0.0
 40
0.4294969961125736
 50
118.6833039164694981
 51
121.799065269330498
  0
ARC
  5
BB94
  8
0
 10
4375.7503029769377463
 20
195.9581085737382011
 30
0.0
 40
0.8099676543117126
 50
90.4631226775468207
 51
93.073672066926207
  0
ARC
  5
BB95
  8
0
 10
4375.7428830589105928
 20
196.0521738367488069
 30
0.0
 40
0.7156437658099281
 50
92.8842879895732665
 51
100.086795829549601
  0
ARC
  5
BB96
  8
0
 10
4375.6777768005777034
 20
196.3883711947291886
 30
0.0
 40
0.3732765982438451
 50
99.2857761617001557
 51
112.8452152568353029
  0
ARC
  5
BB97
  8
0
 10
4375.5835707019377878
 20
196.6119845091324123
 30
0.0
 40
0.1306293163731253
 50
112.8452152568346065
 51
139.1923527190108985
  0
LINE
  5
BB98
  8
0
 10
4375.7437560670741732
 20
196.7680497685186936
 30
0.0
 11
4375.7418968269003017
 21
197.02793737567319
 31
0.0
  0
ARC
  5
BB99
  8
0
 10
4375.7219499010707295
 20
197.0277946750410081
 30
0.0
 40
0.0199474362640403
 50
0.4098879471520592
 51
36.8338800994446132
  0
ARC
  5
BB9A
  8
0
 10
4375.7234319923381918
 20
197.0285880611376115
 30
0.0
 40
0.0182873290240065
 50
37.6281468068531382
 51
90.5795711219516448
  0
ARC
  5
BB9B
  8
0
 10
4375.7487012992642121
 20
194.9438678039992112
 30
0.0
 40
2.1031606912286551
 50
90.6934605037003649
 51
95.752865380547874
  0
ARC
  5
BB9C
  8
0
 10
4375.6585245025162294
 20
195.6773271827088081
 30
0.0
 40
1.3644524509076701
 50
95.0724880549322791
 51
107.4089660412895029
  0
ARC
  5
BB9D
  8
0
 10
4375.3988319036398025
 20
196.5055530600023133
 30
0.0
 40
0.4964672265346375
 50
107.4089660412895029
 51
126.183799260167504
  0
ARC
  5
BB9E
  8
0
 10
4375.2045050753777105
 20
196.7835279948853042
 30
0.0
 40
0.1575474256740353
 50
128.8263328841030955
 51
148.7315581169829954
  0
ARC
  5
BB9F
  8
0
 10
4375.1495338638387693
 20
196.8175439895009902
 30
0.0
 40
0.0929067007251719
 50
149.0659832511366005
 51
178.8318667974812115
  0
LINE
  5
BBA0
  8
0
 10
4375.0566464713001551
 20
196.8194380187732122
 30
0.0
 11
4375.0559899568079345
 21
196.7479037365033037
 31
0.0
  0
LINE
  5
BBA1
  8
0
 10
4375.0559899568079345
 20
196.7479037365033037
 30
0.0
 11
4375.055493741600003
 21
196.6938262800732957
 31
0.0
  0
ARC
  5
BBA2
  8
0
 10
4375.7367164921606673
 20
196.8687829018685136
 30
0.0
 40
0.0069694024425839
 50
293.1831239174626944
 51
335.4555051925403859
  0
ARC
  5
BBA3
  8
0
 10
4375.7286058051313375
 20
196.8877219567796999
 30
0.0
 40
0.027572097533491
 50
280.3921301986368917
 51
293.1831239174626944
  0
ARC
  5
BBA4
  8
0
 10
4375.7246474254789064
 20
196.9093061683113035
 30
0.0
 40
0.0495162757344164
 50
271.1852487241462768
 51
280.3921301986368917
  0
ARC
  5
BBA5
  8
0
 10
4375.7431550828459876
 20
196.0147602649670091
 30
0.0
 40
0.8452210636961059
 50
91.1852487241462342
 51
94.2869430614676105
  0
ARC
  5
BBA6
  8
0
 10
4375.7372813763240629
 20
196.0931168814288981
 30
0.0
 40
0.7666446055700148
 50
94.2869430614676105
 51
101.6511290690624065
  0
ARC
  5
BBA7
  8
0
 10
4375.660020425669245
 20
196.4678050601430925
 30
0.0
 40
0.3840737157150298
 50
101.6511290690624065
 51
115.5313302238215982
  0
ARC
  5
BBA8
  8
0
 10
4375.5336656552854038
 20
196.7323409824386999
 30
0.0
 40
0.0909103104548535
 50
115.5313302238215982
 51
143.5624083034635134
  0
ARC
  5
BBA9
  8
0
 10
4375.4825129955133889
 20
196.7701058044920899
 30
0.0
 40
0.0273274795460743
 50
143.5624083034687999
 51
171.6570819741911009
  0
ARC
  5
BBAA
  8
0
 10
4375.477376886107777
 20
196.77085901138949
 30
0.0
 40
0.022136435291267
 50
171.6570819741862124
 51
214.3966799898203135
  0
ARC
  5
BBAB
  8
0
 10
4375.5115671267685684
 20
196.800769117014795
 30
0.0
 40
0.0674588926286593
 50
218.958641471353701
 51
237.9684291955611002
  0
ARC
  5
BBAC
  8
0
 10
4375.4647868536749229
 20
196.7273176576937885
 30
0.0
 40
0.019634148252867
 50
0.1254614934276929
 51
55.9235377762730295
  0
LINE
  5
BBAD
  8
0
 10
4375.4844209548573417
 20
196.7273606508707928
 30
0.0
 11
4375.4846963486716049
 21
196.6973535934789936
 31
0.0
  0
LINE
  5
BBAE
  8
0
 10
4375.4846963486716049
 20
196.6973535934789936
 30
0.0
 11
4375.4852412869004183
 21
196.6379768324732993
 31
0.0
  0
ARC
  5
BBAF
  8
0
 10
4375.4937665823390489
 20
196.6208548400989002
 30
0.0
 40
0.0172953812052577
 50
66.2026831630315797
 51
90.9769098608967965
  0
ARC
  5
BBB0
  8
0
 10
4375.512396745033584
 20
195.5285253945091881
 30
0.0
 40
1.1097836880827909
 50
90.9771070491613756
 51
91.402118668969905
  0
ARC
  5
BBB1
  8
0
 10
4375.4421998421476019
 20
198.3964590866956996
 30
0.0
 40
1.7590089617880531
 50
270.598481969841373
 51
271.4021186689698766
  0
ARC
  5
BBB2
  8
0
 10
4375.7096460788161494
 20
174.3634336517569068
 30
0.0
 40
22.2755049772095397
 50
90.6406643532212826
 51
91.359856613890031
  0
ARC
  5
BBB3
  8
0
 10
4375.1811292381025851
 20
196.6131946468292995
 30
0.0
 40
0.0194707316625731
 50
90.3525622561597572
 51
163.6753206529693045
  0
ARC
  5
BBB4
  8
0
 10
4375.1249214808622128
 20
196.725812579327112
 30
0.0
 40
0.0824767050056292
 50
146.4239190183041899
 51
161.8902673116587039
  0
ARC
  5
BBB5
  8
0
 10
4375.110450492675227
 20
196.7305451482467902
 30
0.0
 40
0.067251505246778
 50
161.8902673116571123
 51
192.5653614382324008
  0
ARC
  5
BBB6
  8
0
 10
4375.1124972174784489
 20
196.7350267383804123
 30
0.0
 40
0.0703340175648802
 50
195.7676679080342979
 51
215.858311076464588
  0
ARC
  5
BBB7
  8
0
 10
4375.2293055693107817
 20
196.8348810578746964
 30
0.0
 40
0.2238459331609392
 50
219.0606175463055081
 51
245.1967334862075063
  0
ARC
  5
BBB8
  8
0
 10
4375.3219700228000875
 20
196.9846833681681062
 30
0.0
 40
0.399269765835017
 50
242.1424602586469916
 51
246.4502154450092917
  0
ARC
  5
BBB9
  8
0
 10
4375.5967216279532295
 20
197.6782654971104023
 30
0.0
 40
1.1451399307574961
 50
247.7136408676963129
 51
264.8206289915132743
  0
ARC
  5
BBBA
  8
0
 10
4375.752134539873623
 20
198.9822451659402134
 30
0.0
 40
2.458104582830027
 50
263.9567003252566906
 51
269.9864265308335121
  0
ARC
  5
BBBB
  8
0
 10
4375.466353157503363
 20
196.7291910709982972
 30
0.0
 40
0.0172401328203411
 50
59.9159379444302331
 51
88.1209959412869068
  0
ARC
  5
BBBC
  8
0
 10
8719.2463811107681977
 20
-263877.7738315527094528
 30
0.0
 40
264110.2433968234108761
 50
90.9423771255660682
 51
90.942444760111826
  0
ARC
  5
BBBD
  8
0
 10
4375.2416209906377844
 20
196.9025712124179108
 30
0.0
 40
0.1829757407151418
 50
213.9522736112618873
 51
241.8131939052229882
  0
ARC
  5
BBBE
  8
0
 10
4375.147597715752454
 20
196.8369543384224869
 30
0.0
 40
0.0683628687702982
 50
157.7260041632854097
 51
212.3452339633568045
  0
ARC
  5
BBBF
  8
0
 10
4375.1955998002422348
 20
196.8126136424367019
 30
0.0
 40
0.1220859378579574
 50
128.5182138952582136
 51
155.6935210071912934
  0
ARC
  5
BBC0
  8
0
 10
4375.6258101983394226
 20
196.2160116954231057
 30
0.0
 40
0.8575048519718306
 50
119.6924970498274945
 51
126.1829304395001969
  0
ARC
  5
BBC1
  8
0
 10
4375.1589372368298427
 20
196.7180319956173946
 30
0.0
 40
0.0235615959496669
 50
99.1442822690339796
 51
176.3354257737942987
  0
LINE
  5
BBC2
  8
0
 10
4375.135423816625007
 20
196.719537941815986
 30
0.0
 11
4375.1354013418003888
 21
196.6316841143732006
 31
0.0
  0
ARC
  5
BBC3
  8
0
 10
4375.2653475750466896
 20
196.9409748989405955
 30
0.0
 40
0.2567382109918539
 50
224.858865893818006
 51
239.5985626491431049
  0
ARC
  5
BBC4
  8
0
 10
4375.1524495157436832
 20
196.8286316674598027
 30
0.0
 40
0.0974680836804505
 50
198.7058877142625875
 51
224.858865893818006
  0
ARC
  5
BBC5
  8
0
 10
4375.1258164548989953
 20
196.8196138232407861
 30
0.0
 40
0.0693497365679654
 50
183.6519949901550888
 51
198.7058877142625875
  0
ARC
  5
BBC6
  8
0
 10
4375.1478940533033892
 20
196.6595562791673899
 30
0.0
 40
0.1074948613879154
 50
149.0690896865935997
 51
155.9731072622012107
  0
ARC
  5
BBC7
  8
0
 10
4375.0502423595053187
 20
196.7387227087278916
 30
0.0
 40
0.0867998207479644
 50
180.0837111548634084
 51
213.2508523839998986
  0
ARC
  5
BBC8
  8
0
 10
4375.1629402090984513
 20
196.8239424332302008
 30
0.0
 40
0.2279699781392007
 50
215.6327707096525899
 51
242.4541692261902028
  0
ARC
  5
BBC9
  8
0
 10
4375.5515363255371994
 20
197.6389764464971961
 30
0.0
 40
1.1307856017201521
 50
244.0947344891768012
 51
264.0069099988185144
  0
ARC
  5
BBCA
  8
0
 10
4375.7469220320563181
 20
198.878713929061405
 30
0.0
 40
2.385029817737998
 50
262.448131812379188
 51
269.4930069578346092
  0
ARC
  5
BBCB
  8
0
 10
4375.7552232012549212
 20
198.8803441990496026
 30
0.0
 40
2.3867478621055138
 50
269.2940844925096258
 51
269.9118749181100725
  0
ARC
  5
BBCC
  8
0
 10
4375.752817510316163
 20
197.447894793171514
 30
0.0
 40
0.8513628134046616
 50
266.6623217126485201
 51
269.9148466954820833
  0
ARC
  5
BBCD
  8
0
 10
4375.7460007848449095
 20
197.4940757544171106
 30
0.0
 40
0.8971188027562474
 50
262.48610221707969
 51
267.2686709231907116
  0
ARC
  5
BBCE
  8
0
 10
4375.7124452612342793
 20
197.2498990001456036
 30
0.0
 40
0.6506521822349929
 50
256.091730942667084
 51
262.6038552985306183
  0
ARC
  5
BBCF
  8
0
 10
4375.6566110161211327
 20
197.0204228676842888
 30
0.0
 40
0.4144842183602039
 50
250.9069769470631002
 51
255.9588238002085063
  0
ARC
  5
BBD0
  8
0
 10
4375.6129136473709877
 20
196.8933907921081072
 30
0.0
 40
0.2801469227555777
 50
246.3973692942649905
 51
250.8540001156277128
  0
ARC
  5
BBD1
  8
0
 10
4375.4615454457170927
 20
197.0100684980731955
 30
0.0
 40
0.0196850394000661
 50
90.0000000000521254
 51
127.5122614873702958
  0
LINE
  5
BBD2
  8
0
 10
4375.4615454457170927
 20
197.0297535374733116
 30
0.0
 11
4375.4777665269612044
 21
197.0297535374733116
 31
0.0
  0
ARC
  5
BBD3
  8
0
 10
4375.1663783224648796
 20
194.3877734257972065
 30
0.0
 40
2.1741030133407619
 50
96.492135440943656
 51
98.5800191466278335
  0
ARC
  5
BBD4
  8
0
 10
4374.8397786795931097
 20
199.4793997295514032
 30
0.0
 40
2.8353388737462031
 50
271.161627231008822
 51
272.4657471282727101
  0
LINE
  5
BBD5
  8
0
 10
4374.044044762118574
 20
196.6718517125052017
 30
0.0
 11
4374.9622214285018345
 21
196.6718517125052017
 31
0.0
  0
LINE
  5
BBD6
  8
0
 10
4375.7421762211206442
 20
196.9888831983853095
 30
0.0
 11
4375.7609282047542365
 21
196.9888838354389122
 31
0.0
  0
ARC
  5
BBD7
  8
0
 10
4373.1572892744343335
 20
180.5127143853360963
 30
0.0
 40
0.3937028462232623
 50
180.0
 51
0.1996504562172066
  0
ARC
  5
BBD8
  8
0
 10
4373.1572892870981377
 20
180.5127143727387136
 30
0.0
 40
0.4351021209479278
 50
154.8033061415821976
 51
25.1974410037898586
  0
ARC
  5
BBD9
  8
0
 10
4373.1572872408951298
 20
180.5127135728050973
 30
0.0
 40
0.7185039370000004
 50
123.226159369179797
 51
56.7738406308201604
  0
ARC
  5
BBDA
  8
0
 10
4373.1572872408951298
 20
180.5127135728050973
 30
0.0
 40
5.0019685038999988
 50
94.5143729166205588
 51
85.485607815519586
  0
CIRCLE
  5
BBDB
  8
0
 10
4368.5096494455938227
 20
180.5127135728050973
 30
0.0
 40
0.1653543306999978
  0
CIRCLE
  5
BBDC
  8
0
 10
4368.5096494455938227
 20
180.5127135728050973
 30
0.0
 40
0.1181102362000033
  0
CIRCLE
  5
BBDD
  8
0
 10
4370.8324840912937361
 20
184.535981196705194
 30
0.0
 40
0.1653543306999978
  0
CIRCLE
  5
BBDE
  8
0
 10
4370.8324840912937361
 20
184.535981196705194
 30
0.0
 40
0.1181102362000033
  0
CIRCLE
  5
BBDF
  8
0
 10
4375.4781533825953375
 20
184.535981196705194
 30
0.0
 40
0.1653543306999978
  0
CIRCLE
  5
BBE0
  8
0
 10
4375.4781533825953375
 20
184.535981196705194
 30
0.0
 40
0.1181102362000033
  0
CIRCLE
  5
BBE1
  8
0
 10
4377.8009880282952508
 20
180.5127135728050973
 30
0.0
 40
0.1653543306999978
  0
CIRCLE
  5
BBE2
  8
0
 10
4377.8009880282952508
 20
180.5127135728050973
 30
0.0
 40
0.1181102362000033
  0
CIRCLE
  5
BBE3
  8
0
 10
4375.4781533825953375
 20
176.4894459489051997
 30
0.0
 40
0.1653543306999978
  0
CIRCLE
  5
BBE4
  8
0
 10
4375.4781533825953375
 20
176.4894459489051997
 30
0.0
 40
0.1181102362000033
  0
CIRCLE
  5
BBE5
  8
0
 10
4370.8324840912937361
 20
176.4894459489051997
 30
0.0
 40
0.1653543306999978
  0
CIRCLE
  5
BBE6
  8
0
 10
4370.8324840912937361
 20
176.4894459489051997
 30
0.0
 40
0.1181102362000033
  0
ARC
  5
BBE7
  8
0
 10
4373.1572872408951298
 20
180.5127135728050973
 30
0.0
 40
0.5039370078999998
 50
141.3751671229530871
 51
38.624832877046849
  0
ARC
  5
BBE8
  8
0
 10
4373.1572872408951298
 20
180.5127135728050973
 30
0.0
 40
0.4960629920999997
 50
142.5280048208059895
 51
37.4719951791939465
  0
LINE
  5
BBE9
  8
0
 10
4369.4321918484947673
 20
199.5683420398052021
 30
0.0
 11
4369.4291337519625813
 21
199.3090074421502038
 31
0.0
  0
ARC
  5
BBEA
  8
0
 10
4369.4701500646424392
 20
199.3085237741603066
 30
0.0
 40
0.0410191643074256
 50
179.3243944101257057
 51
221.9901990291818947
  0
LINE
  5
BBEB
  8
0
 10
4369.4396621902951665
 20
199.2810818107051034
 30
0.0
 11
4369.4992063339950619
 21
199.1837602530050901
 31
0.0
  0
ARC
  5
BBEC
  8
0
 10
4369.5240265532966077
 20
199.199327316116495
 30
0.0
 40
0.029298067174456
 50
212.095641189815808
 51
247.4233394355603934
  0
LINE
  5
BBED
  8
0
 10
4370.9768708222936766
 20
199.5683420398052021
 30
0.0
 11
4370.9799289188267721
 21
199.3090074421502038
 31
0.0
  0
ARC
  5
BBEE
  8
0
 10
4370.9389126061478237
 20
199.3085237741603066
 30
0.0
 40
0.0410191643074256
 50
318.0098009708181053
 51
0.6756055898742703
  0
LINE
  5
BBEF
  8
0
 10
4370.9694004804950964
 20
199.2810818107051034
 30
0.0
 11
4370.9098563367952011
 21
199.1837602530050901
 31
0.0
  0
ARC
  5
BBF0
  8
0
 10
4370.8850361174909267
 20
199.199327316116495
 30
0.0
 40
0.029298067174456
 50
292.5766605644395781
 51
327.904358810184192
  0
LINE
  5
BBF1
  8
0
 10
4373.1572872408951298
 20
199.5683420398052021
 30
0.0
 11
4373.1572872408951298
 21
199.1722280239052054
 31
0.0
  0
ARC
  5
BBF2
  8
0
 10
4373.1572872408951298
 20
180.510745069005111
 30
0.0
 40
4.9350393700000001
 50
94.5757265740670761
 51
85.4242538951009749
  0
LINE
  5
BBF3
  8
0
 10
4369.5645234613939465
 20
198.3258134570052107
 30
0.0
 11
4369.5645234613939465
 21
197.5699405793052108
 31
0.0
  0
LINE
  5
BBF4
  8
0
 10
4369.5645234613939465
 20
197.5699405793052108
 30
0.0
 11
4369.5842086115953862
 21
197.5502554255052132
 31
0.0
  0
LINE
  5
BBF5
  8
0
 10
4369.5842086115953862
 20
197.5502554255052132
 30
0.0
 11
4370.8243658701949244
 21
197.5502554255052132
 31
0.0
  0
LINE
  5
BBF6
  8
0
 10
4370.8243658701949244
 20
197.5502554255052132
 30
0.0
 11
4370.8440510203936356
 21
197.5699405793052108
 31
0.0
  0
LINE
  5
BBF7
  8
0
 10
4370.8440510203936356
 20
197.5699405793052108
 30
0.0
 11
4370.8440510203936356
 21
198.3258134570052107
 31
0.0
  0
LINE
  5
BBF8
  8
0
 10
4369.5645234613939465
 20
197.5699405793052108
 30
0.0
 11
4369.5944045792202814
 21
197.5699405793052108
 31
0.0
  0
LINE
  5
BBF9
  8
0
 10
4369.9120346591953421
 20
197.5699405793052108
 30
0.0
 11
4370.8440510203936356
 21
197.5699405793052108
 31
0.0
  0
LINE
  5
BBFA
  8
0
 10
4369.6311866933947385
 20
197.5502554255052132
 30
0.0
 11
4369.5944045792202814
 21
197.5699405793052108
 31
0.0
  0
LINE
  5
BBFB
  8
0
 10
4369.5944045792202814
 20
197.5699405793052108
 30
0.0
 11
4369.5944045792202814
 21
197.9636412523051945
 31
0.0
  0
LINE
  5
BBFC
  8
0
 10
4369.5944045792202814
 20
197.9636412523051945
 30
0.0
 11
4369.9120346591953421
 21
197.9636412523051945
 31
0.0
  0
LINE
  5
BBFD
  8
0
 10
4369.9120346591953421
 20
197.9636412523051945
 30
0.0
 11
4369.9120346591953421
 21
197.5699405793052108
 31
0.0
  0
LINE
  5
BBFE
  8
0
 10
4369.9120346591953421
 20
197.5699405793052108
 30
0.0
 11
4369.8752556338949944
 21
197.5502554255052132
 31
0.0
  0
ARC
  5
BBFF
  8
0
 10
4369.7096700415349915
 20
197.8231423818349981
 30
0.0
 40
0.1817347866657278
 50
96.0838957788828907
 51
129.3670575344135898
  0
ARC
  5
BC00
  8
0
 10
4369.7162587884986351
 20
197.6050245371191068
 30
0.0
 40
0.399665901448958
 50
77.3799805193159642
 51
93.7083997750224142
  0
ARC
  5
BC01
  8
0
 10
4369.6416453843175987
 20
197.2325626586118972
 30
0.0
 40
0.7794782037038583
 50
69.7030959912063537
 51
78.0096588842665852
  0
LINE
  5
BC02
  8
0
 10
4369.6036871954966045
 20
197.4833262916052092
 30
0.0
 11
4372.6651612565938194
 21
197.4833262917051115
 31
0.0
  0
ARC
  5
BC03
  8
0
 10
4369.603687195499333
 20
197.4439262916052087
 30
0.0
 40
0.0394
 50
90.0000000018759465
 51
179.9999999999706972
  0
LINE
  5
BC04
  8
0
 10
4372.6651612565938194
 20
199.168365644805192
 30
0.0
 11
4372.6651612565938194
 21
197.2195759598052121
 31
0.0
  0
LINE
  5
BC05
  8
0
 10
4373.6494132250936673
 20
199.168365644805192
 30
0.0
 11
4373.6494132250936673
 21
197.2195759598052121
 31
0.0
  0
LINE
  5
BC06
  8
0
 10
4372.6651612565938194
 20
197.2195759598052121
 30
0.0
 11
4373.6494132250936673
 21
197.2195759598052121
 31
0.0
  0
LINE
  5
BC07
  8
0
 10
4372.8423266109948599
 20
197.2195759598052121
 30
0.0
 11
4372.8423266109948599
 21
196.8150350721031998
 31
0.0
  0
LINE
  5
BC08
  8
0
 10
4373.4722478707963091
 20
197.2195759598052121
 30
0.0
 11
4373.4722478707963091
 21
196.817013735706098
 31
0.0
  0
ARC
  5
BC09
  8
0
 10
4372.7946999052946921
 20
196.8154566045122067
 30
0.0
 40
0.0476285711032796
 50
311.902981108036613
 51
359.4929022129985015
  0
LINE
  5
BC0A
  8
0
 10
4369.5642871954978546
 20
197.4439262916052087
 30
0.0
 11
4369.5642871954978546
 21
197.1127102157331876
 31
0.0
  0
ARC
  5
BC0B
  8
0
 10
4369.3662674056613469
 20
197.1127102157333866
 30
0.0
 40
0.1980197898369587
 50
270.904262029882716
 51
359.9999999999690772
  0
LINE
  5
BC0C
  8
0
 10
4369.3693924934977986
 20
196.9147150870228984
 30
0.0
 11
4369.0396248160986943
 21
196.9146499539228898
 31
0.0
  0
ARC
  5
BC0D
  8
0
 10
4369.0396248168081001
 20
196.8752798733868872
 30
0.0
 40
0.0393700805359956
 50
90.000001032876412
 51
134.9999989439004935
  0
LINE
  5
BC0E
  8
0
 10
4369.0117859663987474
 20
196.9031187248228889
 30
0.0
 11
4368.9168484227911904
 21
196.8081811847152949
 31
0.0
  0
ARC
  5
BC0F
  8
0
 10
4368.9446866152129587
 20
196.7803427752029108
 30
0.0
 40
0.0393693027812295
 50
134.9997765957193963
 51
180.0006430863419098
  0
LINE
  5
BC10
  8
0
 10
4368.9053173124339082
 20
196.780342333322892
 30
0.0
 11
4368.9053173124339082
 21
195.1269712344461027
 31
0.0
  0
ARC
  5
BC11
  8
0
 10
4368.9387735987211272
 20
195.1269718258845103
 30
0.0
 40
0.0334562862920361
 50
180.0010128715370001
 51
228.0026339820306021
  0
LINE
  5
BC12
  8
0
 10
4368.9163881165977728
 20
195.1021079307228092
 30
0.0
 11
4369.01195982219906
 21
195.0035025347229123
 31
0.0
  0
ARC
  5
BC13
  8
0
 10
4369.0399131394988217
 20
195.0310268477340969
 30
0.0
 40
0.0392290499798301
 50
224.8411718491842919
 51
270.1004336733511764
  0
LINE
  5
BC14
  8
0
 10
4369.0399819039976137
 20
194.9917978580228919
 30
0.0
 11
4372.7635864282119655
 21
194.9918116692622903
 31
0.0
  0
ARC
  5
BC15
  8
0
 10
4372.5536604420040021
 20
196.1040177509520106
 30
0.0
 40
0.0353339454816068
 50
201.3640443406499116
 51
212.6227203628405107
  0
LINE
  5
BC16
  8
0
 10
4372.5239008262669813
 20
196.0849690508790957
 30
0.0
 11
4372.7634260901786547
 21
195.7042296627411986
 31
0.0
  0
LINE
  5
BC17
  8
0
 10
4373.5632279718520294
 20
196.7248807903110048
 30
0.0
 11
4373.7859971443285758
 21
196.3707795473540898
 31
0.0
  0
LINE
  5
BC18
  8
0
 10
4377.4092572160752752
 20
196.7978059869228957
 30
0.0
 11
4376.5176328110856048
 21
196.7978059869228957
 31
0.0
  0
LINE
  5
BC19
  8
0
 10
4374.9854716102308885
 20
196.7978059869228957
 30
0.0
 11
4373.6100431463946734
 21
196.7978059869228957
 31
0.0
  0
LINE
  5
BC1A
  8
0
 10
4372.7045313352937228
 20
196.7978059869228957
 30
0.0
 11
4370.2042871961994024
 21
196.7978059869228105
 31
0.0
  0
ARC
  5
BC1B
  8
0
 10
4370.2300964140049473
 20
197.2755740355293881
 30
0.0
 40
0.4784646528147169
 50
228.0988149973817087
 51
266.9078649551494209
  0
ARC
  5
BC1C
  8
0
 10
4410.5230372860851276
 20
269.3659823533271265
 30
0.0
 40
83.0534359529382442
 50
240.4514161050259986
 51
240.7256365780434066
  0
LINE
  5
BC1D
  8
0
 10
4369.0396248160986943
 20
196.9146499539228898
 30
0.0
 11
4369.0396248160986943
 21
194.9917988573199068
 31
0.0
  0
LINE
  5
BC1E
  8
0
 10
4369.0396248160986943
 20
195.6727629536227937
 30
0.0
 11
4372.7635864282119655
 21
195.6727629536227937
 31
0.0
  0
ARC
  5
BC1F
  8
0
 10
4369.0541839881343549
 20
195.7785378492806956
 30
0.0
 40
0.1067721782197071
 50
246.476063768087613
 51
262.1628834033746784
  0
LINE
  5
BC20
  8
0
 10
4369.0115677790081463
 20
195.680639142642292
 30
0.0
 11
4368.9163861972401719
 21
195.7155352020722887
 31
0.0
  0
ARC
  5
BC21
  8
0
 10
4368.9281507352061453
 20
195.737251739956605
 30
0.0
 40
0.0248229741990693
 50
203.0957786152856954
 51
241.7095090123918908
  0
LINE
  5
BC22
  8
0
 10
4371.0706730676938605
 20
197.5030113310052116
 30
0.0
 11
4371.0706730676938605
 21
197.4833262917051115
 31
0.0
  0
LINE
  5
BC23
  8
0
 10
4371.0706730676938605
 20
197.5030113310052116
 30
0.0
 11
4371.3068935400951887
 21
197.5030113310052116
 31
0.0
  0
LINE
  5
BC24
  8
0
 10
4371.3068935400951887
 20
197.5030113310052116
 30
0.0
 11
4371.3068935400951887
 21
197.4833262917051115
 31
0.0
  0
LINE
  5
BC25
  8
0
 10
4369.7830273983936422
 20
197.5502554255052132
 30
0.0
 11
4369.7830273983936422
 21
197.4833262917051115
 31
0.0
  0
LINE
  5
BC26
  8
0
 10
4370.6255470833948493
 20
197.5502554255052132
 30
0.0
 11
4370.6255470833948493
 21
197.4833262917051115
 31
0.0
  0
LINE
  5
BC27
  8
0
 10
4377.4686404147778376
 20
199.5683874729051865
 30
0.0
 11
4374.7514459282783719
 21
199.5683874729051865
 31
0.0
  0
LINE
  5
BC28
  8
0
 10
4374.7514459282783719
 20
199.5683874729051865
 30
0.0
 11
4374.7514464065779975
 21
199.3091301828052053
 31
0.0
  0
ARC
  5
BC29
  8
0
 10
4374.7908645557354248
 20
199.3091302555270943
 30
0.0
 40
0.0394181491573149
 50
180.0001057041480976
 51
225.399967576220007
  0
LINE
  5
BC2A
  8
0
 10
4374.7631869660772281
 20
199.2810635223050895
 30
0.0
 11
4374.8596158088330412
 21
199.1835876437440902
 31
0.0
  0
ARC
  5
BC2B
  8
0
 10
4374.8872002038851861
 20
199.211559872056597
 30
0.0
 40
0.0392854223241483
 50
225.399967576220007
 51
269.9651366421948069
  0
LINE
  5
BC2C
  8
0
 10
4374.8871762994767778
 20
199.1722744570051873
 30
0.0
 11
4377.3328966883782414
 21
199.1722744570051873
 31
0.0
  0
ARC
  5
BC2D
  8
0
 10
4377.332897471135766
 20
199.2116286437141923
 30
0.0
 40
0.0393541867167825
 50
269.9988603821136053
 51
314.5965551230152073
  0
LINE
  5
BC2E
  8
0
 10
4377.3605284486784512
 20
199.1836057764051873
 30
0.0
 11
4377.4569309861526563
 21
199.2810441748067944
 31
0.0
  0
ARC
  5
BC2F
  8
0
 10
4377.4293331851404218
 20
199.3090333950462991
 30
0.0
 40
0.0393069341268808
 50
314.5965551230128767
 51
0.1406827594018349
  0
LINE
  5
BC30
  8
0
 10
4377.4686400007776683
 20
199.3091299083052093
 30
0.0
 11
4377.4686404147778376
 21
199.5683874729051865
 31
0.0
  0
ARC
  5
BC31
  8
0
 10
4377.0669252268889977
 20
198.9752441167362065
 30
0.0
 40
0.1970303408914982
 50
90.0045546942375836
 51
178.9913297907856986
  0
LINE
  5
BC32
  8
0
 10
4376.8699254172779547
 20
198.9787125811052135
 30
0.0
 11
4376.8587707597944245
 21
198.3451568725776895
 31
0.0
  0
ARC
  5
BC33
  8
0
 10
4376.8390834341671507
 20
198.3455034961991998
 30
0.0
 40
0.0196903767929484
 50
270.3355148415186022
 51
358.991329790784107
  0
LINE
  5
BC34
  8
0
 10
4376.8391987371778669
 20
198.3258134570052107
 30
0.0
 11
4375.381559748852851
 21
198.3258134570052107
 31
0.0
  0
ARC
  5
BC35
  8
0
 10
4375.3809227045358057
 20
198.345523753845697
 30
0.0
 40
0.0197205889110937
 50
181.071591540855195
 51
271.8511770544769206
  0
LINE
  5
BC36
  8
0
 10
4375.3612055646035515
 20
198.3451549451052074
 30
0.0
 11
4375.3493551483707051
 21
198.9786982684300085
 31
0.0
  0
ARC
  5
BC37
  8
0
 10
4375.1520881566993921
 20
198.9750083929718869
 30
0.0
 40
0.1973014981803828
 50
1.0715915408568399
 51
88.9140997564197733
  0
LINE
  5
BC38
  8
0
 10
4377.45701498048129
 20
199.2811272438052015
 30
0.0
 11
4374.7631111446789873
 21
199.2811272438052015
 31
0.0
  0
LINE
  5
BC39
  8
0
 10
4376.8823826331936289
 20
199.5683420398052021
 30
0.0
 11
4376.8854407297267244
 21
199.3090074421502038
 31
0.0
  0
ARC
  5
BC3A
  8
0
 10
4376.8444244170477759
 20
199.3085237741603066
 30
0.0
 40
0.0410191643074256
 50
318.0098009708181053
 51
0.6756055898742703
  0
LINE
  5
BC3B
  8
0
 10
4376.8749122913950487
 20
199.2810818107051034
 30
0.0
 11
4376.8153681476951533
 21
199.1837602530050901
 31
0.0
  0
ARC
  5
BC3C
  8
0
 10
4376.7905479283917884
 20
199.199327316116495
 30
0.0
 40
0.029298067174456
 50
292.5766605644395781
 51
327.904358810184192
  0
LINE
  5
BC3D
  8
0
 10
4375.3377036593938101
 20
199.5683420398052021
 30
0.0
 11
4375.3346455628643525
 21
199.3090074421502038
 31
0.0
  0
ARC
  5
BC3E
  8
0
 10
4375.3756618755423915
 20
199.3085237741603066
 30
0.0
 40
0.0410191643074256
 50
179.3243944101257057
 51
221.9901990291818947
  0
LINE
  5
BC3F
  8
0
 10
4375.3451740011951188
 20
199.2810818107051034
 30
0.0
 11
4375.4047181448950141
 21
199.1837602530050901
 31
0.0
  0
ARC
  5
BC40
  8
0
 10
4375.42953836419656
 20
199.199327316116495
 30
0.0
 40
0.029298067174456
 50
212.095641189815808
 51
247.4233394355603934
  0
LINE
  5
BC41
  8
0
 10
4376.7500510202953592
 20
198.3258134570052107
 30
0.0
 11
4376.7500510202953592
 21
197.5699405793052108
 31
0.0
  0
LINE
  5
BC42
  8
0
 10
4376.7500510202953592
 20
197.5699405793052108
 30
0.0
 11
4376.7303658700939195
 21
197.5502554255052132
 31
0.0
  0
LINE
  5
BC43
  8
0
 10
4376.7303658700939195
 20
197.5502554255052132
 30
0.0
 11
4375.4902086114952908
 21
197.5502554255052132
 31
0.0
  0
LINE
  5
BC44
  8
0
 10
4375.4902086114952908
 20
197.5502554255052132
 30
0.0
 11
4375.4705234612938511
 21
197.5699405793052108
 31
0.0
  0
LINE
  5
BC45
  8
0
 10
4375.4705234612938511
 20
197.5699405793052108
 30
0.0
 11
4375.4705234612938511
 21
198.3258134570052107
 31
0.0
  0
LINE
  5
BC46
  8
0
 10
4376.7500510202953592
 20
197.5699405793052108
 30
0.0
 11
4376.7390532017952864
 21
197.5699405793052108
 31
0.0
  0
LINE
  5
BC47
  8
0
 10
4376.6368961284952093
 20
197.5699424828551116
 30
0.0
 11
4375.4705234612938511
 21
197.5699405793052108
 31
0.0
  0
LINE
  5
BC48
  8
0
 10
4376.7390532017952864
 20
197.963640820653012
 30
0.0
 11
4376.6368961284952093
 21
197.963643155855209
 31
0.0
  0
LINE
  5
BC49
  8
0
 10
4376.6368961284952093
 20
197.963643155855209
 30
0.0
 11
4376.6368961284952093
 21
197.5699424828551969
 31
0.0
  0
LINE
  5
BC4A
  8
0
 10
4376.531547083294754
 20
197.5502554255052132
 30
0.0
 11
4376.531547083294754
 21
197.4833262917051115
 31
0.0
  0
LINE
  5
BC4B
  8
0
 10
4375.6890273982953659
 20
197.5502554255052132
 30
0.0
 11
4375.6890273982953659
 21
197.4833262917051115
 31
0.0
  0
ARC
  5
BC4C
  8
0
 10
4377.015346834945376
 20
197.3002031192307015
 30
0.0
 40
0.7637899537663991
 50
115.989630238058993
 51
119.702103149043694
  0
ARC
  5
BC4D
  8
0
 10
4376.8071037903973775
 20
197.7273608311568012
 30
0.0
 40
0.2885753954238149
 50
108.5374028663429016
 51
115.989630238058993
  0
ARC
  5
BC4E
  8
0
 10
4376.7386958218503423
 20
197.9313680183674933
 30
0.0
 40
0.0734043411568829
 50
89.5903021707748621
 51
108.5374028663429016
  0
ARC
  5
BC4F
  8
0
 10
4376.7391405329581175
 20
197.9935593053614866
 30
0.0
 40
0.0112114641858377
 50
33.8415256084439235
 51
89.5903021707748621
  0
ARC
  5
BC50
  8
0
 10
4376.728386047899221
 20
197.9921019937837912
 30
0.0
 40
0.0214934795547261
 50
351.6013706446930769
 51
20.9953639710361202
  0
ARC
  5
BC51
  8
0
 10
4376.6641151939029442
 20
198.0098769314398908
 30
0.0
 40
0.0880536373818828
 50
328.3260076218533072
 51
346.2599448252329921
  0
LINE
  5
BC52
  8
0
 10
4376.7390532017952864
 20
197.963640820653012
 30
0.0
 11
4376.7390532017952864
 21
197.569939676405113
 31
0.0
  0
LINE
  5
BC53
  8
0
 10
4376.6368961284952093
 20
197.5699405793052108
 30
0.0
 11
4376.6487279123948611
 21
197.5502554255052132
 31
0.0
  0
LINE
  5
BC54
  8
0
 10
4376.7390532017952864
 20
197.5699405793052108
 30
0.0
 11
4376.7272244671939916
 21
197.5502554255052132
 31
0.0
  0
LINE
  5
BC55
  8
0
 10
4373.6494132250936673
 20
197.4833262917051115
 30
0.0
 11
4376.7109171621959831
 21
197.4833262916052092
 31
0.0
  0
ARC
  5
BC56
  8
0
 10
4376.7109171621950736
 20
197.4439562129051922
 30
0.0
 40
0.0393700787000029
 50
0.0
 51
89.9999999981240251
  0
LINE
  5
BC57
  8
0
 10
4376.7502872408940675
 20
197.4439562129051922
 30
0.0
 11
4376.7502872408940675
 21
197.1147847163410916
 31
0.0
  0
ARC
  5
BC58
  8
0
 10
4376.9502872030989238
 20
197.1146499615227867
 30
0.0
 40
0.2000000075999964
 50
179.9613955867600055
 51
269.9999986821849234
  0
LINE
  5
BC59
  8
0
 10
4376.9502871984986996
 20
196.9146499539228898
 30
0.0
 11
4377.3698871167980542
 21
196.9146499442720994
 31
0.0
  0
ARC
  5
BC5A
  8
0
 10
4377.369887115893107
 20
196.8752798646665951
 30
0.0
 40
0.0393700796055114
 50
0.0000152171838286
 51
89.9999986821849518
  0
LINE
  5
BC5B
  8
0
 10
4377.4092571954979576
 20
196.8752798751229136
 30
0.0
 11
4377.4092573301877565
 21
196.3681498765922129
 31
0.0
  0
LINE
  5
BC5C
  8
0
 10
4378.565902864797863
 20
195.1236470061203931
 30
0.0
 11
4378.565902864797863
 21
196.7803423334781883
 31
0.0
  0
LINE
  5
BC5D
  8
0
 10
4378.3126744070650602
 20
194.9917978004253882
 30
0.0
 11
4378.4317011898492638
 21
194.9918027898229127
 31
0.0
  0
ARC
  5
BC5E
  8
0
 10
4378.431699618597122
 20
195.0292864502193027
 30
0.0
 40
0.0374836604293433
 50
270.0024017402541858
 51
318.2016094700412054
  0
LINE
  5
BC5F
  8
0
 10
4378.4596434896329811
 20
195.0043031583882112
 30
0.0
 11
4378.5548324248993595
 21
195.1021084840228923
 31
0.0
  0
ARC
  5
BC60
  8
0
 10
4378.5211226218407319
 20
195.1330490301118914
 30
0.0
 40
0.0457566193513089
 50
317.4527292700032035
 51
348.1424598229289131
  0
LINE
  5
BC61
  8
0
 10
4378.2509213612047461
 20
195.680842235192614
 30
0.0
 11
4378.460164000961413
 21
195.680842235192614
 31
0.0
  0
LINE
  5
BC62
  8
0
 10
4378.460164000961413
 20
195.680842235192614
 30
0.0
 11
4378.565902864797863
 21
195.7217203077227907
 31
0.0
  0
ARC
  5
BC63
  8
0
 10
4377.409257195507962
 20
196.7809885366137905
 30
0.0
 40
0.0787401574090438
 50
42.0773619932199878
 51
90.0000000064095502
  0
ARC
  5
BC64
  8
0
 10
4377.5553675635874242
 20
196.9129045607575108
 30
0.0
 40
0.1181102352407696
 50
222.0773619932199949
 51
266.2868005563166776
  0
ARC
  5
BC65
  8
0
 10
4377.4954497767976136
 20
195.9896499539227932
 30
0.0
 40
0.8070866142000179
 50
64.0950783541056666
 51
86.2868003222153277
  0
ARC
  5
BC66
  8
0
 10
4380.8427393318088434
 20
194.9025836486771937
 30
0.0
 40
3.674220145731248
 50
149.1657402416369109
 51
149.3618966917923956
  0
ARC
  5
BC67
  8
0
 10
4377.7494294211228407
 20
196.749080507027486
 30
0.0
 40
0.0717047953174777
 50
136.4039191460919085
 51
149.1700347515449039
  0
ARC
  5
BC68
  8
0
 10
4378.7881751589920896
 20
195.612145392640798
 30
0.0
 40
1.6115434904626911
 50
126.9116594910385061
 51
132.5932699028255115
  0
ARC
  5
BC69
  8
0
 10
4377.8625957717777055
 20
196.8472036102986067
 30
0.0
 40
0.0681712200145774
 50
98.7141802779071327
 51
128.3375546200468875
  0
LINE
  5
BC6A
  8
0
 10
4377.85288746797778
 20
196.9146499539228898
 30
0.0
 11
4378.4320777007333163
 21
196.9146499539228898
 31
0.0
  0
ARC
  5
BC6B
  8
0
 10
4377.8532459156313053
 20
196.9079411543027049
 30
0.0
 40
0.0067183686310985
 50
93.0583754666480871
 51
98.3742792095931833
  0
ARC
  5
BC6C
  8
0
 10
4378.4315867805353264
 20
196.8752698892658941
 30
0.0
 40
0.0393831244954374
 50
45.0015659126163285
 51
89.9876868027472483
  0
LINE
  5
BC6D
  8
0
 10
4378.459434093821983
 20
196.9031187247477135
 30
0.0
 11
4378.55437423026342
 21
196.8081837776574048
 31
0.0
  0
ARC
  5
BC6E
  8
0
 10
4378.5265442383515619
 20
196.7803522644989016
 30
0.0
 40
0.0393586277004542
 50
359.9855428272704216
 51
45.0015659126186307
  0
LINE
  5
BC6F
  8
0
 10
4377.8482335733988293
 20
196.1682038027273052
 30
0.0
 11
4377.8482335733988293
 21
196.8412901298096074
 31
0.0
  0
LINE
  5
BC70
  8
0
 10
4378.4315952441984336
 20
196.9146499539228898
 30
0.0
 11
4378.4315952441984336
 21
194.9918027853817932
 31
0.0
  0
ARC
  5
BC71
  8
0
 10
4378.4686556892520457
 20
196.1416718496728038
 30
0.0
 40
0.9812715463090858
 50
136.2241327766263055
 51
140.410778190983109
  0
ARC
  5
BC72
  8
0
 10
4376.2339274670312079
 20
198.2828930394082079
 30
0.0
 40
2.1136983098550322
 50
316.2241327766262202
 51
317.8337042179944092
  0
ARC
  5
BC73
  8
0
 10
4377.9003837023410597
 20
196.7736281198797883
 30
0.0
 40
0.1346248389659086
 50
128.7543882132314934
 51
137.8337042179944092
  0
ARC
  5
BC74
  8
0
 10
4377.8643505318032112
 20
196.8185174764633985
 30
0.0
 40
0.0770623189243427
 50
119.6266391139563012
 51
128.7543882132314934
  0
ARC
  5
BC75
  8
0
 10
4377.8314316109581341
 20
196.8764025757689922
 30
0.0
 40
0.0104714781787583
 50
1.044708772555037
 51
119.6266391139626961
  0
ARC
  5
BC76
  8
0
 10
4377.6926329168509255
 20
196.8316002352931093
 30
0.0
 40
0.1559020794395466
 50
3.563442786031469
 51
16.7741289068775501
  0
ARC
  5
BC77
  8
0
 10
4378.1855106389557477
 20
196.5465058859427074
 30
0.0
 40
0.305199606383265
 50
91.2332291464129241
 51
105.4221990226484991
  0
ARC
  5
BC78
  8
0
 10
4378.2161588101253074
 20
196.4354065506458937
 30
0.0
 40
0.4204487829502688
 50
105.4221990226484991
 51
111.1070891661264994
  0
ARC
  5
BC79
  8
0
 10
4378.0786767181762116
 20
196.7915685052379047
 30
0.0
 40
0.0386731112456013
 50
111.1070891661264994
 51
165.1167474710503029
  0
ARC
  5
BC7A
  8
0
 10
4378.1332033279932148
 20
196.796123518576394
 30
0.0
 40
0.092059517674208
 50
176.6508298356536102
 51
189.7998493924733054
  0
ARC
  5
BC7B
  8
0
 10
4378.1546914776226913
 20
196.8038788028300132
 30
0.0
 40
0.1146234040922026
 50
191.7920424174803031
 51
235.934458354429097
  0
ARC
  5
BC7C
  8
0
 10
4378.1782839910802068
 20
196.8339810775470085
 30
0.0
 40
0.1527987282388059
 50
234.9285495384744138
 51
270.2469018903439064
  0
ARC
  5
BC7D
  8
0
 10
4378.1798785610144478
 20
196.8326292303949003
 30
0.0
 40
0.1514483555654473
 50
269.6458443500285966
 51
309.3420334170378965
  0
ARC
  5
BC7E
  8
0
 10
4378.2025614864123781
 20
196.8053025466196004
 30
0.0
 40
0.115934974066356
 50
309.2339467765261247
 51
340.8929852320532063
  0
ARC
  5
BC7F
  8
0
 10
4378.2266089111026304
 20
196.795821833523604
 30
0.0
 40
0.0901155486278842
 50
341.5840439830868718
 51
2.1582055440918659
  0
ARC
  5
BC80
  8
0
 10
4378.175534577993858
 20
196.5906741366219137
 30
0.0
 40
0.2609829123722411
 50
74.8248520684808227
 51
89.2518281583939057
  0
ARC
  5
BC81
  8
0
 10
4378.2264680313192002
 20
196.7012444532282132
 30
0.0
 40
0.1423774399169481
 50
56.5040159733810867
 51
82.986721810510673
  0
ARC
  5
BC82
  8
0
 10
4378.2892583433522304
 20
196.7975267534988859
 30
0.0
 40
0.0274435547088449
 50
2.0253310041229682
 51
54.8883810799013929
  0
ARC
  5
BC83
  8
0
 10
4378.1669762086594346
 20
196.5742001164935004
 30
0.0
 40
0.2102405701795004
 50
51.5833141590745186
 51
122.8126494040918999
  0
ARC
  5
BC84
  8
0
 10
4378.1639883257566908
 20
196.5601532569274923
 30
0.0
 40
0.2153671944607833
 50
53.2410293511479367
 51
120.2158600494931022
  0
LINE
  5
BC85
  8
0
 10
4377.8482335733988293
 20
196.7963688522324901
 30
0.0
 11
4378.0411441372198169
 21
196.7963688522324901
 31
0.0
  0
LINE
  5
BC86
  8
0
 10
4378.3167227994608766
 20
196.7963688522324901
 30
0.0
 11
4378.4315952441984336
 21
196.7963688522324901
 31
0.0
  0
ARC
  5
BC87
  8
0
 10
4378.4252732286940955
 20
196.7347495165842872
 30
0.0
 40
0.0619427994667635
 50
56.3611524119126628
 51
84.1420691461184873
  0
LINE
  5
BC88
  8
0
 10
4378.4595868238920957
 20
196.7863197365784913
 30
0.0
 11
4378.5547270230936192
 21
196.7048369683616897
 31
0.0
  0
ARC
  5
BC89
  8
0
 10
4378.5411795378586248
 20
196.6840623952421936
 30
0.0
 40
0.0248015572996588
 50
5.1970433137921122
 51
56.890882169240669
  0
LINE
  5
BC8A
  8
0
 10
4378.2247990246587506
 20
194.545627732772914
 30
0.0
 11
4378.225200262096223
 21
194.1848786606059036
 31
0.0
  0
ARC
  5
BC8B
  8
0
 10
4377.9417236593499183
 20
194.2485032582821134
 30
0.0
 40
0.2905289550677374
 50
325.2394913999470987
 51
347.3499463481982161
  0
ARC
  5
BC8C
  8
0
 10
4377.8338999746438276
 20
194.3159305788566087
 30
0.0
 40
0.417598474274386
 50
308.1140572501146266
 51
326.0738522212507746
  0
ARC
  5
BC8D
  8
0
 10
4377.8637656593245993
 20
194.4594702192040927
 30
0.0
 40
0.524223946570748
 50
292.2102255250471217
 51
295.7671797819060089
  0
ARC
  5
BC8E
  8
0
 10
4378.0298536194986809
 20
194.1972590804757886
 30
0.0
 40
0.2254103257843514
 50
262.0005551138543183
 51
278.17992133022301
  0
ARC
  5
BC8F
  8
0
 10
4378.1784346594731687
 20
194.419678246255387
 30
0.0
 40
0.4805970528320688
 50
244.5197747284142054
 51
248.0109152318316035
  0
ARC
  5
BC90
  8
0
 10
4378.1934022430095865
 20
194.2875367200902872
 30
0.0
 40
0.3744176695195067
 50
197.5870935779097124
 51
233.6886011802716041
  0
LINE
  5
BC91
  8
0
 10
4377.8348865904936247
 20
194.2903936254159021
 30
0.0
 11
4377.8348865904936247
 21
194.1848770689404091
 31
0.0
  0
ARC
  5
BC92
  8
0
 10
4377.8699865960070383
 20
194.1848770689404091
 30
0.0
 40
0.0351000055120299
 50
180.0
 51
197.359375432885912
  0
LINE
  5
BC93
  8
0
 10
4371.7963099607668482
 20
199.5683874729051865
 30
0.0
 11
4374.5182644954265925
 21
199.5683874729051865
 31
0.0
  0
LINE
  5
BC94
  8
0
 10
4372.7045313352937228
 20
196.7127874186714962
 30
0.0
 11
4372.7045313352937228
 21
197.2195759598052121
 31
0.0
  0
LINE
  5
BC95
  8
0
 10
4373.6100431463946734
 20
196.7713852679553099
 30
0.0
 11
4373.6100431463946734
 21
197.2195759598052121
 31
0.0
  0
LINE
  5
BC96
  8
0
 10
4380.6166947130450353
 20
193.2790917537120094
 30
0.0
 11
4378.2462644090273898
 21
194.5748560619578882
 31
0.0
  0
LINE
  5
BC97
  8
0
 10
4380.8909755947042868
 20
193.7797497502521935
 30
0.0
 11
4378.5260309703389794
 21
195.072515384425401
 31
0.0
  0
ARC
  5
BC98
  8
0
 10
4380.7577601775756193
 20
193.52727046382401
 30
0.0
 40
0.2854682774600134
 50
240.3859803785666998
 51
62.182567012088299
  0
ENDSEC
  0
EOF
