  0
SECTION
  2
HEADER
  9
$ACADVER
  1
AC1009
  9
$INSBASE
 10
3233.5751844449009695
 20
194.1176365215625879
 30
0.0
  9
$EXTMIN
 10
3227.197293433348932
 20
170.0181105652906126
 30
-0.0000000000112498
  9
$EXTMAX
 10
3242.7845070681942161
 20
194.1295326244390083
 30
0.0000000000002956
  9
$LIMMIN
 10
0.0
 20
0.0
  9
$LIMMAX
 10
11.6929133858000007
 20
8.2677165353999982
  9
$ORTHOMODE
 70
     1
  9
$REGENMODE
 70
     1
  9
$FILLMODE
 70
     1
  9
$QTEXTMODE
 70
     0
  9
$MIRRTEXT
 70
     0
  9
$DRAGMODE
 70
     2
  9
$LTSCALE
 40
0.6431102362
  9
$OSMODE
 70
     7
  9
$ATTMODE
 70
     1
  9
$TEXTSIZE
 40
0.2
  9
$TRACEWID
 40
0.05
  9
$TEXTSTYLE
  7
STANDARD
  9
$CLAYER
  8
0
  9
$CELTYPE
  6
BYLAYER
  9
$CECOLOR
 62
   256
  9
$DIMSCALE
 40
1.0
  9
$DIMASZ
 40
0.1875
  9
$DIMEXO
 40
0.0625
  9
$DIMDLI
 40
0.4443307087
  9
$DIMRND
 40
0.0
  9
$DIMDLE
 40
0.0
  9
$DIMEXE
 40
0.125
  9
$DIMTP
 40
0.01
  9
$DIMTM
 40
0.01
  9
$DIMTXT
 40
2.0
  9
$DIMCEN
 40
0.1052362205
  9
$DIMTSZ
 40
0.0
  9
$DIMTOL
 70
     1
  9
$DIMLIM
 70
     0
  9
$DIMTIH
 70
     1
  9
$DIMTOH
 70
     1
  9
$DIMSE1
 70
     0
  9
$DIMSE2
 70
     0
  9
$DIMTAD
 70
     0
  9
$DIMZIN
 70
     0
  9
$DIMBLK
  1

  9
$DIMASO
 70
     1
  9
$DIMSHO
 70
     1
  9
$DIMPOST
  1
\X
  9
$DIMAPOST
  1

  9
$DIMALT
 70
     1
  9
$DIMALTD
 70
     2
  9
$DIMALTF
 40
25.3999999999999986
  9
$DIMLFAC
 40
1.0
  9
$DIMTOFL
 70
     0
  9
$DIMTVP
 40
0.0
  9
$DIMTIX
 70
     0
  9
$DIMSOXD
 70
     0
  9
$DIMSAH
 70
     0
  9
$DIMBLK1
  1

  9
$DIMBLK2
  1

  9
$DIMSTYLE
  2
STANDARD
  9
$DIMCLRD
 70
     0
  9
$DIMCLRE
 70
     0
  9
$DIMCLRT
 70
     0
  9
$DIMTFAC
 40
1.0
  9
$DIMGAP
 40
0.09
  9
$LUNITS
 70
     2
  9
$LUPREC
 70
     4
  9
$SKETCHINC
 40
0.1
  9
$FILLETRAD
 40
0.0
  9
$AUNITS
 70
     0
  9
$AUPREC
 70
     0
  9
$MENU
  1
.
  9
$ELEVATION
 40
0.0
  9
$PELEVATION
 40
0.0
  9
$THICKNESS
 40
0.0
  9
$LIMCHECK
 70
     0
  9
$BLIPMODE
 70
     0
  9
$CHAMFERA
 40
0.0
  9
$CHAMFERB
 40
0.0
  9
$SKPOLY
 70
     0
  9
$TDCREATE
 40
2458060.468368056230247
  9
$TDUPDATE
 40
2459573.0396527778357267
  9
$TDINDWG
 40
0.4093704861
  9
$TDUSRTIMER
 40
0.4093704861
  9
$USRTIMER
 70
     1
  9
$ANGBASE
 50
0.0
  9
$ANGDIR
 70
     0
  9
$PDMODE
 70
     0
  9
$PDSIZE
 40
0.3125
  9
$PLINEWID
 40
0.0
  9
$COORDS
 70
     1
  9
$SPLFRAME
 70
     0
  9
$SPLINETYPE
 70
     6
  9
$SPLINESEGS
 70
     8
  9
$ATTDIA
 70
     1
  9
$ATTREQ
 70
     1
  9
$HANDLING
 70
     1
  9
$HANDSEED
  5
1E30B
  9
$SURFTAB1
 70
     6
  9
$SURFTAB2
 70
     6
  9
$SURFTYPE
 70
     6
  9
$SURFU
 70
     6
  9
$SURFV
 70
     6
  9
$UCSNAME
  2

  9
$UCSORG
 10
0.0
 20
0.0
 30
0.0
  9
$UCSXDIR
 10
1.0
 20
0.0
 30
0.0
  9
$UCSYDIR
 10
0.0
 20
1.0
 30
0.0
  9
$PUCSNAME
  2

  9
$PUCSORG
 10
0.0
 20
0.0
 30
0.0
  9
$PUCSXDIR
 10
1.0
 20
0.0
 30
0.0
  9
$PUCSYDIR
 10
0.0
 20
1.0
 30
0.0
  9
$USERI1
 70
     0
  9
$USERI2
 70
     0
  9
$USERI3
 70
     0
  9
$USERI4
 70
     0
  9
$USERI5
 70
     0
  9
$USERR1
 40
0.0
  9
$USERR2
 40
0.0
  9
$USERR3
 40
0.0
  9
$USERR4
 40
0.0
  9
$USERR5
 40
0.0
  9
$WORLDVIEW
 70
     1
  9
$SHADEDGE
 70
     3
  9
$SHADEDIF
 70
    70
  9
$TILEMODE
 70
     1
  9
$MAXACTVP
 70
    64
  9
$PLIMCHECK
 70
     0
  9
$PEXTMIN
 10
1.0000000000000000E+20
 20
1.0000000000000000E+20
 30
1.0000000000000000E+20
  9
$PEXTMAX
 10
-1.0000000000000000E+20
 20
-1.0000000000000000E+20
 30
-1.0000000000000000E+20
  9
$PLIMMIN
 10
0.0
 20
0.0
  9
$PLIMMAX
 10
12.0
 20
9.0
  9
$UNITMODE
 70
     0
  9
$VISRETAIN
 70
     1
  9
$PLINEGEN
 70
     0
  9
$PSLTSCALE
 70
     1
  0
ENDSEC
  0
SECTION
  2
TABLES
  0
TABLE
  2
VPORT
 70
     1
  0
VPORT
  2
*ACTIVE
 70
     0
 10
0.0
 20
0.0
 11
1.0
 21
1.0
 12
-568.553167132041267
 22
56.0785593981148693
 13
0.0
 23
0.0
 14
1.0
 24
1.0
 15
0.0
 25
0.0
 16
0.0
 26
0.0
 36
17.1152628219792007
 17
3803.5440673828129547
 27
125.9952621967499056
 37
0.0
 40
24.2840575392854703
 41
1.8876941457586609
 42
50.0
 43
0.0
 44
0.0
 50
0.0
 51
0.0
 71
     0
 72
   100
 73
     1
 74
     1
 75
     0
 76
     0
 77
     0
 78
     0
  0
ENDTAB
  0
TABLE
  2
LTYPE
 70
     2
  0
LTYPE
  2
CONTINUOUS
 70
     0
  3
Solid line
 72
    65
 73
     0
 40
0.0
  0
LTYPE
  2
PHANTOM2
 70
     0
  3
___ _ _ ___ _ _ ___ _ _ ___ _ _
 72
    65
 73
     6
 40
1.25
 49
0.625
 49
-0.125
 49
0.125
 49
-0.125
 49
0.125
 49
-0.125
  0
ENDTAB
  0
TABLE
  2
LAYER
 70
     2
  0
LAYER
  2
0
 70
     0
 62
   255
  6
CONTINUOUS
  0
LAYER
  2
DEFPOINTS
 70
     0
 62
     7
  6
CONTINUOUS
  0
ENDTAB
  0
TABLE
  2
STYLE
 70
     1
  0
STYLE
  2
STANDARD
 70
     0
 40
0.0
 41
0.8
 50
0.0
 71
     0
 42
0.2
  3
txt
  4

  0
ENDTAB
  0
TABLE
  2
VIEW
 70
     0
  0
ENDTAB
  0
TABLE
  2
UCS
 70
     0
  0
ENDTAB
  0
TABLE
  2
APPID
 70
     9
  0
APPID
  2
ACAD
 70
     0
  0
APPID
  2
ACAD_MLEADERVER
 70
     0
  0
APPID
  2
ACAD_EXEMPT_FROM_CAD_STANDARDS
 70
     0
  0
APPID
  2
ACAD_NAV_VCDISPLAY
 70
     0
  0
APPID
  2
ACAECLAYERSTANDARD
 70
     0
  0
APPID
  2
ACCMTRANSPARENCY
 70
     0
  0
APPID
  2
ACAD_DSTYLE_DIMJAG
 70
     0
  0
APPID
  2
ACAD_DSTYLE_DIMTALN
 70
     0
  0
APPID
  2
ACDBATTR
 70
     0
  0
ENDTAB
  0
TABLE
  2
DIMSTYLE
 70
     1
  0
DIMSTYLE
  2
STANDARD
 70
     0
  3

  4

  5

  6

  7

 40
1.0
 41
0.1875
 42
0.0625
 43
0.38
 44
0.125
 45
0.0
 46
0.0
 47
0.01
 48
0.01
140
0.15625
141
0.09
142
0.0
143
25.3999999999999986
144
1.0
145
0.0
146
1.0
147
0.09
 71
     1
 72
     0
 73
     1
 74
     1
 75
     0
 76
     0
 77
     0
 78
     4
170
     0
171
     2
172
     0
173
     0
174
     0
175
     0
176
     0
177
     0
178
     0
  0
ENDTAB
  0
ENDSEC
  0
SECTION
  2
BLOCKS
  0
BLOCK
  8
0
  2
$MODEL_SPACE
 70
     0
 10
0.0
 20
0.0
 30
0.0
  3
$MODEL_SPACE
  1

  0
ENDBLK
  5
21
  8
0
  0
BLOCK
 67
     1
  8
0
  2
$PAPER_SPACE
 70
     0
 10
0.0
 20
0.0
 30
0.0
  3
$PAPER_SPACE
  1

  0
ENDBLK
  5
1D
 67
     1
  8
0
  0
ENDSEC
  0
SECTION
  2
ENTITIES
  0
LINE
  5
1D24A
  8
0
 10
3229.2638314779178472
 20
194.1176819546626007
 30
0.0
 11
3231.9810257574181378
 21
194.1176819546626007
 31
0.0
  0
LINE
  5
1D24B
  8
0
 10
3231.9810257574181378
 20
194.1176819546626007
 30
0.0
 11
3231.9810252791180574
 21
193.8482404620291106
 31
0.0
  0
ARC
  5
1D24C
  8
0
 10
3231.9416071299610849
 20
193.8482405347511133
 30
0.0
 40
0.0394181491573149
 50
314.6000324237986092
 51
359.9998942958519024
  0
LINE
  5
1D24D
  8
0
 10
3231.9692847196170078
 20
193.8201738015291085
 30
0.0
 11
3231.8728558768639232
 21
193.7226979229681092
 31
0.0
  0
ARC
  5
1D24E
  8
0
 10
3231.8452714818108689
 20
193.7506701512805876
 30
0.0
 40
0.0392854223241483
 50
270.0348633578053068
 51
314.6000324237995756
  0
LINE
  5
1D24F
  8
0
 10
3231.8452953862179129
 20
193.7113847362290926
 30
0.0
 11
3229.3995749973178135
 21
193.7113847362290926
 31
0.0
  0
ARC
  5
1D250
  8
0
 10
3229.3995742145598342
 20
193.7507389229380976
 30
0.0
 40
0.0393541867167825
 50
225.4034448769837127
 51
270.0011396178865084
  0
LINE
  5
1D251
  8
0
 10
3229.3719432370180584
 20
193.7227160556290926
 30
0.0
 11
3229.2755406995420344
 21
193.8201544540308134
 31
0.0
  0
ARC
  5
1D252
  8
0
 10
3229.3031396232599946
 20
193.8481444320399874
 30
0.0
 40
0.0393082619733252
 50
179.8604265225224879
 51
225.4030551088908112
  0
LINE
  5
1D253
  8
0
 10
3229.2638314779178472
 20
193.8482401875290861
 30
0.0
 11
3229.2638314779178472
 21
194.1176819546626007
 31
0.0
  0
ARC
  5
1D254
  8
0
 10
3229.6655464588061477
 20
193.5143543959601971
 30
0.0
 40
0.1970303408914982
 50
1.008670209213808
 51
89.9954453057363537
  0
LINE
  5
1D255
  8
0
 10
3229.8625462684181002
 20
193.5178228603290904
 30
0.0
 11
3229.8737009259029946
 21
192.8967899371351109
 31
0.0
  0
ARC
  5
1D256
  8
0
 10
3229.8933882515289042
 20
192.8971365607567066
 30
0.0
 40
0.0196903767929484
 50
181.0086702092137898
 51
269.6644851585073752
  0
LINE
  5
1D257
  8
0
 10
3229.8932729485181881
 20
192.8774465215626037
 30
0.0
 11
3231.3509119368432039
 21
192.8774465215626037
 31
0.0
  0
ARC
  5
1D258
  8
0
 10
3231.351548981158885
 20
192.89715681840309
 30
0.0
 40
0.0197205889110937
 50
268.1488229455231931
 51
358.9284084591453166
  0
LINE
  5
1D259
  8
0
 10
3231.3712661210920487
 20
192.8967880096626004
 30
0.0
 11
3231.3831165373239855
 21
193.5178085476539138
 31
0.0
  0
ARC
  5
1D25A
  8
0
 10
3231.580383528996208
 20
193.5141186721957922
 30
0.0
 40
0.1973014981803828
 50
91.085900243580241
 51
178.9284084591436113
  0
LINE
  5
1D25B
  8
0
 10
3229.2754567052138555
 20
193.8202375230291068
 30
0.0
 11
3231.9693605410161581
 21
193.8202375230291068
 31
0.0
  0
LINE
  5
1D25C
  8
0
 10
3233.1814836322178053
 20
190.7599265831333071
 30
0.0
 11
3233.1814836322178053
 21
175.0220784897333033
 31
0.0
  0
LINE
  5
1D25D
  8
0
 10
3233.9688869344681734
 20
175.0220784897333033
 30
0.0
 11
3233.9688869344681734
 21
190.7599265831333071
 31
0.0
  0
ARC
  5
1D25E
  8
0
 10
3233.5751852833418525
 20
190.7599257194083009
 30
0.0
 40
0.3937016511259663
 50
0.0001256987306746
 51
179.9998743012693012
  0
ARC
  5
1D25F
  8
0
 10
3233.5729992492179008
 20
190.7601103977561081
 30
0.0
 40
0.6484308007706689
 50
2.5608995357029749
 51
232.8582247602109874
  0
ARC
  5
1D260
  8
0
 10
3232.9846332384868219
 20
190.5407232618331932
 30
0.0
 40
0.0196850393695733
 50
179.9999999999772058
 51
200.366310118133498
  0
ARC
  5
1D261
  8
0
 10
3233.5751844196170168
 20
190.7599265831333071
 30
0.0
 40
0.433070866100003
 50
335.3805712840056117
 51
335.3806805438728134
  0
ARC
  5
1D262
  8
0
 10
3233.5751844196170168
 20
190.7599265831333071
 30
0.0
 40
0.433070866100003
 50
345.946346903663482
 51
204.6199773171140919
  0
LINE
  5
1D263
  8
0
 10
3232.2142079834839024
 20
194.1176365215625879
 30
0.0
 11
3234.9361609063171272
 21
194.1176365215625879
 31
0.0
  0
LINE
  5
1D264
  8
0
 10
3234.9361609063171272
 20
194.1176365215625879
 30
0.0
 11
3234.9315436175179457
 21
193.8429535897290918
 31
0.0
  0
ARC
  5
1D265
  8
0
 10
3234.8920754422570099
 20
193.8436425758881967
 30
0.0
 40
0.0394741885334629
 50
314.5735131470863166
 51
358.9999033503938222
  0
LINE
  5
1D266
  8
0
 10
3234.9197793680677933
 20
193.8155231154557043
 30
0.0
 11
3234.8271675284659068
 21
193.7218958290903004
 31
0.0
  0
ARC
  5
1D267
  8
0
 10
3234.8002858499321519
 20
193.7508391220005137
 30
0.0
 40
0.0395011246076657
 50
270.2254273606080233
 51
312.8850298610860818
  0
LINE
  5
1D268
  8
0
 10
3234.8004412647178469
 20
193.7113383031291107
 30
0.0
 11
3232.3499275328181284
 21
193.7113383031291107
 31
0.0
  0
ARC
  5
1D269
  8
0
 10
3232.3499164540789934
 20
193.7506363109795871
 30
0.0
 40
0.0392980090567869
 50
225.5482630223156946
 51
269.9858036882973238
  0
LINE
  5
1D26A
  8
0
 10
3232.3223957356940446
 20
193.7225837963794959
 30
0.0
 11
3232.2305763039348676
 21
193.8155231178301108
 31
0.0
  0
ARC
  5
1D26B
  8
0
 10
3232.2575077458282067
 20
193.8430860641281015
 30
0.0
 40
0.0385359386946226
 50
179.992595047395298
 51
225.6639384126733034
  0
LINE
  5
1D26C
  8
0
 10
3232.218971807455091
 20
193.8430910445437974
 30
0.0
 11
3232.2142079834839024
 21
194.1176365215625879
 31
0.0
  0
ARC
  5
1D26D
  8
0
 10
3233.9478901191860132
 20
191.3584937252327052
 30
0.0
 40
0.0577936473837235
 50
182.3499550368034079
 51
234.63486092027631
  0
ARC
  5
1D26E
  8
0
 10
3233.5751844196170168
 20
190.7599265831333071
 30
0.0
 40
0.668598134099973
 50
118.1297183993062987
 51
233.9248987003039133
  0
ARC
  5
1D26F
  8
0
 10
3234.9432160842679878
 20
194.3054551909675922
 30
0.0
 40
3.1316948984419142
 50
250.3506824013497862
 51
261.3241538056940954
  0
ARC
  5
1D270
  8
0
 10
3234.941768067078101
 20
194.255159556729609
 30
0.0
 40
3.0817624910824062
 50
261.2097141397973132
 51
273.9712694222254754
  0
LINE
  5
1D271
  8
0
 10
3232.2264761048668333
 20
193.8202375230291068
 30
0.0
 11
3234.9245644876259576
 21
193.8202375230291068
 31
0.0
  0
ARC
  5
1D272
  8
0
 10
3236.452406450458966
 20
186.5772473611827991
 30
0.0
 40
4.5430103560764303
 50
72.3857305946888232
 51
83.0821891046826408
  0
ARC
  5
1D273
  8
0
 10
3237.2100407385041763
 20
188.9635510779677077
 30
0.0
 40
2.0393220481671932
 50
61.0682262262852475
 51
72.3857305946888232
  0
ARC
  5
1D274
  8
0
 10
3237.5063677539328637
 20
189.4996436631757888
 30
0.0
 40
1.4267822862020789
 50
53.2260898343096684
 51
61.0682262262852475
  0
ARC
  5
1D275
  8
0
 10
3237.82839588400293
 20
189.930516451130103
 30
0.0
 40
0.8888664229336715
 50
7.6447661844134824
 51
53.2260898343096684
  0
ARC
  5
1D276
  8
0
 10
3227.9155094833467956
 20
189.3473205858348081
 30
0.0
 40
10.8166202297388505
 50
0.0851422506278542
 51
3.7181591661316138
  0
LINE
  5
1D277
  8
0
 10
3238.7321177702779096
 20
189.363394213935095
 30
0.0
 11
3238.7321177702779096
 21
189.2867376604598064
 31
0.0
  0
ARC
  5
1D278
  8
0
 10
3238.425885512674995
 20
189.3139585165081087
 30
0.0
 40
0.3074397023806791
 50
339.0908919897877922
 51
354.9203529848949756
  0
ARC
  5
1D279
  8
0
 10
3238.2439785664319061
 20
189.4000539095565045
 30
0.0
 40
0.5083304923273583
 50
299.783224506234717
 51
337.3429187221868233
  0
ARC
  5
1D27A
  8
0
 10
3237.3091809081888641
 20
190.9012458570169883
 30
0.0
 40
2.2765107345004738
 50
283.3661346035657971
 51
301.4357295481445931
  0
ARC
  5
1D27B
  8
0
 10
3236.5468318562611785
 20
193.4893318194266101
 30
0.0
 40
4.9727949780028444
 50
274.3472018254573754
 51
285.0186396454899977
  0
ARC
  5
1D27C
  8
0
 10
3236.1783204270259375
 20
196.4639450655294866
 30
0.0
 40
7.9680485386828472
 50
269.9593580734128864
 51
275.3681537412444982
  0
ARC
  5
1D27D
  8
0
 10
3236.4166576343100132
 20
198.9080506920969924
 30
0.0
 40
10.4150104829119297
 50
262.8416718262459995
 51
268.6576267090716215
  0
ARC
  5
1D27E
  8
0
 10
3235.7057202911159948
 20
193.2472946441230874
 30
0.0
 40
4.7097856021011788
 50
251.1040122514625921
 51
262.8416718262459995
  0
ARC
  5
1D27F
  8
0
 10
3234.8909840918599912
 20
190.6603780262960015
 30
0.0
 40
1.9995507822612519
 50
242.5385208555244958
 51
249.1853183440331918
  0
ARC
  5
1D280
  8
0
 10
3234.941494542602868
 20
189.3227514132562135
 30
0.0
 40
1.6338771404802019
 50
113.5437700234109997
 51
126.5322845020372
  0
ARC
  5
1D281
  8
0
 10
3235.4358298665529219
 20
188.1882289076752954
 30
0.0
 40
2.8714185451106831
 50
106.0036202391376037
 51
113.5437700234109997
  0
ARC
  5
1D282
  8
0
 10
3235.7837961928930781
 20
186.9750154362594969
 30
0.0
 40
4.1335467048042771
 50
99.4191505908791981
 51
106.0036202391376037
  0
ARC
  5
1D283
  8
0
 10
3236.4334788649139227
 20
183.0587246313012884
 30
0.0
 40
8.1033604590405641
 50
98.3270720507286882
 51
99.4191505908791981
  0
ARC
  5
1D284
  8
0
 10
3235.1578614611680678
 20
191.1415165425800069
 30
0.0
 40
0.0393702278330425
 50
359.9999533561756948
 51
93.884980187574584
  0
LINE
  5
1D285
  8
0
 10
3235.1972316890010006
 20
191.141516510529101
 30
0.0
 11
3235.1972316285241504
 21
191.0672290796775883
 31
0.0
  0
LINE
  5
1D286
  8
0
 10
3235.1985702717011009
 20
191.1412189332291121
 30
0.0
 11
3235.2185702717010827
 21
191.1412189332291121
 31
0.0
  0
LINE
  5
1D287
  8
0
 10
3235.2185702717010827
 20
191.1412189332291121
 30
0.0
 11
3235.2185702717010827
 21
191.0704939639319093
 31
0.0
  0
LINE
  5
1D288
  8
0
 10
3235.1985702717011009
 20
191.1412189332291121
 30
0.0
 11
3235.1985702717011009
 21
191.0674356072044873
 31
0.0
  0
LINE
  5
1D289
  8
0
 10
3235.2364206654010559
 20
191.1443838524932914
 30
0.0
 11
3235.2364206654010559
 21
191.0731804703536909
 31
0.0
  0
LINE
  5
1D28A
  8
0
 10
3235.2185702717010827
 20
191.0937337607290942
 30
0.0
 11
3235.2364206654010559
 21
191.0937337607290942
 31
0.0
  0
ARC
  5
1D28B
  8
0
 10
3235.2757907441000498
 20
191.1443838528290939
 30
0.0
 40
0.0393700787000064
 50
90.0
 51
180.0000004887073999
  0
LINE
  5
1D28C
  8
0
 10
3235.2757907441000498
 20
191.183753931529111
 30
0.0
 11
3235.3151541725937932
 21
191.183753931529111
 31
0.0
  0
ARC
  5
1D28D
  8
0
 10
3235.2874728726001194
 20
191.1595811253760928
 30
0.0
 40
0.0915584502552466
 50
330.7379016692515847
 51
357.3520204933998912
  0
ARC
  5
1D28E
  8
0
 10
3235.3070649253841111
 20
191.1486036135287918
 30
0.0
 40
0.0691006164631457
 50
297.0192055774609798
 51
330.7379016692530058
  0
ARC
  5
1D28F
  8
0
 10
3235.4343859424247967
 20
191.1562504454782072
 30
0.0
 40
0.0554633248053368
 50
181.0439785557665004
 51
205.6860954365411089
  0
ARC
  5
1D290
  8
0
 10
3235.4806632088370861
 20
191.178508359570003
 30
0.0
 40
0.106815054340836
 50
205.6860954365411089
 51
226.8489270662072101
  0
ARC
  5
1D291
  8
0
 10
3235.6106048593660489
 20
191.3171191711819858
 30
0.0
 40
0.2968092375091755
 50
226.8489270662072101
 51
246.2316434908065048
  0
ARC
  5
1D292
  8
0
 10
3235.907827192350851
 20
191.9920216701771096
 30
0.0
 40
1.0342605907354661
 50
246.2316434908065048
 51
255.1200192973464027
  0
ARC
  5
1D293
  8
0
 10
3236.0003530971721375
 20
192.3402491886457142
 30
0.0
 40
1.3945708010844351
 50
255.1200192973464027
 51
262.6602244159495854
  0
ARC
  5
1D294
  8
0
 10
3236.2124897119829257
 20
193.9871623169975976
 30
0.0
 40
3.055090236586933
 50
262.6602244159495854
 51
267.2548175717626009
  0
ARC
  5
1D295
  8
0
 10
3236.1523369632691356
 20
192.7326515340787125
 30
0.0
 40
1.79913814449204
 50
267.2548175717626009
 51
270.5424179808808276
  0
ARC
  5
1D296
  8
0
 10
3236.1389734704039256
 20
194.1441992582730904
 30
0.0
 40
3.210749125116652
 50
270.5424179808808276
 51
275.3907526542026858
  0
ARC
  5
1D297
  8
0
 10
3236.2898083884751941
 20
192.5457790148520019
 30
0.0
 40
1.6052278866748839
 50
275.3907526542026858
 51
287.0832171130847996
  0
ARC
  5
1D298
  8
0
 10
3236.5933429952510778
 20
191.5580950313839992
 30
0.0
 40
0.5719549756247169
 50
287.0832171130847996
 51
302.7348696428309722
  0
ARC
  5
1D299
  8
0
 10
3236.8165099115972225
 20
191.2109417445228132
 30
0.0
 40
0.1592578989086657
 50
302.7348696428318817
 51
327.0415489890639833
  0
ARC
  5
1D29A
  8
0
 10
3236.8995974601498347
 20
191.1570696818293982
 30
0.0
 40
0.0602339630978468
 50
327.0415489890652907
 51
358.1841198118901275
  0
LINE
  5
1D29B
  8
0
 10
3236.9598011747229975
 20
191.1551610010972126
 30
0.0
 11
3236.9575589939231577
 21
191.2777061703972095
 31
0.0
  0
ARC
  5
1D29C
  8
0
 10
3236.8652359649368009
 20
191.2755389692098049
 30
0.0
 40
0.0923484620452006
 50
1.34472062637273
 51
27.578587614671779
  0
ARC
  5
1D29D
  8
0
 10
3236.8161212085669831
 20
191.2498857620651052
 30
0.0
 40
0.1477591679606261
 50
27.578587614671779
 51
47.4158055817401021
  0
ARC
  5
1D29E
  8
0
 10
3236.7137731376178635
 20
191.1385214286518988
 30
0.0
 40
0.2990110849191916
 50
47.4158055817389865
 51
58.2009347306694735
  0
ARC
  5
1D29F
  8
0
 10
3236.6450146397141907
 20
191.0276212844412953
 30
0.0
 40
0.4294969961125736
 50
58.2009347306694735
 51
61.316696083530509
  0
ARC
  5
1D2A0
  8
0
 10
3237.047632162742957
 20
191.15942185407539
 30
0.0
 40
0.0880432361466369
 50
183.5139198235387994
 51
214.4421231763865023
  0
ARC
  5
1D2A1
  8
0
 10
3237.0342884509041141
 20
191.1502708071712959
 30
0.0
 40
0.0718631154704718
 50
214.4421231763851949
 51
240.6202952272269044
  0
ARC
  5
1D2A2
  8
0
 10
3237.0042591495430315
 20
191.0993071843022051
 30
0.0
 40
0.0127750152554868
 50
245.8510313517346901
 51
270.1497252926669717
  0
ARC
  5
1D2A3
  8
0
 10
3236.170698648384132
 20
190.4972188529621917
 30
0.0
 40
0.8099676543117126
 50
86.9263279330737788
 51
89.5368773224792278
  0
ARC
  5
1D2A4
  8
0
 10
3236.1781185664121949
 20
190.5912841159727975
 30
0.0
 40
0.7156437658099281
 50
79.9132041704760496
 51
87.1157120104527252
  0
ARC
  5
1D2A5
  8
0
 10
3236.2432248247450843
 20
190.9274814739532076
 30
0.0
 40
0.3732765982438451
 50
67.1547847431407092
 51
80.71422383829983
  0
ARC
  5
1D2A6
  8
0
 10
3236.3374309233840904
 20
191.1510947883564029
 30
0.0
 40
0.1306293163731253
 50
40.8076472809890802
 51
67.1547847431413345
  0
LINE
  5
1D2A7
  8
0
 10
3236.1772455582490693
 20
191.3071600477427125
 30
0.0
 11
3236.1791047984229408
 21
191.567047654897209
 31
0.0
  0
ARC
  5
1D2A8
  8
0
 10
3236.1990517242520582
 20
191.5669049542649987
 30
0.0
 40
0.0199474362640403
 50
143.1661199005384901
 51
179.5901120528465071
  0
ARC
  5
1D2A9
  8
0
 10
3236.1975696329841412
 20
191.5676983403614884
 30
0.0
 40
0.0182873290240065
 50
89.4204288780483552
 51
142.3718531931627069
  0
ARC
  5
1D2AA
  8
0
 10
3236.1723003260590303
 20
189.4829780832232018
 30
0.0
 40
2.1031606912286551
 50
84.2471346194522965
 51
89.306539496273615
  0
ARC
  5
1D2AB
  8
0
 10
3236.2624771228070131
 20
190.2164374619327987
 30
0.0
 40
1.3644524509076701
 50
72.5910339586861113
 51
84.9275119450677352
  0
ARC
  5
1D2AC
  8
0
 10
3236.5221697216829853
 20
191.0446633392263038
 30
0.0
 40
0.4964672265346375
 50
53.8162007398535565
 51
72.5910339586861113
  0
ARC
  5
1D2AD
  8
0
 10
3236.7164965499441678
 20
191.3226382741092095
 30
0.0
 40
0.1575474256740353
 50
31.2684418830169406
 51
51.173667115897949
  0
ARC
  5
1D2AE
  8
0
 10
3236.7714677614840184
 20
191.3566542687250092
 30
0.0
 40
0.0929067007251719
 50
1.168133202518743
 51
30.9340167488634101
  0
LINE
  5
1D2AF
  8
0
 10
3236.8643551540221779
 20
191.3585482979972028
 30
0.0
 11
3236.8650116685139437
 21
191.287014015727209
 31
0.0
  0
LINE
  5
1D2B0
  8
0
 10
3236.8650116685139437
 20
191.287014015727209
 30
0.0
 11
3236.8655078837218753
 21
191.232936559297201
 31
0.0
  0
ARC
  5
1D2B1
  8
0
 10
3236.18428513316303
 20
191.4078931810925042
 30
0.0
 40
0.0069694024425839
 50
204.5444948074595004
 51
246.8168760825373056
  0
ARC
  5
1D2B2
  8
0
 10
3236.1923958201919049
 20
191.4268322360036905
 30
0.0
 40
0.027572097533491
 50
246.8168760825373056
 51
259.6078698013374719
  0
ARC
  5
1D2B3
  8
0
 10
3236.1963541998438814
 20
191.4484164475352941
 30
0.0
 40
0.0495162757344164
 50
259.6078698013374719
 51
268.8147512758537232
  0
ARC
  5
1D2B4
  8
0
 10
3236.1778465424768001
 20
190.5538705441909997
 30
0.0
 40
0.8452210636961059
 50
85.7130569385583669
 51
88.8147512758537658
  0
ARC
  5
1D2B5
  8
0
 10
3236.1837202489978154
 20
190.6322271606528034
 30
0.0
 40
0.7666446055700148
 50
78.348870930912085
 51
85.7130569385583669
  0
ARC
  5
1D2B6
  8
0
 10
3236.2609811996539975
 20
191.0069153393671115
 30
0.0
 40
0.3840737157150298
 50
64.4686697761783307
 51
78.348870930912085
  0
ARC
  5
1D2B7
  8
0
 10
3236.3873359700392029
 20
191.2714512616626905
 30
0.0
 40
0.0909103104548535
 50
36.4375916965378082
 51
64.4686697761783307
  0
ARC
  5
1D2B8
  8
0
 10
3236.4384886298098536
 20
191.3092160837161089
 30
0.0
 40
0.0273274795460743
 50
8.3429180258051279
 51
36.437591696531257
  0
ARC
  5
1D2B9
  8
0
 10
3236.4436247392150108
 20
191.3099692906133953
 30
0.0
 40
0.022136435291267
 50
325.6033200101796865
 51
8.3429180258099613
  0
ARC
  5
1D2BA
  8
0
 10
3236.4094344985551288
 20
191.339879396238814
 30
0.0
 40
0.0674588926286593
 50
302.0315708044175835
 51
321.0413585286627267
  0
ARC
  5
1D2BB
  8
0
 10
3236.4562147716460458
 20
191.2664279369178075
 30
0.0
 40
0.019634148252867
 50
124.0764622237270061
 51
179.8745385065722076
  0
LINE
  5
1D2BC
  8
0
 10
3236.4365806704649913
 20
191.2664709300948118
 30
0.0
 11
3236.4363052766511828
 21
191.2364638727028989
 31
0.0
  0
LINE
  5
1D2BD
  8
0
 10
3236.4363052766511828
 20
191.2364638727028989
 30
0.0
 11
3236.4357603384219146
 21
191.1770871116972046
 31
0.0
  0
ARC
  5
1D2BE
  8
0
 10
3236.4272350429841936
 20
191.1599651193228908
 30
0.0
 40
0.0172953812052577
 50
89.0230901391292377
 51
113.7973168369684061
  0
ARC
  5
1D2BF
  8
0
 10
3236.4086048802878395
 20
190.0676356737332071
 30
0.0
 40
1.1097836880827909
 50
88.5978813310040749
 51
89.0228929508125617
  0
ARC
  5
1D2C0
  8
0
 10
3236.4788017831751858
 20
192.9355693659196049
 30
0.0
 40
1.7590089617880531
 50
268.5978813310040891
 51
269.401518030132479
  0
ARC
  5
1D2C1
  8
0
 10
3236.2113555465070931
 20
168.9025439309808121
 30
0.0
 40
22.2755049772095397
 50
88.6401433861360175
 51
89.3593356468047517
  0
ARC
  5
1D2C2
  8
0
 10
3236.7398723872202027
 20
191.1523049260532048
 30
0.0
 40
0.0194707316625731
 50
16.3246793470380283
 51
89.6474377438402286
  0
ARC
  5
1D2C3
  8
0
 10
3236.7960801444601202
 20
191.2649228585511025
 30
0.0
 40
0.0824767050056292
 50
18.1097326883493785
 51
33.5760809816957888
  0
ARC
  5
1D2C4
  8
0
 10
3236.8105511326480155
 20
191.2696554274708092
 30
0.0
 40
0.067251505246778
 50
347.4346385617715782
 51
18.1097326883509311
  0
ARC
  5
1D2C5
  8
0
 10
3236.8085044078461578
 20
191.2741370176044029
 30
0.0
 40
0.0703340175648802
 50
324.1416889235188137
 51
344.2323320919641105
  0
ARC
  5
1D2C6
  8
0
 10
3236.691696056012006
 20
191.3739913370986869
 30
0.0
 40
0.2238459331609392
 50
294.803266513793119
 51
320.9393824536932129
  0
ARC
  5
1D2C7
  8
0
 10
3236.599031602523155
 20
191.5237936473920115
 30
0.0
 40
0.399269765835017
 50
293.5497845549907083
 51
297.8575397413529799
  0
ARC
  5
1D2C8
  8
0
 10
3236.324279997370013
 20
192.2173757763343929
 30
0.0
 40
1.1451399307574961
 50
275.1793710084867257
 51
292.2863591322795855
  0
ARC
  5
1D2C9
  8
0
 10
3236.1688670854478005
 20
193.5213554451640903
 30
0.0
 40
2.458104582830027
 50
270.0135734691403968
 51
276.0432996747433094
  0
ARC
  5
1D2CA
  8
0
 10
3236.4546484678198794
 20
191.2683013502222025
 30
0.0
 40
0.0172401328203411
 50
91.8790040586870589
 51
120.0840620555471929
  0
ARC
  5
1D2CB
  8
0
 10
-1107.3253794854470016
 20
-263883.2347212734748609
 30
0.0
 40
264110.2433968234108761
 50
89.0575552398621113
 51
89.057622874433946
  0
ARC
  5
1D2CC
  8
0
 10
3236.6793806346831843
 20
191.4416814916419014
 30
0.0
 40
0.1829757407151418
 50
298.1868060947999766
 51
326.0477263887381127
  0
ARC
  5
1D2CD
  8
0
 10
3236.773403909569879
 20
191.3760646176463922
 30
0.0
 40
0.0683628687702982
 50
327.6547660366417745
 51
22.2739958367244206
  0
ARC
  5
1D2CE
  8
0
 10
3236.7254018250819172
 20
191.3517239216606924
 30
0.0
 40
0.1220859378579574
 50
24.3064789928072109
 51
51.4817861047631808
  0
ARC
  5
1D2CF
  8
0
 10
3236.2951914269829103
 20
190.755121974647011
 30
0.0
 40
0.8575048519718306
 50
53.8170695605207712
 51
60.3075029501724913
  0
ARC
  5
1D2D0
  8
0
 10
3236.762064388492945
 20
191.2571422748414136
 30
0.0
 40
0.0235615959496669
 50
3.6645742262057048
 51
80.8557177309660062
  0
LINE
  5
1D2D1
  8
0
 10
3236.7855778086977807
 20
191.258648221040005
 30
0.0
 11
3236.7856002835228537
 21
191.1707943935971912
 31
0.0
  0
ARC
  5
1D2D2
  8
0
 10
3236.6556540502751886
 20
191.4800851781645008
 30
0.0
 40
0.2567382109918539
 50
300.4014373508568951
 51
315.1411341061808002
  0
ARC
  5
1D2D3
  8
0
 10
3236.7685521095781951
 20
191.3677419466837932
 30
0.0
 40
0.0974680836804505
 50
315.141134106181994
 51
341.2941122857441769
  0
ARC
  5
1D2D4
  8
0
 10
3236.7951851704228829
 20
191.3587241024648051
 30
0.0
 40
0.0693497365679654
 50
341.2941122857457117
 51
356.3480050098448828
  0
ARC
  5
1D2D5
  8
0
 10
3236.7731075720189438
 20
191.1986665583914089
 30
0.0
 40
0.1074948613879154
 50
24.0268927377987502
 51
30.9309103134049792
  0
ARC
  5
1D2D6
  8
0
 10
3236.8682906976318918
 20
191.279018159621387
 30
0.0
 40
0.0895147999349426
 50
326.9811078289753254
 51
356.473115524497473
  0
ARC
  5
1D2D7
  8
0
 10
3236.7580614162247912
 20
191.3630527124541061
 30
0.0
 40
0.2279699781392007
 50
297.5458307738098256
 51
324.3672292903473817
  0
ARC
  5
1D2D8
  8
0
 10
3236.3694652997851335
 20
192.1780867257211867
 30
0.0
 40
1.1307856017201521
 50
275.9930900012074062
 51
295.9052655108473004
  0
ARC
  5
1D2D9
  8
0
 10
3236.1740795932669243
 20
193.4178242082853956
 30
0.0
 40
2.385029817737998
 50
270.5069930421394133
 51
277.5518681876206983
  0
ARC
  5
1D2DA
  8
0
 10
3236.1657784240660476
 20
193.4194544782735079
 30
0.0
 40
2.3867478621055138
 50
270.0881250818899275
 51
270.7059155074903174
  0
ARC
  5
1D2DB
  8
0
 10
3236.1681841150070795
 20
191.9870050723953909
 30
0.0
 40
0.8513628134046616
 50
270.0851533044918256
 51
273.3376782873255024
  0
ARC
  5
1D2DC
  8
0
 10
3236.1750008404778782
 20
192.0331860336409875
 30
0.0
 40
0.8971188027562474
 50
272.7313290768091747
 51
277.51389778292031
  0
ARC
  5
1D2DD
  8
0
 10
3236.2085563640889632
 20
191.7890092793695942
 30
0.0
 40
0.6506521822349929
 50
277.3961447014435748
 51
283.908269057307507
  0
ARC
  5
1D2DE
  8
0
 10
3236.2643906092012003
 20
191.5595331469083078
 30
0.0
 40
0.4144842183602039
 50
284.0411761997661984
 51
289.0930230529122014
  0
ARC
  5
1D2DF
  8
0
 10
3236.3080879779518
 20
191.4325010713320978
 30
0.0
 40
0.2801469227555777
 50
289.1459998843475887
 51
293.6026307057350095
  0
LINE
  5
1D2E0
  8
0
 10
3235.3790976546060847
 20
191.1551610010972126
 30
0.0
 11
3235.3813398354059245
 21
191.2777061703972095
 31
0.0
  0
ARC
  5
1D2E1
  8
0
 10
3235.4736628643918266
 20
191.2755389692098049
 30
0.0
 40
0.0923484620452006
 50
152.4214123853282103
 51
178.6552793736273088
  0
ARC
  5
1D2E2
  8
0
 10
3235.5227776207620991
 20
191.2498857620651052
 30
0.0
 40
0.1477591679606261
 50
132.5841944182598979
 51
152.4214123853282103
  0
ARC
  5
1D2E3
  8
0
 10
3235.6251256917112187
 20
191.1385214286518988
 30
0.0
 40
0.2990110849191916
 50
121.799065269330498
 51
132.5841944182610064
  0
ARC
  5
1D2E4
  8
0
 10
3235.6938841896148915
 20
191.0276212844412953
 30
0.0
 40
0.4294969961125736
 50
118.6833039164694981
 51
121.799065269330498
  0
ARC
  5
1D2E5
  8
0
 10
3236.1682001809449503
 20
190.4972188529621917
 30
0.0
 40
0.8099676543117126
 50
90.463122677520758
 51
93.073672066926207
  0
ARC
  5
1D2E6
  8
0
 10
3236.1607802629159778
 20
190.5912841159727975
 30
0.0
 40
0.7156437658099281
 50
92.8842879895472606
 51
100.086795829523993
  0
ARC
  5
1D2E7
  8
0
 10
3236.0956740045839979
 20
190.9274814739532076
 30
0.0
 40
0.3732765982438451
 50
99.2857761617001557
 51
112.845215256859305
  0
ARC
  5
1D2E8
  8
0
 10
3236.0014679059449918
 20
191.1510947883564029
 30
0.0
 40
0.1306293163731253
 50
112.8452152568586939
 51
139.1923527190108985
  0
LINE
  5
1D2E9
  8
0
 10
3236.1616532710800129
 20
191.3071600477427125
 30
0.0
 11
3236.1597940309061414
 21
191.567047654897209
 31
0.0
  0
ARC
  5
1D2EA
  8
0
 10
3236.139847105077024
 20
191.5669049542649987
 30
0.0
 40
0.0199474362640403
 50
0.4098879471535012
 51
36.8338800994615312
  0
ARC
  5
1D2EB
  8
0
 10
3236.141329196344941
 20
191.5676983403614884
 30
0.0
 40
0.0182873290240065
 50
37.6281468068372291
 51
90.5795711219516448
  0
ARC
  5
1D2EC
  8
0
 10
3236.1665985032700519
 20
189.4829780832232018
 30
0.0
 40
2.1031606912286551
 50
90.693460503726385
 51
95.7528653805477035
  0
ARC
  5
1D2ED
  8
0
 10
3236.0764217065229786
 20
190.2164374619327987
 30
0.0
 40
1.3644524509076701
 50
95.0724880549322791
 51
107.4089660413138034
  0
ARC
  5
1D2EE
  8
0
 10
3235.816729107646097
 20
191.0446633392263038
 30
0.0
 40
0.4964672265346375
 50
107.4089660413138034
 51
126.1837992601464009
  0
ARC
  5
1D2EF
  8
0
 10
3235.6224022793849144
 20
191.3226382741092095
 30
0.0
 40
0.1575474256740353
 50
128.826332884101987
 51
148.7315581169829954
  0
ARC
  5
1D2F0
  8
0
 10
3235.5674310678450638
 20
191.3566542687250092
 30
0.0
 40
0.0929067007251719
 50
149.0659832511366005
 51
178.8318667974812115
  0
LINE
  5
1D2F1
  8
0
 10
3235.4745436753059948
 20
191.3585482979972028
 30
0.0
 11
3235.4738871608151385
 21
191.287014015727209
 31
0.0
  0
LINE
  5
1D2F2
  8
0
 10
3235.4738871608151385
 20
191.287014015727209
 30
0.0
 11
3235.4733909456058427
 21
191.232936559297201
 31
0.0
  0
ARC
  5
1D2F3
  8
0
 10
3236.1546136961669617
 20
191.4078931810925042
 30
0.0
 40
0.0069694024425839
 50
293.1831239174626944
 51
335.4555051925390217
  0
ARC
  5
1D2F4
  8
0
 10
3236.1465030091380868
 20
191.4268322360036905
 30
0.0
 40
0.027572097533491
 50
280.3921301986625281
 51
293.1831239174626944
  0
ARC
  5
1D2F5
  8
0
 10
3236.1425446294852009
 20
191.4484164475352941
 30
0.0
 40
0.0495162757344164
 50
271.1852487241462768
 51
280.3921301986625281
  0
ARC
  5
1D2F6
  8
0
 10
3236.1610522868518274
 20
190.5538705441909997
 30
0.0
 40
0.8452210636961059
 50
91.1852487241462342
 51
94.2869430614416331
  0
ARC
  5
1D2F7
  8
0
 10
3236.1551785803308121
 20
190.6322271606528034
 30
0.0
 40
0.7666446055700148
 50
94.2869430614416331
 51
101.6511290690879008
  0
ARC
  5
1D2F8
  8
0
 10
3236.0779176296750848
 20
191.0069153393671115
 30
0.0
 40
0.3840737157150298
 50
101.6511290690881992
 51
115.5313302238215982
  0
ARC
  5
1D2F9
  8
0
 10
3235.9515628592898793
 20
191.2714512616626905
 30
0.0
 40
0.0909103104548535
 50
115.5313302238215982
 51
143.562408303462206
  0
ARC
  5
1D2FA
  8
0
 10
3235.9004101995187739
 20
191.3092160837161089
 30
0.0
 40
0.0273274795460743
 50
143.5624083034687999
 51
171.6570819741949094
  0
ARC
  5
1D2FB
  8
0
 10
3235.8952740901140714
 20
191.3099692906133953
 30
0.0
 40
0.022136435291267
 50
171.6570819741916125
 51
214.3966799898203135
  0
ARC
  5
1D2FC
  8
0
 10
3235.9294643307739534
 20
191.339879396238814
 30
0.0
 40
0.0674588926286593
 50
218.9586414713373017
 51
237.9684291955823028
  0
ARC
  5
1D2FD
  8
0
 10
3235.8826840576830364
 20
191.2664279369178075
 30
0.0
 40
0.019634148252867
 50
0.1254614934293784
 51
55.9235377762730295
  0
LINE
  5
1D2FE
  8
0
 10
3235.9023181588631815
 20
191.2664709300948118
 30
0.0
 11
3235.9025935526769899
 21
191.2364638727028989
 31
0.0
  0
LINE
  5
1D2FF
  8
0
 10
3235.9025935526769899
 20
191.2364638727028989
 30
0.0
 11
3235.9031384909058033
 21
191.1770871116972046
 31
0.0
  0
ARC
  5
1D300
  8
0
 10
3235.9116637863448886
 20
191.1599651193228908
 30
0.0
 40
0.0172953812052577
 50
66.2026831630315797
 51
90.9769098608707623
  0
ARC
  5
1D301
  8
0
 10
3235.930293949040788
 20
190.0676356737332071
 30
0.0
 40
1.1097836880827909
 50
90.9771070491874383
 51
91.4021186689959535
  0
ARC
  5
1D302
  8
0
 10
3235.8600970461538964
 20
192.9355693659196049
 30
0.0
 40
1.7590089617880531
 50
270.598481969841373
 51
271.4021186689959109
  0
ARC
  5
1D303
  8
0
 10
3236.1275432828219891
 20
168.9025439309808121
 30
0.0
 40
22.2755049772095397
 50
90.6406643531952625
 51
91.3598566138639683
  0
ARC
  5
1D304
  8
0
 10
3235.5990264421088796
 20
191.1523049260532048
 30
0.0
 40
0.0194707316625731
 50
90.3525622561597572
 51
163.6753206529618865
  0
ARC
  5
1D305
  8
0
 10
3235.5428186848680525
 20
191.2649228585511025
 30
0.0
 40
0.0824767050056292
 50
146.4239190183041899
 51
161.8902673116506037
  0
ARC
  5
1D306
  8
0
 10
3235.5283476966810667
 20
191.2696554274708092
 30
0.0
 40
0.067251505246778
 50
161.8902673116490973
 51
192.5653614382268017
  0
ARC
  5
1D307
  8
0
 10
3235.5303944214829244
 20
191.2741370176044029
 30
0.0
 40
0.0703340175648802
 50
195.7676679080342979
 51
215.8583110764811863
  0
ARC
  5
1D308
  8
0
 10
3235.6472027733161667
 20
191.3739913370986869
 30
0.0
 40
0.2238459331609392
 50
219.0606175463067871
 51
245.1967334862067958
  0
ARC
  5
1D309
  8
0
 10
3235.7398672268059272
 20
191.5237936473920115
 30
0.0
 40
0.399269765835017
 50
242.1424602586469916
 51
246.4502154450092917
  0
ARC
  5
1D30A
  8
0
 10
3236.0146188319590692
 20
192.2173757763343929
 30
0.0
 40
1.1451399307574961
 50
247.713640867720386
 51
264.8206289915132743
  0
ARC
  5
1D30B
  8
0
 10
3236.170031743880827
 20
193.5213554451640903
 30
0.0
 40
2.458104582830027
 50
263.9567003252566906
 51
269.9864265308596032
  0
ARC
  5
1D30C
  8
0
 10
3235.8842503615101123
 20
191.2683013502222025
 30
0.0
 40
0.0172401328203411
 50
59.9159379444527787
 51
88.1209959413129553
  0
ARC
  5
1D30D
  8
0
 10
7579.6642783147763112
 20
-263883.2347212734748609
 30
0.0
 40
264110.2433968234108761
 50
90.9423771255660682
 51
90.9424447601378887
  0
ARC
  5
1D30E
  8
0
 10
3235.6595181946449884
 20
191.4416814916419014
 30
0.0
 40
0.1829757407151418
 50
213.9522736112618873
 51
241.8131939051991992
  0
ARC
  5
1D30F
  8
0
 10
3235.5654949197592032
 20
191.3760646176463922
 30
0.0
 40
0.0683628687702982
 50
157.7260041632756042
 51
212.3452339633568045
  0
ARC
  5
1D310
  8
0
 10
3235.613497004247165
 20
191.3517239216606924
 30
0.0
 40
0.1220859378579574
 50
128.518213895236812
 51
155.6935210071912934
  0
ARC
  5
1D311
  8
0
 10
3236.0437074023461719
 20
190.755121974647011
 30
0.0
 40
0.8575048519718306
 50
119.6924970498274945
 51
126.1829304394791933
  0
ARC
  5
1D312
  8
0
 10
3235.5768344408361372
 20
191.2571422748414136
 30
0.0
 40
0.0235615959496669
 50
99.1442822690339796
 51
176.3354257737942987
  0
LINE
  5
1D313
  8
0
 10
3235.5533210206308468
 20
191.258648221040005
 30
0.0
 11
3235.5532985458057738
 21
191.1707943935971912
 31
0.0
  0
ARC
  5
1D314
  8
0
 10
3235.6832447790529841
 20
191.4800851781645008
 30
0.0
 40
0.2567382109918539
 50
224.858865893818006
 51
239.5985626491431049
  0
ARC
  5
1D315
  8
0
 10
3235.5703467197508871
 20
191.3677419466837932
 30
0.0
 40
0.0974680836804505
 50
198.7058877142557094
 51
224.858865893818006
  0
ARC
  5
1D316
  8
0
 10
3235.5437136589061993
 20
191.3587241024648051
 30
0.0
 40
0.0693497365679654
 50
183.6519949901534972
 51
198.705887714254203
  0
ARC
  5
1D317
  8
0
 10
3235.5657912573101385
 20
191.1986665583914089
 30
0.0
 40
0.1074948613879154
 50
149.0690896865949924
 51
155.9731072622012107
  0
ARC
  5
1D318
  8
0
 10
3235.4681395635111585
 20
191.2778329879519106
 30
0.0
 40
0.0867998207479644
 50
180.0837111548634084
 51
213.2508523839869952
  0
ARC
  5
1D319
  8
0
 10
3235.5808374131052005
 20
191.3630527124541061
 30
0.0
 40
0.2279699781392007
 50
215.6327707096525899
 51
242.4541692261902028
  0
ARC
  5
1D31A
  8
0
 10
3235.9694335295430392
 20
192.1780867257211867
 30
0.0
 40
1.1307856017201521
 50
244.0947344891526996
 51
264.0069099987925938
  0
ARC
  5
1D31B
  8
0
 10
3236.1648192360621579
 20
193.4178242082853956
 30
0.0
 40
2.385029817737998
 50
262.448131812379188
 51
269.4930069578605867
  0
ARC
  5
1D31C
  8
0
 10
3236.1731204052621251
 20
193.4194544782735079
 30
0.0
 40
2.3867478621055138
 50
269.2940844925096258
 51
269.9118749181100725
  0
ARC
  5
1D31D
  8
0
 10
3236.1707147143220027
 20
191.9870050723953909
 30
0.0
 40
0.8513628134046616
 50
266.6623217126743839
 51
269.9148466955081744
  0
ARC
  5
1D31E
  8
0
 10
3236.163897988851204
 20
192.0331860336409875
 30
0.0
 40
0.8971188027562474
 50
262.48610221707969
 51
267.2686709231907116
  0
ARC
  5
1D31F
  8
0
 10
3236.1303424652392096
 20
191.7890092793695942
 30
0.0
 40
0.6506521822349929
 50
256.0917309426923794
 51
262.6038552985564252
  0
ARC
  5
1D320
  8
0
 10
3236.0745082201278819
 20
191.5595331469083078
 30
0.0
 40
0.4144842183602039
 50
250.9069769470877134
 51
255.9588238002338016
  0
ARC
  5
1D321
  8
0
 10
3236.0308108513768275
 20
191.4325010713320978
 30
0.0
 40
0.2801469227555777
 50
246.3973692942649905
 51
250.8540001156522976
  0
ARC
  5
1D322
  8
0
 10
3235.8794426497229324
 20
191.5491787772971009
 30
0.0
 40
0.0196850394000661
 50
90.0000000000781455
 51
127.5122614873497042
  0
LINE
  5
1D323
  8
0
 10
3235.8794426497229324
 20
191.5688638166971884
 30
0.0
 11
3235.8956637309679536
 21
191.5688638166971884
 31
0.0
  0
ARC
  5
1D324
  8
0
 10
3235.5842755264711741
 20
188.9268837050211971
 30
0.0
 40
2.1741030133407619
 50
96.4921354409177496
 51
98.5800191466535978
  0
ARC
  5
1D325
  8
0
 10
3235.2576758835989494
 20
194.0185100087753085
 30
0.0
 40
2.8353388737462031
 50
271.161627231008822
 51
272.4657471282727101
  0
LINE
  5
1D326
  8
0
 10
3234.461941966125778
 20
191.210961991729107
 30
0.0
 11
3235.3801186325081289
 21
191.210961991729107
 31
0.0
  0
LINE
  5
1D327
  8
0
 10
3236.1600734251260292
 20
191.5279934776091864
 30
0.0
 11
3236.1788254087600762
 21
191.5279941146627891
 31
0.0
  0
ARC
  5
1D328
  8
0
 10
3233.5751864911039775
 20
175.0234503798625951
 30
0.0
 40
0.3937028336037604
 50
180.0001164147369082
 51
359.8003477071245015
  0
ARC
  5
1D329
  8
0
 10
3233.5751864911039775
 20
175.0234503798625951
 30
0.0
 40
0.4351021209479278
 50
154.8033061415711131
 51
25.1974410037787706
  0
ARC
  5
1D32A
  8
0
 10
3233.5751844449009695
 20
175.0234495799290926
 30
0.0
 40
0.7185039370000004
 50
123.226159369179797
 51
56.7738406308201604
  0
ARC
  5
1D32B
  8
0
 10
3233.5751844449009695
 20
175.0234495799290926
 30
0.0
 40
5.0019685038999988
 50
94.5143729166205588
 51
85.4856078154936228
  0
CIRCLE
  5
1D32C
  8
0
 10
3228.9275466496010267
 20
175.0234495799290926
 30
0.0
 40
0.1653543306999978
  0
CIRCLE
  5
1D32D
  8
0
 10
3228.9275466496010267
 20
175.0234495799290926
 30
0.0
 40
0.1181102362000033
  0
CIRCLE
  5
1D32E
  8
0
 10
3231.2503812953000306
 20
179.0467172038291039
 30
0.0
 40
0.1653543306999978
  0
CIRCLE
  5
1D32F
  8
0
 10
3231.2503812953000306
 20
179.0467172038291039
 30
0.0
 40
0.1181102362000033
  0
CIRCLE
  5
1D330
  8
0
 10
3235.8960505866011772
 20
179.0467172038291039
 30
0.0
 40
0.1653543306999978
  0
CIRCLE
  5
1D331
  8
0
 10
3235.8960505866011772
 20
179.0467172038291039
 30
0.0
 40
0.1181102362000033
  0
CIRCLE
  5
1D332
  8
0
 10
3238.2188852323010906
 20
175.0234495799290926
 30
0.0
 40
0.1653543306999978
  0
CIRCLE
  5
1D333
  8
0
 10
3238.2188852323010906
 20
175.0234495799290926
 30
0.0
 40
0.1181102362000033
  0
CIRCLE
  5
1D334
  8
0
 10
3235.8960505866011772
 20
171.0001819560291096
 30
0.0
 40
0.1653543306999978
  0
CIRCLE
  5
1D335
  8
0
 10
3235.8960505866011772
 20
171.0001819560291096
 30
0.0
 40
0.1181102362000033
  0
CIRCLE
  5
1D336
  8
0
 10
3231.2503812953000306
 20
171.0001819560291096
 30
0.0
 40
0.1653543306999978
  0
CIRCLE
  5
1D337
  8
0
 10
3231.2503812953000306
 20
171.0001819560291096
 30
0.0
 40
0.1181102362000033
  0
ARC
  5
1D338
  8
0
 10
3233.5751844449009695
 20
175.0234495799290926
 30
0.0
 40
0.5039370078999998
 50
141.3751671229707085
 51
38.6248328770293128
  0
ARC
  5
1D339
  8
0
 10
3233.5751844449009695
 20
175.0234495799290926
 30
0.0
 40
0.4960629920999997
 50
142.5280048208047106
 51
37.4719951791952326
  0
LINE
  5
1D33A
  8
0
 10
3229.8500890525010618
 20
194.1176365215625879
 30
0.0
 11
3229.8470309559688758
 21
193.8481177213741091
 31
0.0
  0
ARC
  5
1D33B
  8
0
 10
3229.8880472686478242
 20
193.8476340533842972
 30
0.0
 40
0.0410191643074256
 50
179.3243944101257057
 51
221.990199029180701
  0
LINE
  5
1D33C
  8
0
 10
3229.8575593943010063
 20
193.820192089929094
 30
0.0
 11
3229.9171035380009016
 21
193.7228705322291091
 31
0.0
  0
ARC
  5
1D33D
  8
0
 10
3229.9419237573038117
 20
193.738437595340514
 30
0.0
 40
0.029298067174456
 50
212.095641189815808
 51
247.4233394355603934
  0
LINE
  5
1D33E
  8
0
 10
3231.3947680263008806
 20
194.1176365215625879
 30
0.0
 11
3231.3978261228321571
 21
193.8481177213741091
 31
0.0
  0
ARC
  5
1D33F
  8
0
 10
3231.3568098101532087
 20
193.8476340533842972
 30
0.0
 40
0.0410191643074256
 50
318.009800970819299
 51
0.6756055898726419
  0
LINE
  5
1D340
  8
0
 10
3231.3872976845009362
 20
193.820192089929094
 30
0.0
 11
3231.3277535408010408
 21
193.7228705322291091
 31
0.0
  0
ARC
  5
1D341
  8
0
 10
3231.3029333214981307
 20
193.738437595340514
 30
0.0
 40
0.029298067174456
 50
292.5766605644395781
 51
327.904358810184192
  0
LINE
  5
1D342
  8
0
 10
3233.5751844449009695
 20
194.1176365215625879
 30
0.0
 11
3233.5751844449009695
 21
193.7113383031291107
 31
0.0
  0
ARC
  5
1D343
  8
0
 10
3233.5751844449009695
 20
175.0214810761291062
 30
0.0
 40
4.9350393700000001
 50
94.5757265740410986
 51
85.4242538950750117
  0
LINE
  5
1D344
  8
0
 10
3234.0673104291008713
 20
193.7074759240290973
 30
0.0
 11
3234.0673104291008713
 21
192.0507073877625999
 31
0.0
  0
LINE
  5
1D345
  8
0
 10
3233.2602238150011544
 20
192.0507073877625999
 30
0.0
 11
3233.2602238150011544
 21
191.3541453513271904
 31
0.0
  0
LINE
  5
1D346
  8
0
 10
3233.8901450748007846
 20
192.0507073877625999
 30
0.0
 11
3233.8901450748007846
 21
191.3561240149300886
 31
0.0
  0
ARC
  5
1D347
  8
0
 10
3233.2125971093009866
 20
191.3545668837361973
 30
0.0
 40
0.0476285711032796
 50
311.9029811080171157
 51
359.4929022129985015
  0
ARC
  5
1D348
  8
0
 10
3229.7823292501448122
 20
191.5225211635896869
 30
0.0
 40
0.2000490733451667
 50
270.5667544833415263
 51
2.5227218338937161
  0
LINE
  5
1D349
  8
0
 10
3229.3232164911041764
 20
191.283111131562606
 30
0.0
 11
3229.3232164911041764
 21
189.3974105153625942
 31
0.0
  0
ARC
  5
1D34A
  8
0
 10
3232.9715576460098418
 20
190.6431280301758875
 30
0.0
 40
0.0353339454816068
 50
201.3640443406403904
 51
212.6227203628405107
  0
LINE
  5
1D34B
  8
0
 10
3232.9417980302719116
 20
190.624079330103001
 30
0.0
 11
3233.1813232941849492
 21
190.2433399419651892
 31
0.0
  0
ARC
  5
1D34C
  8
0
 10
3233.5751844449009695
 20
190.7632661772290987
 30
0.0
 40
0.787401574799978
 50
113.5781784766144966
 51
239.9985259983023127
  0
LINE
  5
1D34D
  8
0
 10
3233.9811251758578692
 20
191.2639910695349101
 30
0.0
 11
3234.2038943483348703
 21
190.9098898265781088
 31
0.0
  0
LINE
  5
1D34E
  8
0
 10
3232.8917402145339111
 20
191.1542971529543138
 30
0.0
 11
3232.783157993174882
 21
191.2164222102290978
 31
0.0
  0
LINE
  5
1D34F
  8
0
 10
3232.783157993174882
 20
191.2164222102290978
 30
0.0
 11
3230.6221844456008512
 21
191.2164222102290978
 31
0.0
  0
ARC
  5
1D350
  8
0
 10
3230.6479936634091246
 20
191.6941902588355902
 30
0.0
 40
0.4784646528147169
 50
228.0988149974010923
 51
266.9078649551232729
  0
ARC
  5
1D351
  8
0
 10
3270.9409345354879406
 20
263.7845985766333001
 30
0.0
 40
83.0534359529382442
 50
240.4514161050259986
 51
240.7256365780662009
  0
LINE
  5
1D352
  8
0
 10
3229.4575220655010526
 20
190.0913791769291095
 30
0.0
 11
3233.1646127717108357
 21
190.0913791769291095
 31
0.0
  0
ARC
  5
1D353
  8
0
 10
3229.4720812375358037
 20
190.1971540725868977
 30
0.0
 40
0.1067721782197071
 50
246.4760637680629998
 51
262.1628834033746784
  0
LINE
  5
1D354
  8
0
 10
3229.4294650284100499
 20
190.0992553659486077
 30
0.0
 11
3229.3342834466429849
 21
190.1341514253784908
 31
0.0
  0
ARC
  5
1D355
  8
0
 10
3229.3460479846089584
 20
190.1558679632628071
 30
0.0
 40
0.0248229741990693
 50
203.095778615275492
 51
241.7095090123681871
  0
LINE
  5
1D356
  8
0
 10
3237.8865376187841321
 20
194.1176819546626007
 30
0.0
 11
3235.1693431322842116
 21
194.1176819546626007
 31
0.0
  0
LINE
  5
1D357
  8
0
 10
3235.1693431322842116
 20
194.1176819546626007
 30
0.0
 11
3235.1693436105829278
 21
193.8482404620291106
 31
0.0
  0
ARC
  5
1D358
  8
0
 10
3235.2087617597408098
 20
193.8482405347511133
 30
0.0
 40
0.0394181491573149
 50
180.000105704146506
 51
225.3999675762015045
  0
LINE
  5
1D359
  8
0
 10
3235.1810841700839774
 20
193.8201738015291085
 30
0.0
 11
3235.277513012838881
 21
193.7226979229681092
 31
0.0
  0
ARC
  5
1D35A
  8
0
 10
3235.3050974078910258
 20
193.7506701512805876
 30
0.0
 40
0.0392854223241483
 50
225.3999675762003108
 51
269.9651366421948069
  0
LINE
  5
1D35B
  8
0
 10
3235.3050735034839818
 20
193.7113847362290926
 30
0.0
 11
3237.7507938923831716
 21
193.7113847362290926
 31
0.0
  0
ARC
  5
1D35C
  8
0
 10
3237.7507946751420604
 20
193.7507389229380976
 30
0.0
 40
0.0393541867167825
 50
269.9988603821136053
 51
314.596555123016401
  0
LINE
  5
1D35D
  8
0
 10
3237.7784256526838362
 20
193.7227160556290926
 30
0.0
 11
3237.8748281901598602
 21
193.8201544540308134
 31
0.0
  0
ARC
  5
1D35E
  8
0
 10
3237.8472303891448973
 20
193.8481436742702897
 30
0.0
 40
0.0393069341268808
 50
314.5965551230141273
 51
0.1406827594018349
  0
LINE
  5
1D35F
  8
0
 10
3237.8865372047830533
 20
193.8482401875290861
 30
0.0
 11
3237.8865376187841321
 21
194.1176819546626007
 31
0.0
  0
ARC
  5
1D360
  8
0
 10
3237.484822430893928
 20
193.5143543959601971
 30
0.0
 40
0.1970303408914982
 50
90.0045546942636463
 51
178.9913297907862102
  0
LINE
  5
1D361
  8
0
 10
3237.2878226212837944
 20
193.5178228603290904
 30
0.0
 11
3237.2766679637989
 21
192.8967899371351109
 31
0.0
  0
ARC
  5
1D362
  8
0
 10
3237.2569806381729904
 20
192.8971365607567066
 30
0.0
 40
0.0196903767929484
 50
270.3355148414926248
 51
358.9913297907846186
  0
LINE
  5
1D363
  8
0
 10
3237.2570959411841613
 20
192.8774465215626037
 30
0.0
 11
3235.7994569528591455
 21
192.8774465215626037
 31
0.0
  0
ARC
  5
1D364
  8
0
 10
3235.7988199085430097
 20
192.89715681840309
 30
0.0
 40
0.0197205889110937
 50
181.0715915408547119
 51
271.8511770544769206
  0
LINE
  5
1D365
  8
0
 10
3235.779102768609846
 20
192.8967880096626004
 30
0.0
 11
3235.7672523523769996
 21
193.5178085476539138
 31
0.0
  0
ARC
  5
1D366
  8
0
 10
3235.5699853607047771
 20
193.5141186721957922
 30
0.0
 40
0.1973014981803828
 50
1.071591540856353
 51
88.9140997564197733
  0
LINE
  5
1D367
  8
0
 10
3237.8749121844871297
 20
193.8202375230291068
 30
0.0
 11
3235.1810083486861913
 21
193.8202375230291068
 31
0.0
  0
LINE
  5
1D368
  8
0
 10
3237.3002798372008328
 20
194.1176365215625879
 30
0.0
 11
3237.3033379337321094
 21
193.8481177213741091
 31
0.0
  0
ARC
  5
1D369
  8
0
 10
3237.2623216210540704
 20
193.8476340533842972
 30
0.0
 40
0.0410191643074256
 50
318.009800970819299
 51
0.6756055898726419
  0
LINE
  5
1D36A
  8
0
 10
3237.2928094953999789
 20
193.820192089929094
 30
0.0
 11
3237.2332653517009931
 21
193.7228705322291091
 31
0.0
  0
ARC
  5
1D36B
  8
0
 10
3237.2084451323980829
 20
193.738437595340514
 30
0.0
 40
0.029298067174456
 50
292.5766605644395781
 51
327.904358810184192
  0
LINE
  5
1D36C
  8
0
 10
3235.7556008634010141
 20
194.1176365215625879
 30
0.0
 11
3235.752542766868828
 21
193.8481177213741091
 31
0.0
  0
ARC
  5
1D36D
  8
0
 10
3235.7935590795477765
 20
193.8476340533842972
 30
0.0
 40
0.0410191643074256
 50
179.3243944101257057
 51
221.990199029180701
  0
LINE
  5
1D36E
  8
0
 10
3235.7630712052009585
 20
193.820192089929094
 30
0.0
 11
3235.8226153489008539
 21
193.7228705322291091
 31
0.0
  0
ARC
  5
1D36F
  8
0
 10
3235.8474355682042187
 20
193.738437595340514
 30
0.0
 40
0.029298067174456
 50
212.095641189815808
 51
247.4233394355603934
  0
LINE
  5
1D370
  8
0
 10
3237.1681844449008167
 20
191.7554317971626006
 30
0.0
 11
3237.1681844449008167
 21
191.5332661848291025
 31
0.0
  0
ARC
  5
1D371
  8
0
 10
3237.3681844525008273
 20
191.5332661848291025
 30
0.0
 40
0.2000000075999964
 50
180.0
 51
269.9999986821849234
  0
LINE
  5
1D372
  8
0
 10
3237.3681844479010579
 20
191.3332661772290919
 30
0.0
 11
3237.7877843662008672
 21
191.3332661675783015
 31
0.0
  0
ARC
  5
1D373
  8
0
 10
3237.7877843652950105
 20
191.2938960879727972
 30
0.0
 40
0.0393700796055114
 50
0.0000152171838286
 51
89.9999986821849518
  0
LINE
  5
1D374
  8
0
 10
3237.8271544449012254
 20
191.2938960984290873
 30
0.0
 11
3237.8271544630861172
 21
191.2254252136260106
 31
0.0
  0
LINE
  5
1DA98
  8
0
 10
3229.9821844449002128
 20
191.5313264390395034
 30
0.0
 11
3229.9821844449002128
 21
191.7554317971626006
 31
0.0
  0
LINE
  5
1DA99
  8
0
 10
3229.9821844449002128
 20
191.7554317971626006
 30
0.0
 11
3231.1458342224041189
 21
191.7554317971626006
 31
0.0
  0
LINE
  5
1DA9A
  8
0
 10
3231.1458342224041189
 20
191.7554317971626006
 30
0.0
 11
3231.1458342224041189
 21
191.7940064387206007
 31
0.0
  0
LINE
  5
1DA9B
  8
0
 10
3231.1458342224041189
 20
191.7940064387206007
 30
0.0
 11
3233.2602258611041179
 21
191.794006438762608
 31
0.0
  0
LINE
  5
1DA9C
  8
0
 10
3234.0673124753029697
 20
192.0507073877625999
 30
0.0
 11
3233.0830605068040313
 21
192.0507073877625999
 31
0.0
  0
LINE
  5
1DA9D
  8
0
 10
3233.0830605068040313
 20
192.0507073877625999
 30
0.0
 11
3233.0830605068040313
 21
193.7113383031291107
 31
0.0
  0
LINE
  5
1DA9E
  8
0
 10
3231.2621943651029142
 20
192.8774465215626037
 30
0.0
 11
3231.2621943651029142
 21
192.3872778164626141
 31
0.0
  0
LINE
  5
1DA9F
  8
0
 10
3231.2621943651029142
 20
192.3872778164626141
 30
0.0
 11
3231.2129817667041607
 21
192.3459829782626116
 31
0.0
  0
LINE
  5
1DAA0
  8
0
 10
3231.2129817667041607
 20
192.3459829782626116
 30
0.0
 11
3231.2129817667041607
 21
191.8735420333626109
 31
0.0
  0
LINE
  5
1DAA1
  8
0
 10
3231.2129817667041607
 20
191.8735420333626109
 30
0.0
 11
3230.0318794045037976
 21
191.8735420333626109
 31
0.0
  0
LINE
  5
1DAA2
  8
0
 10
3230.0318794045037976
 20
191.8735420333626109
 30
0.0
 11
3230.0318794045037976
 21
192.3459829782626116
 31
0.0
  0
LINE
  5
1DAA3
  8
0
 10
3230.0318794045037976
 20
192.3459829782626116
 30
0.0
 11
3229.9826668060040902
 21
192.3872772514625922
 31
0.0
  0
LINE
  5
1DAA4
  8
0
 10
3229.9826668060040902
 20
192.3872772514625922
 30
0.0
 11
3229.9826668060040902
 21
192.8774465215626037
 31
0.0
  0
LINE
  5
1DAA5
  8
0
 10
3235.8881786171041313
 20
192.8774465215626037
 30
0.0
 11
3235.8881786171041313
 21
192.3872772514625922
 31
0.0
  0
LINE
  5
1DAA6
  8
0
 10
3235.8881786171041313
 20
192.3872772514625922
 30
0.0
 11
3235.9373912155037942
 21
192.3459829782626116
 31
0.0
  0
LINE
  5
1DAA7
  8
0
 10
3235.9373912155037942
 20
192.3459829782626116
 30
0.0
 11
3235.9373912155037942
 21
191.8735420333626109
 31
0.0
  0
LINE
  5
1DAA8
  8
0
 10
3235.9373912155037942
 20
191.8735420333626109
 30
0.0
 11
3237.1184935777041574
 21
191.8735420333626109
 31
0.0
  0
LINE
  5
1DAA9
  8
0
 10
3237.1184935777041574
 20
191.8735420333626109
 30
0.0
 11
3237.1184935777041574
 21
192.3459829782626116
 31
0.0
  0
LINE
  5
1DAAA
  8
0
 10
3237.1184935777041574
 20
192.3459829782626116
 30
0.0
 11
3237.1677061761038203
 21
192.3872778164626141
 31
0.0
  0
LINE
  5
1DAAB
  8
0
 10
3237.1677061761038203
 20
192.3872778164626141
 30
0.0
 11
3237.1677061761038203
 21
192.8774465215626037
 31
0.0
  0
LINE
  5
1DAAC
  8
0
 10
3237.1681864911029152
 20
191.7554317971626006
 30
0.0
 11
3236.0791234753041863
 21
191.7554317971626006
 31
0.0
  0
LINE
  5
1DAAD
  8
0
 10
3236.0791234753041863
 20
191.7554317971626006
 30
0.0
 11
3236.0791234753041863
 21
191.794006438762608
 31
0.0
  0
LINE
  5
1DAAE
  8
0
 10
3236.0791234753041863
 20
191.794006438762608
 30
0.0
 11
3233.8901450748007846
 21
191.794006438762608
 31
0.0
  0
LINE
  5
1DAAF
  8
0
 10
3236.9511707430037859
 20
191.8735420333626109
 30
0.0
 11
3236.9511707430037859
 21
191.7810223483625975
 31
0.0
  0
LINE
  5
1DAB0
  8
0
 10
3236.9511707430037859
 20
191.7810223483625975
 30
0.0
 11
3236.9413282234040707
 21
191.7711798286626106
 31
0.0
  0
LINE
  5
1DAB1
  8
0
 10
3236.9413282234040707
 20
191.7711798286626106
 30
0.0
 11
3236.9413282234040707
 21
191.7554317971626006
 31
0.0
  0
LINE
  5
1DAB2
  8
0
 10
3236.9413282234040707
 20
191.7711798286626106
 30
0.0
 11
3236.1145565698038808
 21
191.7711798286626106
 31
0.0
  0
LINE
  5
1DAB3
  8
0
 10
3236.1145565698038808
 20
191.7711798286626106
 30
0.0
 11
3236.1145565698038808
 21
191.7554317971626006
 31
0.0
  0
LINE
  5
1DAB4
  8
0
 10
3236.1145565698038808
 20
191.7711798286626106
 30
0.0
 11
3236.1047140501041213
 21
191.7810223483625975
 31
0.0
  0
LINE
  5
1DAB5
  8
0
 10
3236.1047140501041213
 20
191.7810223483625975
 30
0.0
 11
3236.1047140501041213
 21
191.8735420333626109
 31
0.0
  0
LINE
  5
1DAB6
  8
0
 10
3236.1047140501041213
 20
191.7810223483625975
 30
0.0
 11
3236.9511707430037859
 21
191.7810223483625975
 31
0.0
  0
LINE
  5
1DAB7
  8
0
 10
3230.1992022391041246
 20
191.8735420333626109
 30
0.0
 11
3230.1992022391041246
 21
191.7810223483625975
 31
0.0
  0
LINE
  5
1DAB8
  8
0
 10
3230.1992022391041246
 20
191.7810223483625975
 30
0.0
 11
3230.2090447588038842
 21
191.7711798286626106
 31
0.0
  0
LINE
  5
1DAB9
  8
0
 10
3230.2090447588038842
 20
191.7711798286626106
 30
0.0
 11
3230.2090447588038842
 21
191.7554317971626006
 31
0.0
  0
LINE
  5
1DABA
  8
0
 10
3230.1992022391041246
 20
191.7810223483625975
 30
0.0
 11
3231.0456589320037892
 21
191.7810223483625975
 31
0.0
  0
LINE
  5
1DABB
  8
0
 10
3231.0456589320037892
 20
191.7810223483625975
 30
0.0
 11
3231.0456589320037892
 21
191.8735420333626109
 31
0.0
  0
LINE
  5
1DABC
  8
0
 10
3231.0456589320037892
 20
191.7810223483625975
 30
0.0
 11
3231.0358164123040297
 21
191.7711798286626106
 31
0.0
  0
LINE
  5
1DABD
  8
0
 10
3231.0358164123040297
 20
191.7711798286626106
 30
0.0
 11
3231.0358164123040297
 21
191.7554317971626006
 31
0.0
  0
LINE
  5
1DABE
  8
0
 10
3231.0358164123040297
 20
191.7711798286626106
 30
0.0
 11
3230.2090447588038842
 21
191.7711798286626106
 31
0.0
  0
ARC
  5
1DABF
  8
0
 10
772.0398370786715532
 20
24756.4559109692418133
 30
0.0
 40
24688.6746487710588553
 50
275.729968637223692
 51
275.7325793041677002
  0
ARC
  5
1DAC0
  8
0
 10
11341.9454806795092736
 20
-80534.5104282457468798
 30
0.0
 40
81131.5053641184058506
 50
95.7295293661924802
 51
95.7325793041677144
  0
ARC
  5
1DAC1
  8
0
 10
3242.4286230937568689
 20
191.4007542516307865
 30
0.0
 40
0.2858767204617278
 50
281.9371489541400138
 51
100.0865557347144943
  0
LINE
  5
1DAC2
  8
0
 10
3242.4877534285042202
 20
191.1210595916626005
 30
0.0
 11
3238.2822666587239837
 21
190.6970110177352922
 31
0.0
  0
LINE
  5
1DAC3
  8
0
 10
3237.8744005856028707
 20
191.2301717882625951
 30
0.0
 11
3237.8744005855041905
 21
191.3024152360353867
 31
0.0
  0
ARC
  5
1DAC4
  8
0
 10
3237.8940856249041644
 20
191.3024152360625862
 30
0.0
 40
0.0196850394000041
 50
90.0
 51
180.0000000793116897
  0
LINE
  5
1DAC5
  8
0
 10
3237.8940856249041644
 20
191.3221002754625886
 30
0.0
 11
3238.5851833257029284
 21
191.3088341500626086
 31
0.0
  0
ARC
  5
1DAC6
  8
0
 10
3238.5849633414040909
 20
191.3008541396889086
 30
0.0
 40
0.0079830283002175
 50
45.6689720786872329
 51
88.4328489880394528
  0
ARC
  5
1DAC7
  8
0
 10
3238.5540634355279508
 20
191.2761811794059099
 30
0.0
 40
0.0474744742644065
 50
33.4634919445665417
 51
39.7913042027591075
  0
LINE
  5
1DAC8
  8
0
 10
3238.6128530036039592
 20
191.3042800040626048
 30
0.0
 11
3238.6128530036039592
 21
191.3487987849626109
 31
0.0
  0
ARC
  5
1DAC9
  8
0
 10
3238.631269476610214
 20
191.3487987849626109
 30
0.0
 40
0.0184164730063596
 50
130.6426321305710871
 51
179.9999999999836859
  0
LINE
  5
1DACA
  8
0
 10
3238.6192741097038379
 20
191.3627729629625946
 30
0.0
 11
3238.6827601878740097
 21
191.4241014727616914
 31
0.0
  0
ARC
  5
1DACB
  8
0
 10
3238.6964971833608615
 20
191.4101820379516994
 30
0.0
 40
0.0195564748980132
 50
88.8758805397821163
 51
134.6220462475559998
  0
ARC
  5
1DACC
  8
0
 10
3241.2974577932350257
 20
323.962770282648421
 30
0.0
 40
132.5585474731603881
 50
268.8758805397820879
 51
269.1241238676796002
  0
ARC
  5
1DACD
  8
0
 10
3239.2708255569400535
 20
191.4001576291447861
 30
0.0
 40
0.0195559668269986
 50
43.8192862714624809
 51
89.1241238676795859
  0
ARC
  5
1DACE
  8
0
 10
3245.6885224577349618
 20
197.5586558825580141
 30
0.0
 40
8.8750454434539172
 50
223.819286271462488
 51
224.1624586153839971
  0
ARC
  5
1DACF
  8
0
 10
9623.1463319760659942
 20
-322400.8079306266154163
 30
0.0
 40
322653.3540360893821344
 50
91.1336246924245046
 51
91.1337984268491965
  0
ARC
  5
1DAD0
  8
0
 10
3239.7093104960158598
 20
189.4252899419101084
 30
0.0
 40
0.0309434068347487
 50
271.7667333859284895
 51
315.1537594432934952
  0
LINE
  5
1DAD1
  8
0
 10
3239.7312494281040927
 20
189.4034684459626021
 30
0.0
 11
3239.8344841982038815
 21
189.5101954728625913
 31
0.0
  0
ARC
  5
1DAD2
  8
0
 10
3239.8129961418271705
 20
189.5309804101405859
 30
0.0
 40
0.0298956549437295
 50
315.9529025266115241
 51
359.7643191918979255
  0
LINE
  5
1DAD3
  8
0
 10
3239.8428915438507829
 20
189.5308574375183923
 30
0.0
 11
3239.8429007210411328
 21
190.8543732173511103
 31
0.0
  0
LINE
  5
1DAD4
  8
0
 10
3239.7310629583198534
 20
189.4032825610970008
 30
0.0
 11
3239.7310629583198534
 21
190.8430963672767007
 31
0.0
  0
ARC
  5
1DAD5
  8
0
 10
3228.8834694965958079
 20
191.3193360860566088
 30
0.0
 40
0.0199999999902719
 50
207.5313752235074105
 51
269.0000001042866984
  0
ARC
  5
1DAD6
  8
0
 10
3228.8422893787010253
 20
191.2981489459976956
 30
0.0
 40
0.0263113743041152
 50
26.9935007934504192
 51
49.4059334785143776
  0
ARC
  5
1DAD7
  8
0
 10
3162.4283159811811856
 20
120.0942997118235951
 30
0.0
 40
97.395708352700936
 50
46.994062891316581
 51
47.1328021991692694
  0
ARC
  5
1DAD8
  8
0
 10
3228.6663283686671093
 20
191.4568030233434968
 30
0.0
 40
0.0300000002533176
 50
47.1000000940416896
 51
91.0999997351521955
  0
LINE
  5
1DAD9
  8
0
 10
3228.6657524453889891
 20
191.486797494960399
 30
0.0
 11
3227.6193491898320644
 21
191.4667055260262885
 31
0.0
  0
ARC
  5
1DADA
  8
0
 10
3227.6199250217969166
 20
191.4367158100218944
 30
0.0
 40
0.0299952437642295
 50
91.1000000001292847
 51
135.0088393814673964
  0
LINE
  5
1DADB
  8
0
 10
3227.5987119096039351
 20
191.4579223778625874
 30
0.0
 11
3227.3163037121807974
 21
191.1754270292047124
 31
0.0
  0
ARC
  5
1DADC
  8
0
 10
3227.337636622581158
 20
191.1541007001150945
 30
0.0
 40
0.0301646378820561
 50
135.0088393814731944
 51
179.7005753572020978
  0
LINE
  5
1DADD
  8
0
 10
3227.3074723966042257
 20
191.1542583381626059
 30
0.0
 11
3227.3074723966042257
 21
189.5315596550595956
 31
0.0
  0
ARC
  5
1DADE
  8
0
 10
3227.3559445442051583
 20
189.538314831753695
 30
0.0
 40
0.0489405915905748
 50
187.9337567112605996
 51
215.0693830985464956
  0
LINE
  5
1DADF
  8
0
 10
3227.3158887811041495
 20
189.5101951349626006
 30
0.0
 11
3227.419171574541906
 21
189.4034623756820963
 31
0.0
  0
ARC
  5
1DAE0
  8
0
 10
3227.4409085823122041
 20
189.4248348162140871
 30
0.0
 40
0.0304840732359966
 50
224.515473592437786
 51
268.4960236155396842
  0
LINE
  5
1DAE1
  8
0
 10
3227.4401084874039043
 20
189.3943612445625888
 30
0.0
 11
3228.8430739290370184
 21
189.3665915940636921
 31
0.0
  0
ARC
  5
1DAE2
  8
0
 10
3228.8434700113930376
 20
189.3865869624441132
 30
0.0
 40
0.0199992909348642
 50
268.8651932100157751
 51
0.8040413076988796
  0
LINE
  5
1DAE3
  8
0
 10
3228.863467333132121
 20
189.3868676066450973
 30
0.0
 11
3228.8634694966040115
 21
189.4356228647347962
 31
0.0
  0
ARC
  5
1DAE4
  8
0
 10
3230.2673337687278945
 20
189.4516155511126101
 30
0.0
 40
1.403955308058749
 50
176.7756164233946947
 51
180.6524838422888877
  0
ARC
  5
1DAE5
  8
0
 10
3228.8595822597189908
 20
189.5302428767328138
 30
0.0
 40
0.0060283803021225
 50
3.2343369247823861
 51
51.24933149173998
  0
ARC
  5
1DAE6
  8
0
 10
3228.8445225640230092
 20
189.5051440540362933
 30
0.0
 40
0.0352524753635115
 50
57.7080519933256113
 51
91.996279335065239
  0
ARC
  5
1DAE7
  8
0
 10
3440.6302286583868408
 20
62091.8178760506925755
 30
0.0
 40
61902.6397943246629438
 50
269.8038889256670245
 51
269.8039740923276781
  0
ARC
  5
1DAE8
  8
0
 10
3228.7525741927420313
 20
189.5717038457812862
 30
0.0
 40
0.0310408006021677
 50
244.6962773988439892
 51
267.6115836829014256
  0
ARC
  5
1DAE9
  8
0
 10
3228.7422866590532067
 20
189.5499440592558074
 30
0.0
 40
0.0069716988527148
 50
184.9038671322998084
 51
244.696277398840607
  0
ARC
  5
1DAEA
  8
0
 10
3217.4859183478829436
 20
189.6323038889022996
 30
0.0
 40
11.2497279953370395
 50
359.577495537847085
 51
0.428613906128785
  0
ARC
  5
1DAEB
  8
0
 10
3228.7452437656388611
 20
189.7156098287443911
 30
0.0
 40
0.0099485209057807
 50
114.3500793055900999
 51
175.1022423116797029
  0
ARC
  5
1DAEC
  8
0
 10
3228.7510540727971602
 20
189.7027713560921995
 30
0.0
 40
0.0240405771542313
 50
89.6696534910546177
 51
114.3500793055900999
  0
ARC
  5
1DAED
  8
0
 10
3228.8210603865368284
 20
201.844633800392387
 30
0.0
 40
12.1180236831052692
 50
269.669653491054703
 51
270.1044436993150839
  0
ARC
  5
1DAEE
  8
0
 10
3228.8431076193978697
 20
189.7499645944349993
 30
0.0
 40
0.0233343823414245
 50
270.1044436992891065
 51
344.5717963867730873
  0
ARC
  5
1DAEF
  8
0
 10
3233.2096254640641746
 20
189.880786181575786
 30
0.0
 40
4.3461850360082162
 50
180.2095536095945079
 51
181.8067566986790951
  0
LINE
  5
1DAF0
  8
0
 10
3228.8634694965649032
 20
189.8648904779211932
 30
0.0
 11
3228.8634694964589471
 21
190.3277366405631028
 31
0.0
  0
ARC
  5
1DAF1
  8
0
 10
3260.175872329682079
 20
190.1097601014957945
 30
0.0
 40
31.3131615293255905
 50
178.9631608560447944
 51
179.6011505711931875
  0
ARC
  5
1DAF2
  8
0
 10
3154.883511382350207
 20
189.7250866108363994
 30
0.0
 40
73.9904420428955945
 50
0.7366709451305308
 51
0.9645579328372113
  0
LINE
  5
1DAF3
  8
0
 10
3228.8634689490281744
 20
190.9706355402637996
 30
0.0
 11
3228.8634694966040115
 21
191.2563729143801936
 31
0.0
  0
ARC
  5
1DAF4
  8
0
 10
3229.1725864066320355
 20
191.2566989500195973
 30
0.0
 40
0.3091170819956084
 50
175.9545661726295123
 51
180.0604365503149893
  0
ARC
  5
1DAF5
  8
0
 10
3228.7733974392481286
 20
191.2795444278307002
 30
0.0
 40
0.0908478728873266
 50
359.3490614587317964
 51
6.241466742591494
  0
ARC
  5
1DAF6
  8
0
 10
3228.993995215601899
 20
191.2870762314778972
 30
0.0
 40
0.1303095033354713
 50
169.8270630882294938
 51
178.968840446711198
  0
ARC
  5
1DAF7
  8
0
 10
3228.8834850683360855
 20
189.4355810886316931
 30
0.0
 40
0.0200468472287077
 50
91.042175325454707
 51
177.3455702183429992
  0
ARC
  5
1DAF8
  8
0
 10
3227.3238896187440332
 20
190.1165993271995092
 30
0.0
 40
0.0176170886198728
 50
201.268325809680988
 51
244.3338683272286005
  0
LINE
  5
1DAF9
  8
0
 10
3227.3162591931040879
 20
190.1007204602375111
 30
0.0
 11
3227.4192332935172089
 21
190.0678098486413035
 31
0.0
  0
ARC
  5
1DAFA
  8
0
 10
3227.4394363539418009
 20
190.137973963421814
 30
0.0
 40
0.0730147187706737
 50
253.9335239881621931
 51
270.4400153314848012
  0
LINE
  5
1DAFB
  8
0
 10
3227.4399970807548925
 20
190.0649613977732031
 30
0.0
 11
3228.8430851672328572
 21
190.0565168434629868
 31
0.0
  0
ARC
  5
1DAFC
  8
0
 10
3228.8448041724209361
 20
190.0825021513144861
 30
0.0
 40
0.0260421044505102
 50
266.215227932795699
 51
315.7856847377923941
  0
LINE
  5
1DAFD
  8
0
 10
3227.4398705839039394
 20
191.2990320336924981
 30
0.0
 11
3227.4398705839039394
 21
189.3943684202938869
 31
0.0
  0
ARC
  5
1DAFE
  8
0
 10
3227.3381671231290966
 20
191.0614718889642916
 30
0.0
 40
0.0314117114156275
 50
134.2223614105784009
 51
167.7347504068436024
  0
LINE
  5
1DAFF
  8
0
 10
3227.3162591869040625
 20
191.0839827295625923
 30
0.0
 11
3227.4193114087988761
 21
191.1702161321823894
 31
0.0
  0
ARC
  5
1DB00
  8
0
 10
3227.4397031718640392
 20
191.1453059477746876
 30
0.0
 40
0.0321913173216179
 50
89.4767026478900789
 51
129.4854059414685992
  0
LINE
  5
1DB01
  8
0
 10
3227.4399971795041893
 20
191.1774959224626116
 30
0.0
 11
3228.843277520626998
 21
191.1999008605764061
 31
0.0
  0
ARC
  5
1DB02
  8
0
 10
3228.843688653918889
 20
191.1795168022154883
 30
0.0
 40
0.0203882040857912
 50
14.0202515415415903
 51
91.1554622030485859
  0
LINE
  5
1DB03
  8
0
 10
3227.439870470203914
 20
191.2655746251625999
 30
0.0
 11
3228.8446206610638001
 21
191.2929189588060979
 31
0.0
  0
ARC
  5
1DB04
  8
0
 10
3228.8450105280430762
 20
191.2728904688208047
 30
0.0
 40
0.0200322841272198
 50
16.2806914203402506
 51
91.1151570471576946
  0
LINE
  5
1DB05
  8
0
 10
3228.8831204485040871
 20
189.4556246196661959
 30
0.0
 11
3229.2562873572028366
 21
189.4556246196625864
 31
0.0
  0
ARC
  5
1DB06
  8
0
 10
3229.2562873572042008
 20
189.4753096590625887
 30
0.0
 40
0.0196850394000023
 50
269.999999999426791
 51
0.0
  0
LINE
  5
1DB07
  8
0
 10
3229.2759723966041747
 20
189.4753096590625887
 30
0.0
 11
3229.2759723966041747
 21
191.2796540927625983
 31
0.0
  0
ARC
  5
1DB08
  8
0
 10
3229.2562873572042008
 20
191.2796540927625983
 30
0.0
 40
0.0196850393999952
 50
0.0
 51
90.0000000000260485
  0
LINE
  5
1DB09
  8
0
 10
3229.2562873572042008
 20
191.2993391321626007
 30
0.0
 11
3228.8831204485040871
 21
191.299339132162487
 31
0.0
  0
ARC
  5
1DB0A
  8
0
 10
3229.3625865699191309
 20
191.2831117971470007
 30
0.0
 40
0.03937007881564
 50
90.0000001682899153
 51
179.998686441473609
  0
LINE
  5
1DB0B
  8
0
 10
3229.3625865698040798
 20
191.3224818759626089
 30
0.0
 11
3229.7843080496531911
 21
191.3224818772013123
 31
0.0
  0
ARC
  5
1DB0C
  8
0
 10
3229.3625976375737991
 20
189.3974104745778106
 30
0.0
 40
0.0393811464704213
 50
179.9999406619809008
 51
269.983897458602712
  0
LINE
  5
1DB0D
  8
0
 10
3229.3625865698040798
 20
189.3580293296625996
 30
0.0
 11
3233.1814857037029469
 21
189.3569560571895067
 31
0.0
  0
LINE
  5
1DB10
  8
0
 10
3229.2759723966041747
 20
191.1865369940626067
 30
0.0
 11
3229.3232164911041764
 21
191.1865369940626067
 31
0.0
  0
LINE
  5
1DB11
  8
0
 10
3229.2759723966041747
 20
189.5684267577626088
 30
0.0
 11
3229.3232164911041764
 21
189.5684267577626088
 31
0.0
  0
ATTDEF
  5
1DB15
  8
DEFPOINTS
 10
3233.5590247812560847
 20
194.1129742563915102
 30
0.0
 40
0.001
  1
K-EX27031T-9E2
  3

  2
MODELNUMBER
 70
     0
1001
ACDBATTR
1070
     0
1070
     1
  0
ATTDEF
  5
1DB16
  8
DEFPOINTS
 10
3233.5590247812560847
 20
194.1113075897249018
 30
0.0
 40
0.001
  1

  3

  2
TRADENAME
 70
     0
1001
ACDBATTR
1070
     0
1070
     1
  0
ATTDEF
  5
1DB17
  8
DEFPOINTS
 10
3233.5590247812560847
 20
194.1096409230582083
 30
0.0
 40
0.001
  1
SHOWER COLUMN KIT
  3

  2
PRODUCT
 70
     0
1001
ACDBATTR
1070
     0
1070
     1
  0
ENDSEC
  0
EOF
