  0
SECTION
  2
HEADER
  9
$ACADVER
  1
AC1009
  9
$INSBASE
 10
3268.5085741136031174
 20
134.0096275996178861
 30
0.0
  9
$EXTMIN
 10
3244.3797550034200867
 20
108.807015336426204
 30
-0.0000000000112498
  9
$EXTMAX
 10
3268.5699519342852
 20
166.8995650791489993
 30
0.0000000000002956
  9
$LIMMIN
 10
0.0
 20
0.0
  9
$LIMMAX
 10
11.6929133858000007
 20
8.2677165353999982
  9
$ORTHOMODE
 70
     1
  9
$REGENMODE
 70
     1
  9
$FILLMODE
 70
     1
  9
$QTEXTMODE
 70
     0
  9
$MIRRTEXT
 70
     0
  9
$DRAGMODE
 70
     2
  9
$LTSCALE
 40
0.6431102362
  9
$OSMODE
 70
  4095
  9
$ATTMODE
 70
     1
  9
$TEXTSIZE
 40
0.2
  9
$TRACEWID
 40
0.05
  9
$TEXTSTYLE
  7
STANDARD
  9
$CLAYER
  8
0
  9
$CELTYPE
  6
BYLAYER
  9
$CECOLOR
 62
   256
  9
$DIMSCALE
 40
1.0
  9
$DIMASZ
 40
0.1875
  9
$DIMEXO
 40
0.0625
  9
$DIMDLI
 40
0.4443307087
  9
$DIMRND
 40
0.0
  9
$DIMDLE
 40
0.0
  9
$DIMEXE
 40
0.125
  9
$DIMTP
 40
0.01
  9
$DIMTM
 40
0.01
  9
$DIMTXT
 40
2.0
  9
$DIMCEN
 40
0.1052362205
  9
$DIMTSZ
 40
0.0
  9
$DIMTOL
 70
     1
  9
$DIMLIM
 70
     0
  9
$DIMTIH
 70
     1
  9
$DIMTOH
 70
     1
  9
$DIMSE1
 70
     0
  9
$DIMSE2
 70
     0
  9
$DIMTAD
 70
     0
  9
$DIMZIN
 70
     0
  9
$DIMBLK
  1

  9
$DIMASO
 70
     1
  9
$DIMSHO
 70
     1
  9
$DIMPOST
  1
\X
  9
$DIMAPOST
  1

  9
$DIMALT
 70
     1
  9
$DIMALTD
 70
     2
  9
$DIMALTF
 40
25.3999999999999986
  9
$DIMLFAC
 40
1.0
  9
$DIMTOFL
 70
     0
  9
$DIMTVP
 40
0.0
  9
$DIMTIX
 70
     0
  9
$DIMSOXD
 70
     0
  9
$DIMSAH
 70
     0
  9
$DIMBLK1
  1

  9
$DIMBLK2
  1

  9
$DIMSTYLE
  2
STANDARD
  9
$DIMCLRD
 70
     0
  9
$DIMCLRE
 70
     0
  9
$DIMCLRT
 70
     0
  9
$DIMTFAC
 40
1.0
  9
$DIMGAP
 40
0.09
  9
$LUNITS
 70
     2
  9
$LUPREC
 70
     4
  9
$SKETCHINC
 40
0.1
  9
$FILLETRAD
 40
0.0
  9
$AUNITS
 70
     0
  9
$AUPREC
 70
     0
  9
$MENU
  1
.
  9
$ELEVATION
 40
0.0
  9
$PELEVATION
 40
0.0
  9
$THICKNESS
 40
0.0
  9
$LIMCHECK
 70
     0
  9
$BLIPMODE
 70
     0
  9
$CHAMFERA
 40
0.0
  9
$CHAMFERB
 40
0.0
  9
$SKPOLY
 70
     0
  9
$TDCREATE
 40
2458060.468368056230247
  9
$TDUPDATE
 40
2460276.4313425929285586
  9
$TDINDWG
 40
0.4173103009
  9
$TDUSRTIMER
 40
0.4173103009
  9
$USRTIMER
 70
     1
  9
$ANGBASE
 50
0.0
  9
$ANGDIR
 70
     0
  9
$PDMODE
 70
     0
  9
$PDSIZE
 40
0.3125
  9
$PLINEWID
 40
0.0
  9
$COORDS
 70
     1
  9
$SPLFRAME
 70
     0
  9
$SPLINETYPE
 70
     6
  9
$SPLINESEGS
 70
     8
  9
$ATTDIA
 70
     1
  9
$ATTREQ
 70
     1
  9
$HANDLING
 70
     1
  9
$HANDSEED
  5
1E150
  9
$SURFTAB1
 70
     6
  9
$SURFTAB2
 70
     6
  9
$SURFTYPE
 70
     6
  9
$SURFU
 70
     6
  9
$SURFV
 70
     6
  9
$UCSNAME
  2

  9
$UCSORG
 10
0.0
 20
0.0
 30
0.0
  9
$UCSXDIR
 10
1.0
 20
0.0
 30
0.0
  9
$UCSYDIR
 10
0.0
 20
1.0
 30
0.0
  9
$PUCSNAME
  2

  9
$PUCSORG
 10
0.0
 20
0.0
 30
0.0
  9
$PUCSXDIR
 10
1.0
 20
0.0
 30
0.0
  9
$PUCSYDIR
 10
0.0
 20
1.0
 30
0.0
  9
$USERI1
 70
     0
  9
$USERI2
 70
     0
  9
$USERI3
 70
     0
  9
$USERI4
 70
     0
  9
$USERI5
 70
     0
  9
$USERR1
 40
0.0
  9
$USERR2
 40
0.0
  9
$USERR3
 40
0.0
  9
$USERR4
 40
0.0
  9
$USERR5
 40
0.0
  9
$WORLDVIEW
 70
     1
  9
$SHADEDGE
 70
     3
  9
$SHADEDIF
 70
    70
  9
$TILEMODE
 70
     1
  9
$MAXACTVP
 70
    64
  9
$PLIMCHECK
 70
     0
  9
$PEXTMIN
 10
1.0000000000000000E+20
 20
1.0000000000000000E+20
 30
1.0000000000000000E+20
  9
$PEXTMAX
 10
-1.0000000000000000E+20
 20
-1.0000000000000000E+20
 30
-1.0000000000000000E+20
  9
$PLIMMIN
 10
0.0
 20
0.0
  9
$PLIMMAX
 10
12.0
 20
9.0
  9
$UNITMODE
 70
     0
  9
$VISRETAIN
 70
     1
  9
$PLINEGEN
 70
     0
  9
$PSLTSCALE
 70
     1
  0
ENDSEC
  0
SECTION
  2
TABLES
  0
TABLE
  2
VPORT
 70
     1
  0
VPORT
  2
*ACTIVE
 70
     0
 10
0.0
 20
0.0
 11
1.0
 21
1.0
 12
-547.0692139139599703
 22
11.8580280110377192
 13
0.0
 23
0.0
 14
1.0
 24
1.0
 15
0.0
 25
0.0
 16
0.0
 26
0.0
 36
17.1152628219792007
 17
3803.5440673828129547
 27
125.9952621967499056
 37
0.0
 40
58.5401516221614528
 41
2.4474358974358972
 42
50.0
 43
0.0
 44
0.0
 50
0.0
 51
0.0
 71
     0
 72
   100
 73
     1
 74
     1
 75
     0
 76
     0
 77
     0
 78
     0
  0
ENDTAB
  0
TABLE
  2
LTYPE
 70
     2
  0
LTYPE
  2
CONTINUOUS
 70
     0
  3
Solid line
 72
    65
 73
     0
 40
0.0
  0
LTYPE
  2
PHANTOM2
 70
     0
  3
___ _ _ ___ _ _ ___ _ _ ___ _ _
 72
    65
 73
     6
 40
1.25
 49
0.625
 49
-0.125
 49
0.125
 49
-0.125
 49
0.125
 49
-0.125
  0
ENDTAB
  0
TABLE
  2
LAYER
 70
     2
  0
LAYER
  2
0
 70
     0
 62
   255
  6
CONTINUOUS
  0
LAYER
  2
DEFPOINTS
 70
     0
 62
     7
  6
CONTINUOUS
  0
ENDTAB
  0
TABLE
  2
STYLE
 70
     1
  0
STYLE
  2
STANDARD
 70
     0
 40
0.0
 41
0.8
 50
0.0
 71
     0
 42
0.2
  3
txt
  4

  0
ENDTAB
  0
TABLE
  2
VIEW
 70
     0
  0
ENDTAB
  0
TABLE
  2
UCS
 70
     0
  0
ENDTAB
  0
TABLE
  2
APPID
 70
     9
  0
APPID
  2
ACAD
 70
     0
  0
APPID
  2
ACAD_MLEADERVER
 70
     0
  0
APPID
  2
ACAD_EXEMPT_FROM_CAD_STANDARDS
 70
     0
  0
APPID
  2
ACAD_NAV_VCDISPLAY
 70
     0
  0
APPID
  2
ACAECLAYERSTANDARD
 70
     0
  0
APPID
  2
ACCMTRANSPARENCY
 70
     0
  0
APPID
  2
ACAD_DSTYLE_DIMJAG
 70
     0
  0
APPID
  2
ACAD_DSTYLE_DIMTALN
 70
     0
  0
APPID
  2
ACDBATTR
 70
     0
  0
ENDTAB
  0
TABLE
  2
DIMSTYLE
 70
     1
  0
DIMSTYLE
  2
STANDARD
 70
     0
  3

  4

  5

  6

  7

 40
1.0
 41
0.1875
 42
0.0625
 43
0.38
 44
0.125
 45
0.0
 46
0.0
 47
0.01
 48
0.01
140
0.15625
141
0.09
142
0.0
143
25.3999999999999986
144
1.0
145
0.0
146
1.0
147
0.09
 71
     1
 72
     0
 73
     1
 74
     1
 75
     0
 76
     0
 77
     0
 78
     4
170
     0
171
     2
172
     0
173
     0
174
     0
175
     0
176
     0
177
     0
178
     0
  0
ENDTAB
  0
ENDSEC
  0
SECTION
  2
BLOCKS
  0
BLOCK
  8
0
  2
$MODEL_SPACE
 70
     0
 10
0.0
 20
0.0
 30
0.0
  3
$MODEL_SPACE
  1

  0
ENDBLK
  5
21
  8
0
  0
BLOCK
 67
     1
  8
0
  2
$PAPER_SPACE
 70
     0
 10
0.0
 20
0.0
 30
0.0
  3
$PAPER_SPACE
  1

  0
ENDBLK
  5
1D
 67
     1
  8
0
  0
BLOCK
  8
0
  2
_FILLED
 70
     0
 10
0.0
 20
0.0
 30
0.0
  3
_FILLED
  1

  0
SOLID
  5
1B829
  8
0
  6
BYBLOCK
 62
     0
 10
0.0
 20
0.0
 30
0.0
 11
-1.0
 21
0.1666666667
 31
0.0
 12
-1.0
 22
-0.1666666667
 32
0.0
 13
-1.0
 23
-0.1666666667
 33
0.0
  0
ENDBLK
  5
1B82A
  8
0
  6
BYBLOCK
 62
     0
  0
ENDSEC
  0
SECTION
  2
ENTITIES
  0
ATTDEF
  5
1C14D
  8
DEFPOINTS
 10
3268.5093948670441932
 20
134.0141915156578136
 30
0.0
 40
0.001
  1
K-EX27031T-9
  3

  2
MODELNUMBER
 70
     0
1001
ACDBATTR
1070
     0
1070
     1
  0
ATTDEF
  5
1C14E
  8
DEFPOINTS
 10
3268.5093948670441932
 20
134.0125248489912053
 30
0.0
 40
0.001
  1
OCASSION
  3

  2
TRADENAME
 70
     0
1001
ACDBATTR
1070
     0
1070
     1
  0
ATTDEF
  5
1C14F
  8
DEFPOINTS
 10
3268.5093948670441932
 20
134.0108581823245117
 30
0.0
 40
0.001
  1
SHOWER COLUMN 
  3

  2
PRODUCT
 70
     0
1001
ACDBATTR
1070
     0
1070
     1
  0
LINE
  5
1D08E
  8
0
 10
3249.8061194557349154
 20
163.7867813573625995
 30
0.0
 11
3249.8061194557349154
 21
164.5348128533626095
 31
0.0
  0
ARC
  5
1D08F
  8
0
 10
3251.3809226053349448
 20
164.5348128533626095
 30
0.0
 40
1.574803149599997
 50
90.0
 51
180.0
  0
LINE
  5
1D090
  8
0
 10
3251.3809226053349448
 20
166.1096160029626105
 30
0.0
 11
3263.193915530904178
 21
166.1096160029626105
 31
0.0
  0
ARC
  5
1D091
  8
0
 10
3263.193915530904178
 20
164.5348128532625935
 30
0.0
 40
1.574803149699999
 50
0.0000000036395723
 51
90.0
  0
LINE
  5
1D092
  8
0
 10
3264.7687186806028876
 20
164.5348128533626095
 30
0.0
 11
3264.7687501727928066
 21
153.9548286377334136
 31
0.0
  0
LINE
  5
1D093
  8
0
 10
3264.670293483703972
 20
147.2712615280626949
 30
0.0
 11
3264.670293483703972
 21
146.6494962232848138
 31
0.0
  0
LINE
  5
1D094
  8
0
 10
3264.6702942990991687
 20
144.7592574775771084
 30
0.0
 11
3264.6704194680041837
 21
119.4027616184626055
 31
0.0
  0
ARC
  5
1D095
  8
0
 10
3264.5454036763971999
 20
119.4027771265716069
 30
0.0
 40
0.1250157925680865
 50
271.0446167542713169
 51
359.9928925043894878
  0
ARC
  5
1D096
  8
0
 10
3264.5760308469039046
 20
117.7104557977689012
 30
0.0
 40
1.567582655893677
 50
91.0361876506496088
 51
94.1487838698135135
  0
ARC
  5
1D097
  8
0
 10
3264.5760308456988241
 20
117.7104558643797958
 30
0.0
 40
1.567582589271924
 50
58.1687675012030425
 51
91.0361876506496088
  0
LINE
  5
1D098
  8
0
 10
3249.0187178809360375
 20
163.7867813573625995
 30
0.0
 11
3249.0187178809360375
 21
164.5348128533626095
 31
0.0
  0
ARC
  5
1D099
  8
0
 10
3251.3809226055068393
 20
164.5348128532918963
 30
0.0
 40
2.3622047245707019
 50
90.0000000041427626
 51
179.9999999982852046
  0
LINE
  5
1D09A
  8
0
 10
3251.3809226053349448
 20
166.8970175778626128
 30
0.0
 11
3263.193915530904178
 21
166.8970175778626128
 31
0.0
  0
ARC
  5
1D09B
  8
0
 10
3263.193915530733193
 20
164.5348128531919087
 30
0.0
 40
2.3622047246707458
 50
0.0000000041411331
 51
89.9999999958572232
  0
LINE
  5
1D09C
  8
0
 10
3265.5561202554040392
 20
164.5348128533626095
 30
0.0
 11
3265.5561202554040392
 21
152.3013961777135989
 31
0.0
  0
LINE
  5
1D09D
  8
0
 10
3265.6545454522029104
 20
147.2717734880386047
 30
0.0
 11
3265.6545454522029104
 21
146.6494962232848138
 31
0.0
  0
LINE
  5
1D09E
  8
0
 10
3265.6545444724679328
 20
144.7592539685900022
 30
0.0
 11
3265.6544563550119165
 21
126.7016805109376065
 31
0.0
  0
ARC
  5
1D09F
  8
0
 10
3264.4654429686429467
 20
119.2350328735990956
 30
0.0
 40
0.0389999989971346
 50
94.1487834985977372
 51
121.8512163777639046
  0
ARC
  5
1D0A0
  8
0
 10
3265.2720994316227916
 20
117.9366221755125963
 30
0.0
 40
1.567582672643389
 50
121.8512163777639046
 51
166.1487836203135942
  0
ARC
  5
1D0A1
  8
0
 10
3263.7879669212438785
 20
118.3025670895714967
 30
0.0
 40
0.0389999995474163
 50
166.1487836203120025
 51
193.8512162623459858
  0
ARC
  5
1D0A2
  8
0
 10
3265.2720994244359645
 20
118.6685119986342016
 30
0.0
 40
1.5675826644699931
 50
193.8512162623459858
 51
238.1487837445693003
  0
ARC
  5
1D0A3
  8
0
 10
3264.4654429693569
 20
117.3701013070786985
 30
0.0
 40
0.0390000005402643
 50
238.1487837445930893
 51
265.8512156670157083
  0
ARC
  5
1D0A4
  8
0
 10
3264.57603085727078
 20
118.8946783493875046
 30
0.0
 40
1.5675826247017819
 50
265.8512156670157083
 51
304.0578883112975745
  0
ARC
  5
1D0A5
  8
0
 10
3264.5676866331828023
 20
118.9201210984964945
 30
0.0
 40
1.5572197565857751
 50
266.5535121018309042
 51
304.6300980170454977
  0
ARC
  5
1D0A6
  8
0
 10
3264.4763342716619263
 20
117.4032754029508965
 30
0.0
 40
0.0376256930112922
 50
237.2755088534115089
 51
266.5535121018309042
  0
ARC
  5
1D0A7
  8
0
 10
3265.3045433296629199
 20
118.6921314225044028
 30
0.0
 40
1.5696439967183891
 50
194.7305681968217925
 51
237.2755088534115089
  0
ARC
  5
1D0A8
  8
0
 10
3263.8236255660808638
 20
118.3027753309353045
 30
0.0
 40
0.0383975800584124
 50
165.9226697285247099
 51
194.7305681968217925
  0
ARC
  5
1D0A9
  8
0
 10
3265.2655782189799538
 20
117.9411883197620057
 30
0.0
 40
1.524995245820483
 50
122.0689114869293945
 51
165.9226697285247099
  0
ARC
  5
1D0AA
  8
0
 10
3264.4766472523879202
 20
119.2003692733379978
 30
0.0
 40
0.0390784433395447
 50
93.7727571887652971
 51
122.068911486930304
  0
ARC
  5
1D0AB
  8
0
 10
3264.5750704426309312
 20
117.7072662950589006
 30
0.0
 40
1.535421862508948
 50
57.3105076407519931
 51
93.7714332978241458
  0
ARC
  5
1D0AC
  8
0
 10
3264.5159656863938835
 20
119.0795399430430024
 30
0.0
 40
0.0503280921921536
 50
97.1195736770759765
 51
118.8804404022957044
  0
ARC
  5
1D0AD
  8
0
 10
3264.5760308469039046
 20
117.7104557977626058
 30
0.0
 40
1.420572321600005
 50
54.0880158043501567
 51
92.6751569841941603
  0
ARC
  5
1D0AE
  8
0
 10
3264.5760307897071471
 20
118.894678614637499
 30
0.0
 40
1.420572551851143
 50
267.3248460837764924
 51
307.8231530083776875
  0
ARC
  5
1D0AF
  8
0
 10
3264.5159482306858081
 20
117.5255406930171063
 30
0.0
 40
0.0502727989081241
 50
241.1079691569590011
 51
262.8926130811901771
  0
ARC
  5
1D0B0
  8
0
 10
3265.2720674494939885
 20
118.6684887866826017
 30
0.0
 40
1.420535357561626
 50
195.3242788738236015
 51
236.6757361544090088
  0
ARC
  5
1D0B1
  8
0
 10
3263.9514047860029677
 20
118.3025671481625949
 30
0.0
 40
0.0502720570998466
 50
169.1077773477682911
 51
190.8927115628528952
  0
ARC
  5
1D0B2
  8
0
 10
3265.2720404480728575
 20
117.9366650333926998
 30
0.0
 40
1.420504123294474
 50
123.3238054349395014
 51
164.6762100368048038
  0
ARC
  5
1D0B3
  8
0
 10
3264.5248851430651484
 20
119.0520886718881002
 30
0.0
 40
0.0275590545227499
 50
92.1831709485092148
 51
123.8168287303463018
  0
ARC
  5
1D0B4
  8
0
 10
3264.5760308358408111
 20
117.7104557637171069
 30
0.0
 40
1.370166496099406
 50
52.4256209251776824
 51
92.1831709485092148
  0
ARC
  5
1D0B5
  8
0
 10
3264.1458367767418167
 20
118.3025670896626025
 30
0.0
 40
1.3701664955962189
 50
339.8168290437409951
 51
341.3457494396549237
  0
ARC
  5
1D0B6
  8
0
 10
3265.4060006075469573
 20
117.8393372765043949
 30
0.0
 40
0.0275590547308355
 50
308.1831715481154106
 51
339.8168290437333781
  0
ARC
  5
1D0B7
  8
0
 10
3264.5760308486819667
 20
118.894678375990793
 30
0.0
 40
1.37016645709986
 50
267.8168284519966846
 51
308.1831715481154106
  0
ARC
  5
1D0B8
  8
0
 10
3264.5248851433711934
 20
117.5530455077855976
 30
0.0
 40
0.0275590549825339
 50
236.183171160024699
 51
267.8168284519966846
  0
ARC
  5
1D0B9
  8
0
 10
3265.2720994341098049
 20
118.6685120055910971
 30
0.0
 40
1.3701664823462061
 50
195.8168288425949015
 51
236.183171160024699
  0
ARC
  5
1D0BA
  8
0
 10
3263.9803258381530213
 20
118.3025670896626025
 30
0.0
 40
0.0275590547247753
 50
164.1831713574474918
 51
195.8168288425902119
  0
ARC
  5
1D0BB
  8
0
 10
3265.2720994231190161
 20
117.9366221817197982
 30
0.0
 40
1.370166469594345
 50
123.8168286402457028
 51
164.1831713574474918
  0
ARC
  5
1D0BC
  8
0
 10
3264.5321203824828444
 20
119.0298208946459937
 30
0.0
 40
0.0311259826376023
 50
91.9061855852969245
 51
124.0938140872058
  0
ARC
  5
1D0BD
  8
0
 10
3264.5760308269341294
 20
117.7104557356536958
 30
0.0
 40
1.3512216420103269
 50
52.0938144307958808
 51
91.9061855852969245
  0
ARC
  5
1D0BE
  8
0
 10
3265.3870585054728508
 20
118.7520346598756049
 30
0.0
 40
0.031125982317146
 50
35.2407182642188985
 51
52.0938144307733069
  0
ARC
  5
1D0BF
  8
0
 10
3264.1458366661750006
 20
118.3025671187553058
 30
0.0
 40
1.351221727620916
 50
340.0938144288763283
 51
343.5990479019574195
  0
ARC
  5
1D0C0
  8
0
 10
3265.3870585043450774
 20
117.8530995199256068
 30
0.0
 40
0.0311259833858988
 50
307.9061864578616792
 51
340.0938144288763283
  0
ARC
  5
1D0C1
  8
0
 10
3264.5760308456278835
 20
118.8946783853640028
 30
0.0
 40
1.351221584519352
 50
268.093813540331098
 51
307.9061864578616792
  0
ARC
  5
1D0C2
  8
0
 10
3264.532120382982157
 20
117.5753132852634053
 30
0.0
 40
0.0311259834005088
 50
235.9061856917138016
 51
268.0938135403570755
  0
ARC
  5
1D0C3
  8
0
 10
3265.2720994633391456
 20
118.6685120268274005
 30
0.0
 40
1.351221634451911
 50
196.09381431111089
 51
235.9061856917138016
  0
ARC
  5
1D0C4
  8
0
 10
3264.0037395646581899
 20
118.3025670896626025
 30
0.0
 40
0.0311259827585274
 50
163.9061858657304072
 51
196.09381431111089
  0
ARC
  5
1D0C5
  8
0
 10
3265.2720994536580292
 20
117.9366221595315949
 30
0.0
 40
1.3512216232003991
 50
124.0938141197026994
 51
163.9061858657304072
  0
LINE
  5
1D0C6
  8
0
 10
3264.5004134447308388
 20
119.1274048011642037
 30
0.0
 11
3264.4526399406959172
 21
119.2718714728821965
 31
0.0
  0
LINE
  5
1D0C7
  8
0
 10
3264.5004132957042202
 20
117.4777283504142957
 30
0.0
 11
3264.4533912500191946
 21
117.3330101206890959
 31
0.0
  0
LINE
  5
1D0C8
  8
0
 10
3263.901132728904031
 20
118.3025668973727988
 30
0.0
 11
3263.7489669217038681
 21
118.3025668973727988
 31
0.0
  0
LINE
  5
1D0C9
  8
0
 10
3265.9773096804938177
 20
118.9425670896626031
 30
0.0
 11
3266.1849440307710211
 21
118.9425670896626031
 31
0.0
  0
ARC
  5
1D0CA
  8
0
 10
3266.1463693794298706
 20
118.9346930723751967
 30
0.0
 40
0.0393700885743439
 50
0.0000021646840913
 51
11.53695839793766
  0
LINE
  5
1D0CB
  8
0
 10
3266.185739468004158
 20
118.9346930738626043
 30
0.0
 11
3266.185739468004158
 21
118.7257954360625973
 31
0.0
  0
LINE
  5
1D0CC
  8
0
 10
3266.2644796254039647
 20
118.7257954360625973
 30
0.0
 11
3266.1719599404041219
 21
118.7257954360625973
 31
0.0
  0
LINE
  5
1D0CD
  8
0
 10
3266.1719599404041219
 20
118.7257954360625973
 30
0.0
 11
3266.1621174207039076
 21
118.7159529163625962
 31
0.0
  0
LINE
  5
1D0CE
  8
0
 10
3266.1621174207039076
 20
118.7159529163625962
 30
0.0
 11
3266.1463693892042102
 21
118.7159529163625962
 31
0.0
  0
LINE
  5
1D0CF
  8
0
 10
3266.1463693892042102
 20
118.9425670896626031
 30
0.0
 11
3266.1463693892042102
 21
117.6625670896626019
 31
0.0
  0
LINE
  5
1D0D0
  8
0
 10
3266.0230327692679566
 20
117.6625670896337965
 30
0.0
 11
3266.1849440307828445
 21
117.6625670896224989
 31
0.0
  0
ARC
  5
1D0D1
  8
0
 10
3266.1463693892042102
 20
117.6704411053625989
 30
0.0
 40
0.0393700786997755
 50
348.4630409670352265
 51
0.0000000000048853
  0
LINE
  5
1D0D2
  8
0
 10
3266.1857394679041136
 20
117.6704411053625989
 30
0.0
 11
3266.1857394679041136
 21
117.8793387431626059
 31
0.0
  0
LINE
  5
1D0D3
  8
0
 10
3266.1463693892042102
 20
117.889181262862607
 30
0.0
 11
3266.1621174207039076
 21
117.889181262862607
 31
0.0
  0
LINE
  5
1D0D4
  8
0
 10
3266.1621174207039076
 20
117.889181262862607
 30
0.0
 11
3266.1719599404041219
 21
117.8793387431626059
 31
0.0
  0
LINE
  5
1D0D5
  8
0
 10
3266.1719599404041219
 20
117.8793387431626059
 30
0.0
 11
3266.2644796254039647
 21
117.8793387431626059
 31
0.0
  0
LINE
  5
1D0D6
  8
0
 10
3266.1621174207039076
 20
117.889181262862607
 30
0.0
 11
3266.1621174207039076
 21
118.7159529163625962
 31
0.0
  0
LINE
  5
1D0D7
  8
0
 10
3266.1719599404041219
 20
117.8793387431626059
 30
0.0
 11
3266.1719599404041219
 21
118.7257954360625973
 31
0.0
  0
LINE
  5
1D0D8
  8
0
 10
3267.2684295467038282
 20
118.9423308691626033
 30
0.0
 11
3266.2841645984040042
 21
118.9423308691626033
 31
0.0
  0
LINE
  5
1D0D9
  8
0
 10
3266.2841645984040042
 20
118.9423308691626033
 30
0.0
 11
3266.2644796254039647
 21
118.9226458941625992
 31
0.0
  0
LINE
  5
1D0DA
  8
0
 10
3266.2644796254039647
 20
118.9226458941625992
 30
0.0
 11
3266.2644796254039647
 21
117.6824882851626057
 31
0.0
  0
LINE
  5
1D0DB
  8
0
 10
3266.2644796254039647
 20
117.6824882851626057
 30
0.0
 11
3266.2841645984040042
 21
117.6628033100625998
 31
0.0
  0
LINE
  5
1D0DC
  8
0
 10
3266.2841645984040042
 20
117.6628033100625998
 30
0.0
 11
3267.2684295467038282
 21
117.6628033100625998
 31
0.0
  0
LINE
  5
1D0DD
  8
0
 10
3267.2684295467038282
 20
117.573411523962605
 30
0.0
 11
3267.2684295467038282
 21
119.0317226553626
 31
0.0
  0
ARC
  5
1D0DE
  8
0
 10
3267.2881145861038021
 20
119.0317226553626
 30
0.0
 40
0.0196850394000023
 50
91.000000000106013
 51
180.0000000000015916
  0
LINE
  5
1D0DF
  8
0
 10
3267.2877710347961511
 20
119.0514046966357995
 30
0.0
 11
3267.9213286707417865
 21
119.0624634863083031
 31
0.0
  0
ARC
  5
1D0E0
  8
0
 10
3267.9178905466728793
 20
119.2594334822848055
 30
0.0
 40
0.1970000000307404
 50
271.000000000106013
 51
359.9999999644592208
  0
LINE
  5
1D0E1
  8
0
 10
3268.1148905467039185
 20
119.5801502670626064
 30
0.0
 11
3268.1148905467039185
 21
117.1506100197625955
 31
0.0
  0
ARC
  5
1D0E2
  8
0
 10
3268.1542606255261489
 20
117.1506100197625955
 30
0.0
 40
0.0393700788225502
 50
179.9999999999984084
 51
224.9999999767848919
  0
LINE
  5
1D0E3
  8
0
 10
3268.1264217758039194
 20
117.122771170062606
 30
0.0
 11
3268.2213593175401911
 21
117.0278336282495957
 31
0.0
  0
ARC
  5
1D0E4
  8
0
 10
3268.253933364805107
 20
117.0710960126931042
 30
0.0
 40
0.0541544316099209
 50
233.0223895952545945
 51
264.9837209374246072
  0
LINE
  5
1D0E5
  8
0
 10
3268.2491981673028931
 20
117.0171489982472934
 30
0.0
 11
3268.5085741136031174
 21
117.0171489982472934
 31
0.0
  0
LINE
  5
1D0E6
  8
0
 10
3268.5085741136031174
 20
117.0171489982472934
 30
0.0
 11
3268.5085741136031174
 21
119.7209467615988956
 31
0.0
  0
LINE
  5
1D0E7
  8
0
 10
3268.5085741136031174
 20
119.7209467615988956
 30
0.0
 11
3268.249750429508822
 21
119.7209467615988956
 31
0.0
  0
ARC
  5
1D0E8
  8
0
 10
3268.2497649562401421
 20
119.6815580117848015
 30
0.0
 40
0.0393887524929026
 50
90.0211309158630684
 51
136.6411447787592977
  0
LINE
  5
1D0E9
  8
0
 10
3268.2211266591029926
 20
119.7086009731626035
 30
0.0
 11
3268.1255653569041897
 21
119.6071078130625978
 31
0.0
  0
ARC
  5
1D0EA
  8
0
 10
3268.1548968089800837
 20
119.5799006372359941
 30
0.0
 40
0.0400070555948961
 50
137.1517119252366967
 51
179.6391773088500088
  0
LINE
  5
1D0EB
  8
0
 10
3268.5086195467038124
 20
118.8011696868625933
 30
0.0
 11
3268.2492488861098536
 21
118.8011696868625933
 31
0.0
  0
ARC
  5
1D0EC
  8
0
 10
3268.2492488861098536
 20
118.7290161033285045
 30
0.0
 40
0.072153583534071
 50
90.0
 51
112.7769089589950937
  0
LINE
  5
1D0ED
  8
0
 10
3268.2213150569600657
 20
118.7955430963895935
 30
0.0
 11
3268.1263903770391153
 21
118.7652799405935014
 31
0.0
  0
ARC
  5
1D0EE
  8
0
 10
3268.1388968440392091
 20
118.7442886066623942
 30
0.0
 40
0.0244345619371694
 50
120.7861438167177965
 51
169.2569446771566959
  0
ARC
  5
1D0EF
  8
0
 10
3268.153204630007167
 20
117.2444999621096002
 30
0.0
 40
0.03843539047395
 50
184.5533339982204097
 51
225.8269395391141074
  0
ARC
  5
1D0F0
  8
0
 10
3268.8696835689161162
 20
117.9819648645757013
 30
0.0
 40
1.066636028612689
 50
225.8269395391141074
 51
232.567854654698408
  0
ARC
  5
1D0F1
  8
0
 10
3268.2504934522658004
 20
117.1730388032691934
 30
0.0
 40
0.0479320612018094
 50
232.5678546546972996
 51
268.5121375981373149
  0
LINE
  5
1D0F2
  8
0
 10
3268.2492488877041978
 20
117.125122902462607
 30
0.0
 11
3268.5086195467038124
 21
117.125122902462607
 31
0.0
  0
ARC
  5
1D0F3
  8
0
 10
3267.2881145861028926
 20
117.573411523962605
 30
0.0
 40
0.0196850394000023
 50
180.0
 51
268.999999999893987
  0
LINE
  5
1D0F4
  8
0
 10
3267.2877710347961511
 20
117.5537294826894055
 30
0.0
 11
3267.9213286707499719
 21
117.5426706930170013
 31
0.0
  0
ARC
  5
1D0F5
  8
0
 10
3267.9178890872558441
 20
117.3456170867020063
 30
0.0
 40
0.1970836231054028
 50
1.6545021456424069
 51
88.9999999998940154
  0
LINE
  5
1D0F6
  8
0
 10
3266.2841645984040042
 20
118.9423308691626033
 30
0.0
 11
3266.2841684054042162
 21
118.548630081762596
 31
0.0
  0
LINE
  5
1D0F7
  8
0
 10
3266.2841684054042162
 20
118.548630081762596
 30
0.0
 11
3266.7369205703239459
 21
118.548630081762596
 31
0.0
  0
ARC
  5
1D0F8
  8
0
 10
3266.0244618820479445
 20
118.3025670896631993
 30
0.0
 40
0.7537535264139166
 50
340.9465416924679175
 51
19.0534582993916501
  0
LINE
  5
1D0F9
  8
0
 10
3266.7369205702889303
 20
118.056504097462593
 30
0.0
 11
3266.2841636956040929
 21
118.0565040975268971
 31
0.0
  0
LINE
  5
1D0FA
  8
0
 10
3266.2841636956040929
 20
118.0565040975268971
 30
0.0
 11
3266.2841636956040929
 21
117.6625670896626019
 31
0.0
  0
ARC
  5
1D0FB
  8
0
 10
3267.0911861805761873
 20
118.367173381059402
 30
0.0
 40
0.8647547022030437
 50
197.0593818849615957
 51
201.0545802138846057
  0
LINE
  5
1D0FC
  8
0
 10
3266.7369205703030275
 20
118.5486300818205052
 30
0.0
 11
3266.7369205703030275
 21
118.056504097462593
 31
0.0
  0
LINE
  5
1D0FD
  8
0
 10
3264.2959785231041678
 20
117.4419300009703022
 30
0.0
 11
3264.2959785231041678
 21
117.1293387431626059
 31
0.0
  0
LINE
  5
1D0FE
  8
0
 10
3264.2959785231041678
 20
117.1293387431626059
 30
0.0
 11
3265.2408604128040679
 21
117.1293387431626059
 31
0.0
  0
LINE
  5
1D0FF
  8
0
 10
3265.2408604128040679
 20
117.1293387431626059
 30
0.0
 11
3265.2408604128040679
 21
117.4750597571744066
 31
0.0
  0
ARC
  5
1D100
  8
0
 10
3265.791641107714895
 20
146.6098836189248118
 30
0.0
 40
0.0393763838936587
 50
359.0093360375869906
 51
90.0000001625577966
  0
ARC
  5
1D101
  8
0
 10
3264.5331914148878241
 20
146.6098899224583931
 30
0.0
 40
0.0393700809847887
 50
89.9903500902541964
 51
179.9999976330809943
  0
LINE
  5
1D102
  8
0
 10
3264.4938213339041795
 20
146.609889924084797
 30
0.0
 11
3264.5254340485671491
 21
144.7982189125717127
 31
0.0
  0
ARC
  5
1D103
  8
0
 10
3264.5648038901940708
 20
144.7986320117173022
 30
0.0
 40
0.0393720088469338
 50
180.6011700328488985
 51
269.9986281583393861
  0
LINE
  5
1D104
  8
0
 10
3264.5648029475041767
 20
144.7592600028816889
 30
0.0
 11
3264.8769391204391468
 21
144.7592525308104996
 31
0.0
  0
LINE
  5
1D105
  8
0
 10
3265.4478052621589086
 20
144.7592421420438029
 30
0.0
 11
3265.7600295973611537
 21
144.7592600028816889
 31
0.0
  0
ARC
  5
1D106
  8
0
 10
3265.7600799968117826
 20
144.7985852905000002
 30
0.0
 40
0.0393253199143373
 50
269.9265695336620183
 51
359.0641302812792901
  0
LINE
  5
1D107
  8
0
 10
3265.7994000708490603
 20
144.7979429789737083
 30
0.0
 11
3265.831011605850108
 21
146.6092028214698075
 31
0.0
  0
LINE
  5
1D108
  8
0
 10
3265.791641107714895
 20
146.6492600028184086
 30
0.0
 11
3265.5632914956181594
 21
146.6492600028304878
 31
0.0
  0
LINE
  5
1D109
  8
0
 10
3264.7613376404578958
 20
146.649260002872694
 30
0.0
 11
3264.5331980457040117
 21
146.6492600028848017
 31
0.0
  0
ARC
  5
1D10A
  8
0
 10
3264.6550168065400612
 20
146.6061429916493069
 30
0.0
 40
0.0432835978287149
 50
95.0284652355316268
 51
175.6326927973107104
  0
ARC
  5
1D10B
  8
0
 10
3265.6638595149552202
 20
146.6004570427560054
 30
0.0
 40
0.0497380048966349
 50
10.1273666844218795
 51
78.8726333669577713
  0
LINE
  5
1D10C
  8
0
 10
3265.7128225672040571
 20
146.6092028214848142
 30
0.0
 11
3265.694061808404058
 21
145.5343996719815891
 31
0.0
  0
ARC
  5
1D10D
  8
0
 10
3265.6554807002089547
 20
145.5344171817974939
 30
0.0
 40
0.0385811121677542
 50
278.9524535905432003
 51
359.9739966134943074
  0
ARC
  5
1D10E
  8
0
 10
3265.6171604063888481
 20
146.2524859814458011
 30
0.0
 40
0.7574778414288657
 50
272.023487218895184
 51
273.3545991652873113
  0
LINE
  5
1D10F
  8
0
 10
3264.8769581315232244
 20
145.4567974990794141
 30
0.0
 11
3264.5573801700029435
 21
145.4567974974816877
 31
0.0
  0
LINE
  5
1D110
  8
0
 10
3264.5573801700029435
 20
145.4567974974816877
 30
0.0
 11
3264.5386162293370944
 21
146.6092028126238915
 31
0.0
  0
ARC
  5
1D111
  8
0
 10
3264.5768218803950731
 20
146.611052981781711
 30
0.0
 40
0.0382504235097156
 50
92.7297161324026149
 51
182.7724729409085
  0
LINE
  5
1D112
  8
0
 10
3264.6118588884569363
 20
146.6094390419848139
 30
0.0
 11
3264.6306196472569354
 21
145.5343996719815891
 31
0.0
  0
ARC
  5
1D113
  8
0
 10
3264.6703956819010273
 20
145.535263763809894
 30
0.0
 40
0.039785419272324
 50
181.2444938088038953
 51
269.4070017020748082
  0
LINE
  5
1D114
  8
0
 10
3264.6699839192037871
 20
145.4954804753816973
 30
0.0
 11
3264.876959185799933
 21
145.4954804753816973
 31
0.0
  0
LINE
  5
1D115
  8
0
 10
3265.4478253278221018
 20
145.4954804753816973
 30
0.0
 11
3265.6439063227958286
 21
145.4954804753816973
 31
0.0
  0
ARC
  5
1D116
  8
0
 10
3264.744564376444032
 20
145.0982963414282096
 30
0.0
 40
0.4044267622413461
 50
103.5507298362797997
 51
117.5704112669906038
  0
ARC
  5
1D117
  8
0
 10
3264.6826422705112236
 20
145.359585124033714
 30
0.0
 40
0.1359066334927631
 50
90.7382715629646555
 51
103.9821024049112026
  0
LINE
  5
1D118
  8
0
 10
3265.447824273544029
 20
145.4567974992816914
 30
0.0
 11
3265.7674587660030738
 21
145.4567974992816914
 31
0.0
  0
LINE
  5
1D119
  8
0
 10
3265.7674587660030738
 20
145.4567974992816914
 30
0.0
 11
3265.7862227065879779
 21
146.6092028122436943
 31
0.0
  0
ARC
  5
1D11A
  8
0
 10
3265.7477329354592257
 20
146.6109296610459012
 30
0.0
 40
0.0385284893077216
 50
357.4311397595997164
 51
84.186640146400066
  0
ARC
  5
1D11B
  8
0
 10
3264.759703906165214
 20
146.6101497420854969
 30
0.0
 40
0.0391443685169153
 50
0.9712217605067998
 51
87.6079994451641255
  0
LINE
  5
1D11C
  8
0
 10
3264.7988426510041791
 20
146.610813247184808
 30
0.0
 11
3264.8176152592609469
 21
145.5350950222145912
 31
0.0
  0
ARC
  5
1D11D
  8
0
 10
3264.7778000929029076
 20
145.5352456269546053
 30
0.0
 40
0.0398036338840365
 50
272.519659399293289
 51
359.7713375938985223
  0
ARC
  5
1D11E
  8
0
 10
3265.5471735835058098
 20
145.5353978202948042
 30
0.0
 40
0.0400968687677805
 50
180.4444682563641891
 51
264.5761751899718774
  0
LINE
  5
1D11F
  8
0
 10
3265.5070779212041998
 20
145.5350867745817141
 30
0.0
 11
3265.525838680004199
 21
146.6121866152847986
 31
0.0
  0
ARC
  5
1D120
  8
0
 10
3265.5649551981159675
 20
146.6101245159019015
 30
0.0
 40
0.0391708340878453
 50
92.4342558198951423
 51
176.9823406858538988
  0
LINE
  5
1D121
  8
0
 10
3265.812025767203977
 20
150.6954296718159867
 30
0.0
 11
3265.8120315731612209
 21
150.3025293888553904
 31
0.0
  0
ARC
  5
1D122
  8
0
 10
3265.7923468231560946
 20
150.3025290985264917
 30
0.0
 40
0.019684750007566
 50
269.9822584514824939
 51
0.0008450512914953
  0
LINE
  5
1D123
  8
0
 10
3265.7923407278030936
 20
150.2828443494626072
 30
0.0
 11
3265.6939502703030485
 21
150.2828443494626072
 31
0.0
  0
LINE
  5
1D124
  8
0
 10
3264.6310216597771614
 20
150.2828443494626072
 30
0.0
 11
3264.5324982685010582
 21
150.2828443494626072
 31
0.0
  0
ARC
  5
1D125
  8
0
 10
3264.5324912567512001
 20
150.3025224374883919
 30
0.0
 40
0.0196780892750064
 50
179.9797601513811003
 51
270.0204157854946061
  0
LINE
  5
1D126
  8
0
 10
3264.5128131687029054
 20
150.3025293888125873
 30
0.0
 11
3264.5128131687029054
 21
150.5572533731680096
 31
0.0
  0
LINE
  5
1D127
  8
0
 10
3264.5324982081037888
 20
150.2041041920126077
 30
0.0
 11
3264.6310205867730474
 21
150.2041041920126077
 31
0.0
  0
LINE
  5
1D128
  8
0
 10
3265.6939502703030485
 20
150.2041041920126077
 30
0.0
 11
3265.7923407278021841
 21
150.2041041920126077
 31
0.0
  0
ARC
  5
1D129
  8
0
 10
3265.7923407278899504
 20
150.1844191526980126
 30
0.0
 40
0.0196850393146519
 50
359.9999998971100013
 51
90.0000002529690022
  0
LINE
  5
1D12A
  8
0
 10
3265.812025767203977
 20
150.1844191526625991
 30
0.0
 11
3265.812025767203977
 21
149.9383561604508088
 31
0.0
  0
ARC
  5
1D12B
  8
0
 10
3265.8513958459921014
 20
149.9383561604508088
 30
0.0
 40
0.0393700787881883
 50
180.0000000000098055
 51
269.9999998933042775
  0
LINE
  5
1D12C
  8
0
 10
3265.8513958459179776
 20
149.8989860816625992
 30
0.0
 11
3266.4416449798040958
 21
149.8989860805633896
 31
0.0
  0
LINE
  5
1D12D
  8
0
 10
3266.4416449798040958
 20
150.0761514360625881
 30
0.0
 11
3266.4416449798040958
 21
149.0918994675625981
 31
0.0
  0
LINE
  5
1D12E
  8
0
 10
3266.4416449798040958
 20
149.0918994675625981
 30
0.0
 11
3266.9928253787998074
 21
149.0918994675625981
 31
0.0
  0
LINE
  5
1D12F
  8
0
 10
3267.1503051949907785
 20
149.0918996723279122
 30
0.0
 11
3268.1148441136037945
 21
149.0919005394507053
 31
0.0
  0
LINE
  5
1D130
  8
0
 10
3268.5085741136031174
 20
148.2955120468625978
 30
0.0
 11
3268.5085741136031174
 21
151.0049025917626011
 31
0.0
  0
LINE
  5
1D131
  8
0
 10
3268.5085741136031174
 20
151.0049025917626011
 30
0.0
 11
3268.2445951119489109
 21
151.0002949833923935
 31
0.0
  0
ARC
  5
1D132
  8
0
 10
3268.2452820833332225
 20
150.9609370333668039
 30
0.0
 40
0.0393639449229987
 50
90.9999647963313549
 51
136.6763126495717984
  0
LINE
  5
1D133
  8
0
 10
3268.2166452399919763
 20
150.9879453906546871
 30
0.0
 11
3268.1244702196981962
 21
150.8902126189830142
 31
0.0
  0
ARC
  5
1D134
  8
0
 10
3268.1561840854719776
 20
150.8636893301915904
 30
0.0
 40
0.0413431267640347
 50
140.093215722364107
 51
179.2921663115799902
  0
LINE
  5
1D135
  8
0
 10
3268.1148441136037945
 20
150.8642000713626032
 30
0.0
 11
3268.114844113703839
 21
148.429819667461004
 31
0.0
  0
ARC
  5
1D136
  8
0
 10
3268.1542141924041971
 20
148.4298196674625956
 30
0.0
 40
0.0393700786999958
 50
180.0000000023580071
 51
224.9999998448687109
  0
LINE
  5
1D137
  8
0
 10
3268.1263753427037955
 20
148.4019808179133975
 30
0.0
 11
3268.2166981014001976
 21
148.3116580587279998
 31
0.0
  0
ARC
  5
1D138
  8
0
 10
3268.2445369505107919
 20
148.339496907688499
 30
0.0
 40
0.0393700778673784
 50
224.9999998448651866
 51
269.000000992744674
  0
LINE
  5
1D139
  8
0
 10
3268.2438498485930722
 20
148.3001328260627929
 30
0.0
 11
3268.5085741136031174
 21
148.2955120468625978
 31
0.0
  0
LINE
  5
1D13A
  8
0
 10
3266.4416449798040958
 20
149.2690648218625995
 30
0.0
 11
3265.8513958459029709
 21
149.2690648218625995
 31
0.0
  0
ARC
  5
1D13B
  8
0
 10
3265.8513958459029709
 20
149.2296947431626108
 30
0.0
 40
0.0393700787000029
 50
90.0
 51
179.9999999999967031
  0
LINE
  5
1D13C
  8
0
 10
3265.812025767203977
 20
149.2296947431626108
 30
0.0
 11
3265.812025767203977
 21
148.9836317510626031
 31
0.0
  0
ARC
  5
1D13D
  8
0
 10
3265.7923407278030936
 20
148.9836317510626031
 30
0.0
 40
0.0196850394000023
 50
270.0000000000521254
 51
359.9999999999984084
  0
LINE
  5
1D13E
  8
0
 10
3265.7923407278030936
 20
148.9639467116626008
 30
0.0
 11
3265.6939502703030485
 21
148.9639467116624871
 31
0.0
  0
LINE
  5
1D13F
  8
0
 10
3264.6309867871618735
 20
148.9639467116614071
 30
0.0
 11
3264.5324915382029758
 21
148.9639467116612082
 31
0.0
  0
ARC
  5
1D140
  8
0
 10
3264.5324915382029758
 20
148.983625082291212
 30
0.0
 40
0.0196783706299613
 50
179.9805831249719006
 51
270.0000000000521254
  0
LINE
  5
1D141
  8
0
 10
3264.5128131687029054
 20
148.9836317510626031
 30
0.0
 11
3264.5128131687029054
 21
150.1844191526625991
 31
0.0
  0
ARC
  5
1D142
  8
0
 10
3264.532498208024208
 20
150.1844191526917882
 30
0.0
 40
0.0196850393208195
 50
89.9999997691517848
 51
180.0002007796180976
  0
LINE
  5
1D143
  8
0
 10
3264.6112383656040947
 20
150.2828443494626072
 30
0.0
 11
3264.6112383656040947
 21
150.2041041920126077
 31
0.0
  0
LINE
  5
1D144
  8
0
 10
3265.7136005703041519
 20
150.2828443494626072
 30
0.0
 11
3265.7136005703041519
 21
150.2041041920126077
 31
0.0
  0
ARC
  5
1D145
  8
0
 10
3266.7037165796950831
 20
149.4039092294468958
 30
0.0
 40
0.9856732333038168
 50
149.8495186706001903
 51
151.8373683538426917
  0
ARC
  5
1D146
  8
0
 10
3266.5539763869392118
 20
149.4840735216363043
 30
0.0
 40
0.8158249508020325
 50
151.8373683538426917
 51
163.9273835231608132
  0
ARC
  5
1D147
  8
0
 10
3266.1829883823388627
 20
149.5909616546391874
 30
0.0
 40
0.4297457198996927
 50
163.9273835231608132
 51
180.9248082843209033
  0
ARC
  5
1D148
  8
0
 10
3266.2390149911989283
 20
149.5849524521852061
 30
0.0
 40
0.4857172336950672
 50
180.1093501211225032
 51
192.6834811521135862
  0
ARC
  5
1D149
  8
0
 10
3266.3064910051311927
 20
149.5920688549296926
 30
0.0
 40
0.5531652270458605
 50
191.868022988917005
 51
206.6674202738091992
  0
ARC
  5
1D14A
  8
0
 10
3266.693084329921021
 20
149.7585127962038882
 30
0.0
 40
0.9736523115124771
 50
205.2097266426885085
 51
210.17831249834191
  0
LINE
  5
1D14B
  8
0
 10
3266.4416449798040958
 20
150.0761514360625881
 30
0.0
 11
3268.114844113602885
 21
150.0761514360625881
 31
0.0
  0
LINE
  5
1D14C
  8
0
 10
3268.5085741136031174
 20
150.0833936485626054
 30
0.0
 11
3268.2439323872040404
 21
150.0805524198626131
 31
0.0
  0
ARC
  5
1D14D
  8
0
 10
3268.2445068413080662
 20
150.0270458063461092
 30
0.0
 40
0.053509697135426
 50
90.6151114608049113
 51
121.3847141079022975
  0
LINE
  5
1D14E
  8
0
 10
3268.216639959821805
 20
150.0727264872051023
 30
0.0
 11
3268.1262478011849453
 21
150.0438896500214128
 31
0.0
  0
ARC
  5
1D14F
  8
0
 10
3268.1335674397478215
 20
150.0260498521558077
 30
0.0
 40
0.0192830364978149
 50
112.3082588854738049
 51
166.1615412007014072
  0
LINE
  5
1D150
  8
0
 10
3268.5085741136031174
 20
148.4045599750625968
 30
0.0
 11
3268.2438498486039862
 21
148.4074494376625921
 31
0.0
  0
ARC
  5
1D151
  8
0
 10
3268.245248322927182
 20
148.449676522662287
 30
0.0
 40
0.0422502359521094
 50
227.4882646515503097
 51
268.1031747395102798
  0
LINE
  5
1D152
  8
0
 10
3268.2166982291691966
 20
148.4185321076830064
 30
0.0
 11
3268.1263753408029515
 21
148.4965054571626126
 31
0.0
  0
ARC
  5
1D153
  8
0
 10
3268.148200589741009
 20
148.521787422557594
 30
0.0
 40
0.0333993901948304
 50
182.904789496748009
 51
229.1968290579488041
  0
ARC
  5
1D154
  8
0
 10
3267.0800314217790401
 20
118.2418127240378993
 30
0.0
 40
0.8529565240005602
 50
158.9175864128729927
 51
162.9691061841691067
  0
LINE
  5
1D219
  8
0
 10
3268.2438498486039862
 20
151.0002819752303935
 30
0.0
 11
3268.2438498486039862
 21
148.3001328260625939
 31
0.0
  0
LINE
  5
1D21A
  8
0
 10
3268.2438498486039862
 20
119.720500088316399
 30
0.0
 11
3268.2438498486039862
 21
117.0178886338438957
 31
0.0
  0
LINE
  5
1D8DB
  8
0
 10
3249.0187178809360375
 20
163.7867813573625995
 30
0.0
 11
3249.8061194557349154
 21
163.7867813573625995
 31
0.0
  0
LINE
  5
1D8DC
  8
0
 10
3248.9363556761359177
 20
163.5769703336625867
 30
0.0
 11
3249.8884816568361202
 21
163.5769703336625867
 31
0.0
  0
ARC
  5
1D8DD
  8
0
 10
3249.8884816568361202
 20
163.5569703300625974
 30
0.0
 40
0.0200000036000105
 50
0.0000103132696634
 51
90.0
  0
LINE
  5
1D8DE
  8
0
 10
3249.9084816604349726
 20
163.5569703336626048
 30
0.0
 11
3249.9084816798667816
 21
163.4490175777625893
 31
0.0
  0
LINE
  5
1D8DF
  8
0
 10
3249.9084816798667816
 20
163.4490175777625893
 30
0.0
 11
3249.8671430777358182
 21
163.4076789950798911
 31
0.0
  0
LINE
  5
1D8E0
  8
0
 10
3249.8671430777358182
 20
163.4076789950798911
 30
0.0
 11
3249.8671409009712079
 21
162.9090751052625876
 31
0.0
  0
ARC
  5
1D8E1
  8
0
 10
3249.6801158837270123
 20
163.0401518685318933
 30
0.0
 40
0.2283844892814416
 50
291.9135985873318759
 51
324.9752498300646835
  0
ARC
  5
1D8E2
  8
0
 10
3249.7914737862670336
 20
162.763325712014705
 30
0.0
 40
0.069999999926385
 50
111.9122122313799963
 51
230.6290105484993092
  0
ARC
  5
1D8E3
  8
0
 10
3249.4124186648659816
 20
162.3013797797179905
 30
0.0
 40
0.5275590594359582
 50
35.3455732911508278
 51
50.629010368793999
  0
LINE
  5
1D8E4
  8
0
 10
3250.1013950462361208
 20
162.6064978927626044
 30
0.0
 11
3248.7234422903361519
 21
162.6064978927626044
 31
0.0
  0
LINE
  5
1D8E5
  8
0
 10
3248.7234422903361519
 20
162.6064978927626044
 30
0.0
 11
3248.7234422903361519
 21
162.1340569478626037
 31
0.0
  0
LINE
  5
1D8E6
  8
0
 10
3248.7234422903361519
 20
162.1340569478626037
 30
0.0
 11
3248.6939178227348748
 21
162.1340569478626037
 31
0.0
  0
LINE
  5
1D8E7
  8
0
 10
3248.6939178227348748
 20
162.1340569478626037
 30
0.0
 11
3248.6939147312359637
 21
161.5395687588626004
 31
0.0
  0
LINE
  5
1D8E8
  8
0
 10
3250.1309226052358099
 20
161.5395687588626004
 30
0.0
 11
3250.1309226052358099
 21
162.1340569478626037
 31
0.0
  0
LINE
  5
1D8E9
  8
0
 10
3250.1309226052358099
 20
162.1340569478626037
 30
0.0
 11
3250.1013950462361208
 21
162.1340569478626037
 31
0.0
  0
LINE
  5
1D8EA
  8
0
 10
3250.1013950462361208
 20
162.1340569478626037
 30
0.0
 11
3250.1013950462361208
 21
162.6064978927626044
 31
0.0
  0
ARC
  5
1D8EB
  8
0
 10
3249.4125827558118544
 20
162.3012205039082971
 30
0.0
 40
0.5277862739822355
 50
129.3737916532651866
 51
144.6611414080005034
  0
ARC
  5
1D8EC
  8
0
 10
3249.033359617167207
 20
162.7633251080733032
 30
0.0
 40
0.0700020280733381
 50
309.3737916532651866
 51
68.0849856609049482
  0
ARC
  5
1D8ED
  8
0
 10
3249.1447568248918287
 20
163.0402014649451985
 30
0.0
 40
0.2284437038560342
 50
215.0295316714870921
 51
248.0828131729849986
  0
LINE
  5
1D8EE
  8
0
 10
3248.9576942588150814
 20
162.9090751052625876
 30
0.0
 11
3248.9576942588359998
 21
163.4076789950798911
 31
0.0
  0
LINE
  5
1D8EF
  8
0
 10
3248.9576942588359998
 20
163.4076789950798911
 30
0.0
 11
3248.9163556761359359
 21
163.4490175777625893
 31
0.0
  0
LINE
  5
1D8F0
  8
0
 10
3248.9163556761359359
 20
163.4490175777625893
 30
0.0
 11
3248.9163556761359359
 21
163.5569703336626048
 31
0.0
  0
ARC
  5
1D8F1
  8
0
 10
3248.9363556761359177
 20
163.5569703336626048
 30
0.0
 40
0.0199999999999925
 50
89.9999999999739515
 51
180.0000000000098055
  0
LINE
  5
1D8F2
  8
0
 10
3249.0594865376888265
 20
162.8282686832625927
 30
0.0
 11
3249.7653507987511148
 21
162.8282686832625927
 31
0.0
  0
LINE
  5
1D8F3
  8
0
 10
3249.7765918964701086
 20
163.7867813573625995
 30
0.0
 11
3249.7765918964701086
 21
163.6686711305625863
 31
0.0
  0
LINE
  5
1D8F4
  8
0
 10
3249.7765918964701086
 20
163.6686711305625863
 30
0.0
 11
3249.8258045322700127
 21
163.6194584960626059
 31
0.0
  0
LINE
  5
1D8F5
  8
0
 10
3249.8258045322700127
 20
163.6194584960626059
 30
0.0
 11
3249.8258045322700127
 21
163.5769703336625867
 31
0.0
  0
LINE
  5
1D8F6
  8
0
 10
3249.8258045322700127
 20
163.6194584960626059
 30
0.0
 11
3248.9990328413700809
 21
163.6194584960626059
 31
0.0
  0
LINE
  5
1D8F7
  8
0
 10
3249.0482454397701986
 20
163.6686711305625863
 30
0.0
 11
3249.7765918964701086
 21
163.6686711305625863
 31
0.0
  0
LINE
  5
1D8F8
  8
0
 10
3248.9990328413700809
 20
163.5769703336625867
 30
0.0
 11
3248.9990328413700809
 21
163.6194584960626059
 31
0.0
  0
LINE
  5
1D8F9
  8
0
 10
3248.9990328413700809
 20
163.6194584960626059
 30
0.0
 11
3249.0482454397701986
 21
163.6686711305625863
 31
0.0
  0
LINE
  5
1D8FA
  8
0
 10
3249.0482454397701986
 20
163.6686711305625863
 30
0.0
 11
3249.0482454397701986
 21
163.7867813573625995
 31
0.0
  0
LINE
  5
1D8FB
  8
0
 10
3244.4124186680701314
 20
161.5395687588626004
 30
0.0
 11
3254.4124186680710409
 21
161.5395687588626004
 31
0.0
  0
LINE
  5
1D8FC
  8
0
 10
3244.4423399278712168
 20
161.1183089163625937
 30
0.0
 11
3254.383416959151873
 21
161.1183089163625937
 31
0.0
  0
ARC
  5
1D8FD
  8
0
 10
3244.4423399278712168
 20
161.148230176162599
 30
0.0
 40
0.0299212598000054
 50
180.0
 51
269.9999999999739089
  0
LINE
  5
1D8FE
  8
0
 10
3244.4124186680701314
 20
161.148230176162599
 30
0.0
 11
3244.4124186680701314
 21
161.5395687588626004
 31
0.0
  0
LINE
  5
1D8FF
  8
0
 10
3254.4123773704700398
 20
161.5395687588626004
 30
0.0
 11
3254.4124186680710409
 21
161.148230176162599
 31
0.0
  0
ARC
  5
1D900
  8
0
 10
3254.3824860891818389
 20
161.1482270174051052
 30
0.0
 40
0.0299325790551601
 50
271.7821224589358735
 51
0.0060463707907603
  0
LINE
  5
1D901
  8
0
 10
3245.097894210170125
 20
161.1183089163625937
 30
0.0
 11
3245.1027606130028289
 21
161.0679717587036066
 31
0.0
  0
ARC
  5
1D902
  8
0
 10
3245.1105980883748998
 20
161.0687294556838083
 30
0.0
 40
0.0078740158059688
 50
185.521974996829897
 51
267.9999992659937789
  0
LINE
  5
1D903
  8
0
 10
3245.110323289085045
 20
161.0608602365190052
 30
0.0
 11
3245.2023280384328245
 21
161.0576473586947941
 31
0.0
  0
ARC
  5
1D904
  8
0
 10
3245.2026028375748865
 20
161.0655165736231993
 30
0.0
 40
0.007874011566988
 50
267.9999992659937789
 51
309.8822942584292832
  0
LINE
  5
1D905
  8
0
 10
3245.1625193742061128
 20
161.1183089163625937
 30
0.0
 11
3245.1674156209710418
 21
161.0679429868567922
 31
0.0
  0
ARC
  5
1D906
  8
0
 10
3245.1752324620460968
 20
161.0687028891001944
 30
0.0
 40
0.0078536905855321
 50
185.5524742488196068
 51
273.1009319640843955
  0
ARC
  5
1D907
  8
0
 10
3245.3531077922580153
 20
164.7862103469493036
 30
0.0
 40
3.7295735254335241
 50
267.2728775221253841
 51
268.6664936892078117
  0
ARC
  5
1D908
  8
0
 10
3245.2662243483318889
 20
161.0668160635792105
 30
0.0
 40
0.009169596108519
 50
270.5555188050809079
 51
343.6986969634194793
  0
LINE
  5
1D909
  8
0
 10
3245.2750253166700531
 20
161.0642422630625958
 30
0.0
 11
3245.2840649720701549
 21
161.1183089163625937
 31
0.0
  0
LINE
  5
1D90A
  8
0
 10
3245.3544311610739896
 20
161.1183089163625937
 30
0.0
 11
3245.3594162250701629
 21
161.0678575600626061
 31
0.0
  0
ARC
  5
1D90B
  8
0
 10
3245.3672768918690963
 20
161.0686342671706939
 30
0.0
 40
0.007898946541044
 50
185.6430394824691064
 51
267.9014325605381259
  0
ARC
  5
1D90C
  8
0
 10
3245.4780701964509717
 20
163.0496889991094918
 30
0.0
 40
1.9920479399360249
 50
266.803357761065115
 51
269.4513496349568982
  0
ARC
  5
1D90D
  8
0
 10
3245.4592224240800533
 20
161.0656388270656976
 30
0.0
 40
0.0079097046931907
 50
268.3532748354605815
 51
350.5836344767878927
  0
LINE
  5
1D90E
  8
0
 10
3245.4670255492219439
 20
161.0643447380585087
 30
0.0
 11
3245.4759750981079378
 21
161.1183089163625937
 31
0.0
  0
ARC
  5
1D90F
  8
0
 10
3245.3698640155430439
 20
160.0164600607631087
 30
0.0
 40
1.0442169822588461
 50
86.2273177070043744
 51
89.0194202113934807
  0
ARC
  5
1D910
  8
0
 10
3245.4438666129422018
 20
161.7994900554134006
 30
0.0
 40
0.7410947959591
 50
265.6561137122840819
 51
269.5906242061205944
  0
LINE
  5
1D911
  8
0
 10
3245.6677981336438279
 20
161.1183089163625937
 30
0.0
 11
3245.6729284450698287
 21
161.0677181290625981
 31
0.0
  0
ARC
  5
1D912
  8
0
 10
3245.6808110308788855
 20
161.0685174864595126
 30
0.0
 40
0.0079230127652789
 50
185.790456645534988
 51
260.8902750468009231
  0
ARC
  5
1D913
  8
0
 10
3245.7669585491439648
 20
162.3839504924079051
 30
0.0
 40
1.326139421609754
 50
266.2210651511093147
 51
270.240366111552305
  0
ARC
  5
1D914
  8
0
 10
3245.7716209819509459
 20
161.0670591593759866
 30
0.0
 40
0.009280255098631
 50
275.5711562158904258
 51
344.0206705662118907
  0
LINE
  5
1D915
  8
0
 10
3245.7805426579679988
 20
161.0645043929011138
 30
0.0
 11
3245.7893271729699336
 21
161.1183089163625937
 31
0.0
  0
ARC
  5
1D916
  8
0
 10
3245.7099525577327768
 20
160.7617520120913923
 30
0.0
 40
0.2997091250167576
 50
81.9132535850135639
 51
91.5593739689956436
  0
ARC
  5
1D917
  8
0
 10
3245.8015120796371775
 20
162.3673901654588008
 30
0.0
 40
1.30984110201674
 50
265.6339680950206912
 51
267.838659459005612
  0
LINE
  5
1D918
  8
0
 10
3245.8267990042181736
 20
161.1183089163625937
 30
0.0
 11
3245.833047255470774
 21
161.067023078162606
 31
0.0
  0
ARC
  5
1D919
  8
0
 10
3245.8409172719088929
 20
161.0679818972400028
 30
0.0
 40
0.007928208672754
 50
186.9462212056812973
 51
268.2075616340047191
  0
ARC
  5
1D91A
  8
0
 10
3245.6667497040120907
 20
148.5267346563356909
 30
0.0
 40
12.5345295574200097
 50
88.7856530488089959
 51
89.2049819033107525
  0
ARC
  5
1D91B
  8
0
 10
3245.9324218507272235
 20
161.066583243586507
 30
0.0
 40
0.008134241723715
 50
269.7830733181019127
 51
349.842311994547174
  0
LINE
  5
1D91C
  8
0
 10
3245.9404285972709658
 20
161.0651487059625993
 30
0.0
 11
3245.9484774477700739
 21
161.1183089163625937
 31
0.0
  0
LINE
  5
1D91D
  8
0
 10
3245.9808496208888755
 20
161.1183089163625937
 30
0.0
 11
3245.98684716569187
 21
161.0669768868729932
 31
0.0
  0
ARC
  5
1D91E
  8
0
 10
3245.9946593969530113
 20
161.0678896543491874
 30
0.0
 40
0.0078653735919127
 50
186.6641241815920864
 51
266.3202427810472273
  0
ARC
  5
1D91F
  8
0
 10
3246.1079010533549081
 20
165.0727346700745102
 30
0.0
 40
4.014306015682978
 50
268.3762911609683783
 51
269.6959918497826152
  0
ARC
  5
1D920
  8
0
 10
3246.0863466730688742
 20
161.0668151358406988
 30
0.0
 40
0.0083338701981979
 50
271.7520402296754014
 51
348.751060169022594
  0
LINE
  5
1D921
  8
0
 10
3246.0945204403701609
 20
161.0651894296626097
 30
0.0
 11
3246.0968217833251401
 21
161.0804399007724044
 31
0.0
  0
LINE
  5
1D922
  8
0
 10
3246.0921105368638564
 20
161.1183089163625937
 30
0.0
 11
3246.0984275371329204
 21
161.0675328460442017
 31
0.0
  0
ARC
  5
1D923
  8
0
 10
3246.1065819378759443
 20
161.0685473269082877
 30
0.0
 40
0.0082172637121832
 50
187.0916732239755902
 51
263.9703720623979279
  0
ARC
  5
1D924
  8
0
 10
3246.1827838183698987
 20
162.210022233049898
 30
0.0
 40
1.1522267909868269
 50
266.1649906753102073
 51
270.7800017570781961
  0
ARC
  5
1D925
  8
0
 10
3246.1980487143778191
 20
161.0659958128539984
 30
0.0
 40
0.0081045211766919
 50
272.9746203700348133
 51
350.7829525499320766
  0
LINE
  5
1D926
  8
0
 10
3246.2060485952551971
 20
161.0646976720875898
 30
0.0
 11
3246.2146150909698008
 21
161.1183089163625937
 31
0.0
  0
LINE
  5
1D927
  8
0
 10
3246.2822179999748187
 20
161.1183089163625937
 30
0.0
 11
3246.2883024239949918
 21
161.0668966714814019
 31
0.0
  0
ARC
  5
1D928
  8
0
 10
3246.2961351681619817
 20
161.0678236439734121
 30
0.0
 40
0.007887405098959
 50
186.749322814230112
 51
268.9841298514816117
  0
ARC
  5
1D929
  8
0
 10
3246.3843819204171268
 20
163.8336528322803929
 30
0.0
 40
2.775123250002657
 50
268.1748431561074995
 51
270.0759521202633096
  0
ARC
  5
1D92A
  8
0
 10
3246.3881618800478464
 20
161.0664397124564005
 30
0.0
 40
0.0079083396323484
 50
269.2666654249043745
 51
351.4861922401972834
  0
LINE
  5
1D92B
  8
0
 10
3246.3959830714698001
 20
161.0652689005625859
 30
0.0
 11
3246.4039230230700923
 21
161.1183089163625937
 31
0.0
  0
ARC
  5
1D92C
  8
0
 10
3246.3355209564278994
 20
160.8561306380308906
 30
0.0
 40
0.2057454125232466
 50
80.7072111032787518
 51
95.0526625617388561
  0
ARC
  5
1D92D
  8
0
 10
3246.3654328461029763
 20
161.664145619349199
 30
0.0
 40
0.604978826654231
 50
265.4462211204278219
 51
270.3136525445863754
  0
LINE
  5
1D92E
  8
0
 10
3246.5168576444070823
 20
161.1183089163625937
 30
0.0
 11
3246.5239181855649804
 21
161.0660731007625941
 31
0.0
  0
ARC
  5
1D92F
  8
0
 10
3246.5317212429281426
 20
161.0671278140285096
 30
0.0
 40
0.0078740157659048
 50
187.6978260274051138
 51
269.9999995809037046
  0
LINE
  5
1D930
  8
0
 10
3246.5317212428699349
 20
161.0592537982626027
 30
0.0
 11
3246.6412690983570428
 21
161.0592537974613094
 31
0.0
  0
ARC
  5
1D931
  8
0
 10
3246.6407546241348427
 20
161.1152680273002886
 30
0.0
 40
0.0560165637766475
 50
257.1585810644754133
 51
270.5257668979010077
  0
ARC
  5
1D932
  8
0
 10
3246.6308001512052215
 20
161.0680500908935926
 30
0.0
 40
0.0078071379420895
 50
184.9495424281539897
 51
251.3594360474073994
  0
LINE
  5
1D933
  8
0
 10
3246.6230221255677861
 20
161.067376503449708
 30
0.0
 11
3246.6173194279908785
 21
161.1183089163625937
 31
0.0
  0
ARC
  5
1D934
  8
0
 10
3246.5981147935340232
 20
154.3725345925346915
 30
0.0
 40
6.6868584782482401
 50
88.9329736131627868
 51
89.6302373161947372
  0
ARC
  5
1D935
  8
0
 10
3246.7227852312471441
 20
161.0661498484022047
 30
0.0
 40
0.0079176876606697
 50
268.932973613162801
 51
351.2301721921480748
  0
LINE
  5
1D936
  8
0
 10
3246.7306103516962139
 20
161.0649426749070017
 30
0.0
 11
3246.7388431083218165
 21
161.1183089163625937
 31
0.0
  0
LINE
  5
1D937
  8
0
 10
3246.8394029130699892
 20
161.1183089163625937
 30
0.0
 11
3246.8316274333142246
 21
161.0653900560332943
 31
0.0
  0
ARC
  5
1D938
  8
0
 10
3246.8237278030719608
 20
161.0665507653654061
 30
0.0
 40
0.0079844476396133
 50
268.6300599045608237
 51
351.6412205229419214
  0
ARC
  5
1D939
  8
0
 10
3246.807932050708132
 20
163.3331477608390969
 30
0.0
 40
2.2746326892575541
 50
268.0780923179019055
 51
270.3930743586258814
  0
ARC
  5
1D93A
  8
0
 10
3246.7316676256159553
 20
161.0672498845144105
 30
0.0
 40
0.0074552825317789
 50
243.8986332857803916
 51
269.8411067719418952
  0
ARC
  5
1D93B
  8
0
 10
3246.7685061833349209
 20
160.7125457219011082
 30
0.0
 40
0.3481837148226274
 50
85.1285719142408652
 51
92.5073517773178366
  0
ARC
  5
1D93C
  8
0
 10
3246.7910923726130932
 20
161.8071882663221004
 30
0.0
 40
0.7477491442376524
 50
267.1009547574080898
 51
270.5349680803720958
  0
LINE
  5
1D93D
  8
0
 10
3246.8966281533639631
 20
161.1183089163625937
 30
0.0
 11
3246.903688694471839
 21
161.0660731007139077
 31
0.0
  0
ARC
  5
1D93E
  8
0
 10
3246.9114917517699723
 20
161.0671278139625997
 30
0.0
 40
0.0078740156999998
 50
187.6978259660554045
 51
270.0
  0
LINE
  5
1D93F
  8
0
 10
3246.9114917517699723
 20
161.0592537982626027
 30
0.0
 11
3247.0035798226708721
 21
161.0592537982626027
 31
0.0
  0
ARC
  5
1D940
  8
0
 10
3247.0035798226708721
 20
161.0671454999680066
 30
0.0
 40
0.0078917017053897
 50
270.0000000000259774
 51
352.1899425905104977
  0
LINE
  5
1D941
  8
0
 10
3247.0113983209698745
 20
161.0660731007176878
 30
0.0
 11
3247.0185630791361291
 21
161.1183089163625937
 31
0.0
  0
LINE
  5
1D942
  8
0
 10
3247.224797720351944
 20
161.1183089163625937
 30
0.0
 11
3247.2306634262699845
 21
161.0670262485625983
 31
0.0
  0
ARC
  5
1D943
  8
0
 10
3247.2387191820948829
 20
161.0680096568111992
 30
0.0
 40
0.0081155587408458
 50
186.9599585448264065
 51
258.1619750198191241
  0
ARC
  5
1D944
  8
0
 10
3247.2970849258658745
 20
161.8387688501225909
 30
0.0
 40
0.7810126163311149
 50
265.5917528896645194
 51
272.4435513141372098
  0
ARC
  5
1D945
  8
0
 10
3247.328632269919126
 20
161.0685279632712934
 30
0.0
 40
0.0102128230145051
 50
279.8733291840064794
 51
341.1076502176459826
  0
LINE
  5
1D946
  8
0
 10
3247.3382949138631375
 20
161.0652211421491131
 30
0.0
 11
3247.3462890921700819
 21
161.1183089163625937
 31
0.0
  0
ARC
  5
1D947
  8
0
 10
3247.2754119146520679
 20
160.7616397132987061
 30
0.0
 40
0.2991652282975051
 50
83.3696177320035332
 51
93.2524244286427546
  0
ARC
  5
1D948
  8
0
 10
3247.2933383040081026
 20
161.3695862754063057
 30
0.0
 40
0.3112261390342768
 50
263.5615601217671156
 51
273.060482038904297
  0
ARC
  5
1D949
  8
0
 10
3247.3623361121931339
 20
161.4994030758878125
 30
0.0
 40
0.440799960090032
 50
266.2486276592192098
 51
271.5859681075709204
  0
ARC
  5
1D94A
  8
0
 10
3247.3743079906948878
 20
161.0670091900292107
 30
0.0
 40
0.0082403706659575
 50
271.5859681075709204
 51
353.4772360778296161
  0
LINE
  5
1D94B
  8
0
 10
3247.3824950198018087
 20
161.0660731007625941
 30
0.0
 11
3247.3900257279701691
 21
161.1183089163625937
 31
0.0
  0
LINE
  5
1D94C
  8
0
 10
3247.4689368473900686
 20
161.1183089163625937
 30
0.0
 11
3247.4618763062758262
 21
161.0660731007625941
 31
0.0
  0
ARC
  5
1D94D
  8
0
 10
3247.4540732488408139
 20
161.0671278140316929
 30
0.0
 40
0.0078740158376197
 50
269.9924413202630831
 51
352.3021740196900851
  0
LINE
  5
1D94E
  8
0
 10
3247.4540722100700805
 20
161.0592537982626027
 30
0.0
 11
3247.3771213453328528
 21
161.0592639499168968
 31
0.0
  0
ARC
  5
1D94F
  8
0
 10
3247.5824989836651184
 20
164.2336159018933017
 30
0.0
 40
3.182831464433693
 50
265.5375944857033801
 51
265.8847711702017023
  0
ARC
  5
1D950
  8
0
 10
3247.3847746133887995
 20
161.9726190534867101
 30
0.0
 40
0.9141435660350005
 50
266.8203214486918
 51
268.0764733689359218
  0
LINE
  5
1D951
  8
0
 10
3247.510346943463901
 20
161.1183089163625937
 30
0.0
 11
3247.5174074845708674
 21
161.0660731007139077
 31
0.0
  0
ARC
  5
1D952
  8
0
 10
3247.5252105587442202
 20
161.0671278162434135
 30
0.0
 40
0.0078740327272283
 50
187.6978259660554045
 51
270.1108875796406892
  0
LINE
  5
1D953
  8
0
 10
3247.5252257977699628
 20
161.0592537982626027
 30
0.0
 11
3247.6173140536698156
 21
161.0592537982626027
 31
0.0
  0
ARC
  5
1D954
  8
0
 10
3247.6173140536648134
 20
161.0671278139666072
 30
0.0
 40
0.0078740157059179
 50
269.9987451050840832
 51
352.3021740295312725
  0
LINE
  5
1D955
  8
0
 10
3247.6251171109702227
 20
161.0660731007164941
 30
0.0
 11
3247.6321776520808271
 21
161.1183089163623947
 31
0.0
  0
LINE
  5
1D956
  8
0
 10
3247.8968096299831814
 20
161.1183089163625937
 30
0.0
 11
3247.9029987665708177
 21
161.066728184662594
 31
0.0
  0
ARC
  5
1D957
  8
0
 10
3247.9109763498609027
 20
161.0676854094052999
 30
0.0
 40
0.0080348064304398
 50
186.8421698134218047
 51
253.9647436090857013
  0
ARC
  5
1D958
  8
0
 10
3247.9675760912591613
 20
161.8098179006478006
 30
0.0
 40
0.7521580523906345
 50
265.5148582404070225
 51
272.7102519889303949
  0
ARC
  5
1D959
  8
0
 10
3248.0004954697778885
 20
161.0689141161269049
 30
0.0
 40
0.0107439879750336
 50
284.260366620274624
 51
341.1469669538003018
  0
LINE
  5
1D95A
  8
0
 10
3248.0106630488708106
 20
161.0654422847626108
 30
0.0
 11
3248.0182909786699383
 21
161.1183089163625937
 31
0.0
  0
LINE
  5
1D95B
  8
0
 10
3248.1067776867930661
 20
161.1183089163625937
 30
0.0
 11
3248.0997171456760952
 21
161.0660731007625941
 31
0.0
  0
ARC
  5
1D95C
  8
0
 10
3248.0919140883188447
 20
161.0671278140214895
 30
0.0
 40
0.0078740157589429
 50
270.0000003748288009
 51
352.3021740168945826
  0
LINE
  5
1D95D
  8
0
 10
3248.0919140883697764
 20
161.0592537982626027
 30
0.0
 11
3248.0188039469289834
 21
161.0592537977842937
 31
0.0
  0
ARC
  5
1D95E
  8
0
 10
3247.9959642191438434
 20
161.8520272424945858
 30
0.0
 40
0.7935585155070976
 50
270.5182521544293195
 51
270.9857174341987047
  0
ARC
  5
1D95F
  8
0
 10
3248.0062818335500197
 20
161.252365092443398
 30
0.0
 40
0.193807611071728
 50
270.9857174341987047
 51
272.9364190420948262
  0
ARC
  5
1D960
  8
0
 10
3248.0156351675141195
 20
161.070021472570005
 30
0.0
 40
0.0112242586959508
 50
272.936419042094883
 51
286.3984435135296849
  0
ARC
  5
1D961
  8
0
 10
3248.0166262897778324
 20
161.0666535902174132
 30
0.0
 40
0.0077135671850723
 50
286.398443513529287
 51
352.8928233197938766
  0
LINE
  5
1D962
  8
0
 10
3248.0242805893699369
 20
161.0656992231625964
 30
0.0
 11
3248.0316550584739161
 21
161.1183089163625937
 31
0.0
  0
LINE
  5
1D963
  8
0
 10
3248.0559881224439778
 20
161.1183089163625937
 30
0.0
 11
3248.0489506465760314
 21
161.0660731007625941
 31
0.0
  0
ARC
  5
1D964
  8
0
 10
3248.0410795766160845
 20
161.0671335315086026
 30
0.0
 40
0.0079421820478636
 50
277.1897470546376212
 51
352.3270210682728134
  0
LINE
  5
1D965
  8
0
 10
3248.1240657335729338
 20
161.1183089163625937
 30
0.0
 11
3248.1306654034719941
 21
161.0694827519872092
 31
0.0
  0
ARC
  5
1D966
  8
0
 10
3248.142369989548115
 20
161.0710648218754955
 30
0.0
 40
0.0118110236790291
 50
187.6978259554323074
 51
270.0060658503829245
  0
LINE
  5
1D967
  8
0
 10
3248.1423712399700889
 20
161.0592537982626027
 30
0.0
 11
3248.227592185793128
 21
161.0592628205241965
 31
0.0
  0
ARC
  5
1D968
  8
0
 10
3248.2275909350710208
 20
161.0710766777363858
 30
0.0
 40
0.0118138572784277
 50
270.0060658503829245
 51
352.2460053635011263
  0
LINE
  5
1D969
  8
0
 10
3248.2392967722648791
 20
161.069482751962596
 30
0.0
 11
3248.245945188827136
 21
161.1183089163625937
 31
0.0
  0
LINE
  5
1D96A
  8
0
 10
3248.8596152322770649
 20
161.1183089163625937
 30
0.0
 11
3248.8525546911760102
 21
161.0660731007625941
 31
0.0
  0
ARC
  5
1D96B
  8
0
 10
3248.8447516338210335
 20
161.0671278140189031
 30
0.0
 40
0.0078740157562617
 50
270.0000003577886787
 51
352.3021740339461871
  0
LINE
  5
1D96C
  8
0
 10
3248.8447516338701462
 20
161.0592537982626027
 30
0.0
 11
3248.7526481220711503
 21
161.0592537976874894
 31
0.0
  0
ARC
  5
1D96D
  8
0
 10
3248.7526481220211281
 20
161.0671278049869954
 30
0.0
 40
0.0078740072995132
 50
249.0614767282021944
 51
270.0000003577886787
  0
ARC
  5
1D96E
  8
0
 10
3248.7463683455712271
 20
161.0710648254924138
 30
0.0
 40
0.0118110283961921
 50
287.0642493713140766
 51
334.9990984180716964
  0
ARC
  5
1D96F
  8
0
 10
3248.7463683603491518
 20
161.071064818600604
 30
0.0
 40
0.0118110120892752
 50
334.9990984180776081
 51
352.3021823553809213
  0
LINE
  5
1D970
  8
0
 10
3248.7580729351711852
 20
161.069482751962596
 30
0.0
 11
3248.7646725978611357
 21
161.1183089163625937
 31
0.0
  0
LINE
  5
1D971
  8
0
 10
3248.6130252383518382
 20
161.1183089163625937
 30
0.0
 11
3248.6195621665701765
 21
161.0664109362625993
 31
0.0
  0
ARC
  5
1D972
  8
0
 10
3248.6274434463821308
 20
161.0674036408011887
 30
0.0
 40
0.0079435529684514
 50
187.1790140482281117
 51
269.3998710248454245
  0
ARC
  5
1D973
  8
0
 10
3248.6767664632438937
 20
161.7355297993156
 30
0.0
 40
0.6778721413185345
 50
265.8203327235947881
 51
273.6040380916346066
  0
ARC
  5
1D974
  8
0
 10
3248.7193746897510209
 20
161.0669451905845051
 30
0.0
 40
0.0079469059866006
 50
270.0244997903943158
 51
351.4086355473348249
  0
LINE
  5
1D975
  8
0
 10
3248.7272324227701574
 20
161.0657580315626092
 30
0.0
 11
3248.7351250434048779
 21
161.1183089163625937
 31
0.0
  0
ARC
  5
1D976
  8
0
 10
3248.7463826071871154
 20
161.0709525124447907
 30
0.0
 40
0.0116987228708201
 50
269.9301697805317986
 51
287.154087410784598
  0
LINE
  5
1D977
  8
0
 10
3248.7463683491700976
 20
161.0592537982626027
 30
0.0
 11
3248.7214868824821679
 21
161.0592841229943133
 31
0.0
  0
ARC
  5
1D978
  8
0
 10
3248.6706420797518149
 20
160.9249581274293064
 30
0.0
 40
0.1370898124499647
 50
78.0856084396412626
 51
99.8389312350174691
  0
ARC
  5
1D979
  8
0
 10
3248.6773662275709285
 20
161.2961752093011114
 30
0.0
 40
0.2380605175250288
 50
262.7240564143868937
 51
275.2004832602743818
  0
LINE
  5
1D97A
  8
0
 10
3253.7308801337699151
 20
161.1183089163625937
 30
0.0
 11
3253.7260137309381207
 21
161.0679717587036066
 31
0.0
  0
ARC
  5
1D97B
  8
0
 10
3253.7181762555660498
 20
161.0687294556838083
 30
0.0
 40
0.0078740158059688
 50
272.0000007340062211
 51
354.4780250031699893
  0
LINE
  5
1D97C
  8
0
 10
3253.7184510548549952
 20
161.0608602365190052
 30
0.0
 11
3253.6264463055081251
 21
161.0576473586947941
 31
0.0
  0
ARC
  5
1D97D
  8
0
 10
3253.6261715063660631
 20
161.0655165736231993
 30
0.0
 40
0.007874011566988
 50
230.1177057415706884
 51
272.0000007340062211
  0
LINE
  5
1D97E
  8
0
 10
3253.6662549697348368
 20
161.1183089163625937
 30
0.0
 11
3253.6613587229699078
 21
161.0679429868567922
 31
0.0
  0
ARC
  5
1D97F
  8
0
 10
3253.6535418818939434
 20
161.0687028891001944
 30
0.0
 40
0.0078536905855321
 50
266.8990680359156045
 51
354.4475257511787163
  0
ARC
  5
1D980
  8
0
 10
3253.4756665516829344
 20
164.7862103469493036
 30
0.0
 40
3.7295735254335241
 50
271.333506310792302
 51
272.7271224778746159
  0
ARC
  5
1D981
  8
0
 10
3253.5625499956090607
 20
161.0668160635792105
 30
0.0
 40
0.009169596108519
 50
196.3013030365804923
 51
269.4444811949192058
  0
LINE
  5
1D982
  8
0
 10
3253.5537490272708965
 20
161.0642422630625958
 30
0.0
 11
3253.5447093718698852
 21
161.1183089163625937
 31
0.0
  0
LINE
  5
1D983
  8
0
 10
3253.4743431828678695
 20
161.1183089163625937
 30
0.0
 11
3253.4693581188698772
 21
161.0678575600626061
 31
0.0
  0
ARC
  5
1D984
  8
0
 10
3253.4614974520709438
 20
161.0686342671706939
 30
0.0
 40
0.007898946541044
 50
272.0985674394618741
 51
354.3569605175292736
  0
ARC
  5
1D985
  8
0
 10
3253.3507041474899779
 20
163.0496889991094918
 30
0.0
 40
1.9920479399360249
 50
270.5486503650429881
 51
273.196642238934885
  0
ARC
  5
1D986
  8
0
 10
3253.3695519198599868
 20
161.0656388270656976
 30
0.0
 40
0.0079097046931907
 50
189.4163655232121073
 51
271.6467251645394185
  0
LINE
  5
1D987
  8
0
 10
3253.3617487947190057
 20
161.0643447380585087
 30
0.0
 11
3253.3527992458330118
 21
161.1183089163625937
 31
0.0
  0
ARC
  5
1D988
  8
0
 10
3253.4589103283969962
 20
160.0164600607631087
 30
0.0
 40
1.0442169822588461
 50
90.9805797886065051
 51
93.7726822929696056
  0
ARC
  5
1D989
  8
0
 10
3253.3849077309978384
 20
161.7994900554134006
 30
0.0
 40
0.7410947959591
 50
270.4093757938794056
 51
274.3438862877159181
  0
LINE
  5
1D98A
  8
0
 10
3253.1609762102962122
 20
161.1183089163625937
 30
0.0
 11
3253.1558458988702114
 21
161.0677181290625981
 31
0.0
  0
ARC
  5
1D98B
  8
0
 10
3253.1479633130611546
 20
161.0685174864595126
 30
0.0
 40
0.0079230127652789
 50
279.1097249531990769
 51
354.2095433544632783
  0
ARC
  5
1D98C
  8
0
 10
3253.0618157947960754
 20
162.3839504924079051
 30
0.0
 40
1.326139421609754
 50
269.7596338884478087
 51
273.7789348488906853
  0
ARC
  5
1D98D
  8
0
 10
3253.0571533619900038
 20
161.0670591593759866
 30
0.0
 40
0.009280255098631
 50
195.9793294337881093
 51
264.4288437841095174
  0
LINE
  5
1D98E
  8
0
 10
3253.0482316859720413
 20
161.0645043929011138
 30
0.0
 11
3253.0394471709701065
 21
161.1183089163625937
 31
0.0
  0
ARC
  5
1D98F
  8
0
 10
3253.1188217862081729
 20
160.7617520120913923
 30
0.0
 40
0.2997091250167576
 50
88.4406260310043422
 51
98.0867464149864361
  0
ARC
  5
1D990
  8
0
 10
3253.0272622643028626
 20
162.3673901654588008
 30
0.0
 40
1.30984110201674
 50
272.161340540994388
 51
274.3660319049793088
  0
LINE
  5
1D991
  8
0
 10
3253.001975339722776
 20
161.1183089163625937
 30
0.0
 11
3252.9957270884701757
 21
161.067023078162606
 31
0.0
  0
ARC
  5
1D992
  8
0
 10
3252.9878570720320567
 20
161.0679818972400028
 30
0.0
 40
0.007928208672754
 50
271.7924383659953946
 51
353.053778794318589
  0
ARC
  5
1D993
  8
0
 10
3253.162024639928859
 20
148.5267346563356909
 30
0.0
 40
12.5345295574200097
 50
90.7950180966892617
 51
91.2143469511909757
  0
ARC
  5
1D994
  8
0
 10
3252.8963524932150904
 20
161.066583243586507
 30
0.0
 40
0.008134241723715
 50
190.1576880054527123
 51
270.2169266818980873
  0
LINE
  5
1D995
  8
0
 10
3252.8883457466699838
 20
161.0651487059625993
 30
0.0
 11
3252.8802968961699662
 21
161.1183089163625937
 31
0.0
  0
LINE
  5
1D996
  8
0
 10
3252.8479247230511646
 20
161.1183089163625937
 30
0.0
 11
3252.8419271782481701
 21
161.0669768868729932
 31
0.0
  0
ARC
  5
1D997
  8
0
 10
3252.8341149469870288
 20
161.0678896543491874
 30
0.0
 40
0.0078653735919127
 50
273.6797572189527727
 51
353.3358758184078283
  0
ARC
  5
1D998
  8
0
 10
3252.7208732905860415
 20
165.0727346700745102
 30
0.0
 40
4.014306015682978
 50
270.3040081502173848
 51
271.6237088390316217
  0
ARC
  5
1D999
  8
0
 10
3252.7424276708720754
 20
161.0668151358406988
 30
0.0
 40
0.0083338701981979
 50
191.2489398309772923
 51
268.2479597703245986
  0
LINE
  5
1D99A
  8
0
 10
3252.7342539035698792
 20
161.0651894296626097
 30
0.0
 11
3252.7319525606149
 21
161.0804399007724044
 31
0.0
  0
LINE
  5
1D99B
  8
0
 10
3252.7366638070770932
 20
161.1183089163625937
 30
0.0
 11
3252.7303468068089387
 21
161.0675328460442017
 31
0.0
  0
ARC
  5
1D99C
  8
0
 10
3252.7221924060650053
 20
161.0685473269082877
 30
0.0
 40
0.0082172637121832
 50
276.0296279376020721
 51
352.9083267760228182
  0
ARC
  5
1D99D
  8
0
 10
3252.6459905255701415
 20
162.210022233049898
 30
0.0
 40
1.1522267909868269
 50
269.2199982429216902
 51
273.8350093246899064
  0
ARC
  5
1D99E
  8
0
 10
3252.6307256295631305
 20
161.0659958128539984
 30
0.0
 40
0.0081045211766919
 50
189.2170474500678097
 51
267.0253796299651867
  0
LINE
  5
1D99F
  8
0
 10
3252.6227257486862072
 20
161.0646976720875898
 30
0.0
 11
3252.6141592529711488
 21
161.1183089163625937
 31
0.0
  0
LINE
  5
1D9A0
  8
0
 10
3252.546556343966131
 20
161.1183089163625937
 30
0.0
 11
3252.5404719199459578
 21
161.0668966714814019
 31
0.0
  0
ARC
  5
1D9A1
  8
0
 10
3252.5326391757789679
 20
161.0678236439734121
 30
0.0
 40
0.007887405098959
 50
271.0158701485183883
 51
353.2506771857699164
  0
ARC
  5
1D9A2
  8
0
 10
3252.4443924235238228
 20
163.8336528322803929
 30
0.0
 40
2.775123250002657
 50
269.9240478797366904
 51
271.8251568438925005
  0
ARC
  5
1D9A3
  8
0
 10
3252.4406124638921938
 20
161.0664397124564005
 30
0.0
 40
0.0079083396323484
 50
188.5138077598026882
 51
270.7333345750956255
  0
LINE
  5
1D9A4
  8
0
 10
3252.4327912724697853
 20
161.0652689005625859
 30
0.0
 11
3252.4248513208699478
 21
161.1183089163625937
 31
0.0
  0
ARC
  5
1D9A5
  8
0
 10
3252.4932533875130503
 20
160.8561306380308906
 30
0.0
 40
0.2057454125232466
 50
84.9473374382611439
 51
99.2927888967212624
  0
ARC
  5
1D9A6
  8
0
 10
3252.4633414978370638
 20
161.664145619349199
 30
0.0
 40
0.604978826654231
 50
269.6863474554136246
 51
274.5537788795721781
  0
LINE
  5
1D9A7
  8
0
 10
3252.3119166995338674
 20
161.1183089163625937
 30
0.0
 11
3252.3048561583759692
 21
161.0660731007625941
 31
0.0
  0
ARC
  5
1D9A8
  8
0
 10
3252.2970531010118975
 20
161.0671278140285096
 30
0.0
 40
0.0078740157659048
 50
270.0000004190964091
 51
352.302173972593323
  0
LINE
  5
1D9A9
  8
0
 10
3252.2970531010701052
 20
161.0592537982626027
 30
0.0
 11
3252.1875052455839068
 21
161.0592537974613094
 31
0.0
  0
ARC
  5
1D9AA
  8
0
 10
3252.1880197198061069
 20
161.1152680273002886
 30
0.0
 40
0.0560165637766475
 50
269.4742331020988786
 51
282.8414189355245867
  0
ARC
  5
1D9AB
  8
0
 10
3252.1979741927348186
 20
161.0680500908935926
 30
0.0
 40
0.0078071379420895
 50
288.6405639525925153
 51
355.0504575718442766
  0
LINE
  5
1D9AC
  8
0
 10
3252.2057522183717992
 20
161.067376503449708
 30
0.0
 11
3252.2114549159500712
 21
161.1183089163625937
 31
0.0
  0
ARC
  5
1D9AD
  8
0
 10
3252.2306595504060169
 20
154.3725345925346915
 30
0.0
 40
6.6868584782482401
 50
90.3697626838313255
 51
91.0670263868372132
  0
ARC
  5
1D9AE
  8
0
 10
3252.1059891126938055
 20
161.0661498484022047
 30
0.0
 40
0.0079176876606697
 50
188.7698278078518115
 51
271.067026386837199
  0
LINE
  5
1D9AF
  8
0
 10
3252.0981639922451905
 20
161.0649426749070017
 30
0.0
 11
3252.0899312356191331
 21
161.1183089163625937
 31
0.0
  0
LINE
  5
1D9B0
  8
0
 10
3251.989371430870051
 20
161.1183089163625937
 30
0.0
 11
3251.9971469106271798
 21
161.0653900560332943
 31
0.0
  0
ARC
  5
1D9B1
  8
0
 10
3252.0050465408689888
 20
161.0665507653654061
 30
0.0
 40
0.0079844476396133
 50
188.358779477058107
 51
271.3699400954130851
  0
ARC
  5
1D9B2
  8
0
 10
3252.0208422932319081
 20
163.3331477608390969
 30
0.0
 40
2.2746326892575541
 50
269.6069256413741186
 51
271.9219076820980945
  0
ARC
  5
1D9B3
  8
0
 10
3252.0971067183259038
 20
161.0672498845144105
 30
0.0
 40
0.0074552825317789
 50
270.1588932280579911
 51
296.10136671421958
  0
ARC
  5
1D9B4
  8
0
 10
3252.0602681606060287
 20
160.7125457219011082
 30
0.0
 40
0.3481837148226274
 50
87.4926482226821918
 51
94.8714280857591348
  0
ARC
  5
1D9B5
  8
0
 10
3252.0376819713292207
 20
161.8071882663221004
 30
0.0
 40
0.7477491442376524
 50
269.4650319196277906
 51
272.8990452425919102
  0
LINE
  5
1D9B6
  8
0
 10
3251.9321461905769866
 20
161.1183089163625937
 30
0.0
 11
3251.9250856494691106
 21
161.0660731007139077
 31
0.0
  0
ARC
  5
1D9B7
  8
0
 10
3251.9172825921700678
 20
161.0671278139625997
 30
0.0
 40
0.0078740156999998
 50
270.0
 51
352.3021740339445955
  0
LINE
  5
1D9B8
  8
0
 10
3251.9172825921700678
 20
161.0592537982626027
 30
0.0
 11
3251.8251945212700775
 21
161.0592537982626027
 31
0.0
  0
ARC
  5
1D9B9
  8
0
 10
3251.8251945212700775
 20
161.0671454999680066
 30
0.0
 40
0.0078917017053897
 50
187.8100574094879107
 51
269.9999999999739089
  0
LINE
  5
1D9BA
  8
0
 10
3251.8173760229719846
 20
161.0660731007176878
 30
0.0
 11
3251.8102112648048205
 21
161.1183089163625937
 31
0.0
  0
LINE
  5
1D9BB
  8
0
 10
3251.6039766235880961
 20
161.1183089163625937
 30
0.0
 11
3251.5981109176700556
 21
161.0670262485625983
 31
0.0
  0
ARC
  5
1D9BC
  8
0
 10
3251.5900551618469763
 20
161.0680096568111992
 30
0.0
 40
0.0081155587408458
 50
281.8380249801808759
 51
353.0400414551718882
  0
ARC
  5
1D9BD
  8
0
 10
3251.5316894180750751
 20
161.8387688501225909
 30
0.0
 40
0.7810126163311149
 50
267.5564486858627902
 51
274.4082471103355942
  0
ARC
  5
1D9BE
  8
0
 10
3251.5001420740209142
 20
161.0685279632712934
 30
0.0
 40
0.0102128230145051
 50
198.8923497823539037
 51
260.1266708159935206
  0
LINE
  5
1D9BF
  8
0
 10
3251.4904794300778121
 20
161.0652211421491131
 30
0.0
 11
3251.4824852517699583
 21
161.1183089163625937
 31
0.0
  0
ARC
  5
1D9C0
  8
0
 10
3251.5533624292897912
 20
160.7616397132987061
 30
0.0
 40
0.2991652282975051
 50
86.7475755713572454
 51
96.6303822679964952
  0
ARC
  5
1D9C1
  8
0
 10
3251.5354360399319376
 20
161.3695862754063057
 30
0.0
 40
0.3112261390342768
 50
266.939517961095703
 51
276.4384398782328844
  0
ARC
  5
1D9C2
  8
0
 10
3251.4664382317469062
 20
161.4994030758878125
 30
0.0
 40
0.440799960090032
 50
268.4140318924291932
 51
273.7513723407806765
  0
ARC
  5
1D9C3
  8
0
 10
3251.4544663532451523
 20
161.0670091900292107
 30
0.0
 40
0.0082403706659575
 50
186.5227639221702987
 51
268.4140318924291932
  0
LINE
  5
1D9C4
  8
0
 10
3251.4462793241377767
 20
161.0660731007625941
 30
0.0
 11
3251.4387486159707805
 21
161.1183089163625937
 31
0.0
  0
LINE
  5
1D9C5
  8
0
 10
3251.359837496550881
 20
161.1183089163625937
 30
0.0
 11
3251.3668980376651234
 21
161.0660731007625941
 31
0.0
  0
ARC
  5
1D9C6
  8
0
 10
3251.3747010951001357
 20
161.0671278140316929
 30
0.0
 40
0.0078740158376197
 50
187.6978259803082949
 51
270.0075586797369169
  0
LINE
  5
1D9C7
  8
0
 10
3251.3747021338699597
 20
161.0592537982626027
 30
0.0
 11
3251.4516529986071873
 21
161.0592639499168968
 31
0.0
  0
ARC
  5
1D9C8
  8
0
 10
3251.2462753602749217
 20
164.2336159018933017
 30
0.0
 40
3.182831464433693
 50
274.1152288297984114
 51
274.4624055142966199
  0
ARC
  5
1D9C9
  8
0
 10
3251.4439997305521501
 20
161.9726190534867101
 30
0.0
 40
0.9141435660350005
 50
271.9235266310640213
 51
273.1796785513083137
  0
LINE
  5
1D9CA
  8
0
 10
3251.3184274004770486
 20
161.1183089163625937
 30
0.0
 11
3251.3113668593691727
 21
161.0660731007139077
 31
0.0
  0
ARC
  5
1D9CB
  8
0
 10
3251.3035637851958199
 20
161.0671278162434135
 30
0.0
 40
0.0078740327272283
 50
269.8891124203591971
 51
352.3021740339445955
  0
LINE
  5
1D9CC
  8
0
 10
3251.3035485461700773
 20
161.0592537982626027
 30
0.0
 11
3251.211460290271134
 21
161.0592537982626027
 31
0.0
  0
ARC
  5
1D9CD
  8
0
 10
3251.2114602902761362
 20
161.0671278139666072
 30
0.0
 40
0.0078740157059179
 50
187.6978259704686138
 51
270.0012548949159168
  0
LINE
  5
1D9CE
  8
0
 10
3251.2036572329711817
 20
161.0660731007164941
 30
0.0
 11
3251.1965966918601225
 21
161.1183089163623947
 31
0.0
  0
LINE
  5
1D9CF
  8
0
 10
3250.931964713958223
 20
161.1183089163625937
 30
0.0
 11
3250.9257755773701319
 21
161.066728184662594
 31
0.0
  0
ARC
  5
1D9D0
  8
0
 10
3250.9177979940791374
 20
161.0676854094052999
 30
0.0
 40
0.0080348064304398
 50
286.0352563909142987
 51
353.1578301865765752
  0
ARC
  5
1D9D1
  8
0
 10
3250.8611982526817883
 20
161.8098179006478006
 30
0.0
 40
0.7521580523906345
 50
267.2897480110694914
 51
274.4851417595929775
  0
ARC
  5
1D9D2
  8
0
 10
3250.8282788741621516
 20
161.0689141161269049
 30
0.0
 40
0.0107439879750336
 50
198.8530330461998119
 51
255.7396333797250065
  0
LINE
  5
1D9D3
  8
0
 10
3250.818111295070139
 20
161.0654422847626108
 30
0.0
 11
3250.8104833652701018
 21
161.1183089163625937
 31
0.0
  0
LINE
  5
1D9D4
  8
0
 10
3250.7219966571478835
 20
161.1183089163625937
 30
0.0
 11
3250.7290571982648544
 21
161.0660731007625941
 31
0.0
  0
ARC
  5
1D9D5
  8
0
 10
3250.7368602556221049
 20
161.0671278140214895
 30
0.0
 40
0.0078740157589429
 50
187.6978259831037974
 51
269.9999996251713128
  0
LINE
  5
1D9D6
  8
0
 10
3250.7368602555698089
 20
161.0592537982626027
 30
0.0
 11
3250.8099703970119663
 21
161.0592537977842937
 31
0.0
  0
ARC
  5
1D9D7
  8
0
 10
3250.8328101247961968
 20
161.8520272424945858
 30
0.0
 40
0.7935585155070976
 50
269.014282565801409
 51
269.4817478455706805
  0
ARC
  5
1D9D8
  8
0
 10
3250.8224925103900205
 20
161.252365092443398
 30
0.0
 40
0.193807611071728
 50
267.0635809579051738
 51
269.014282565801409
  0
ARC
  5
1D9D9
  8
0
 10
3250.8131391764268301
 20
161.070021472570005
 30
0.0
 40
0.0112242586959508
 50
253.6015564864702867
 51
267.063580957905117
  0
ARC
  5
1D9DA
  8
0
 10
3250.8121480541622077
 20
161.0666535902174132
 30
0.0
 40
0.0077135671850723
 50
187.1071766802060097
 51
253.6015564864707983
  0
LINE
  5
1D9DB
  8
0
 10
3250.8044937545710127
 20
161.0656992231625964
 30
0.0
 11
3250.797119285466124
 21
161.1183089163625937
 31
0.0
  0
LINE
  5
1D9DC
  8
0
 10
3250.7727862214960624
 20
161.1183089163625937
 30
0.0
 11
3250.7798236973649182
 21
161.0660731007625941
 31
0.0
  0
ARC
  5
1D9DD
  8
0
 10
3250.7876947673248651
 20
161.0671335315086026
 30
0.0
 40
0.0079421820478636
 50
187.6729789317271866
 51
262.8102529453623788
  0
LINE
  5
1D9DE
  8
0
 10
3250.7047086103680158
 20
161.1183089163625937
 30
0.0
 11
3250.6981089404680461
 21
161.0694827519872092
 31
0.0
  0
ARC
  5
1D9DF
  8
0
 10
3250.6864043543919252
 20
161.0710648218754955
 30
0.0
 40
0.0118110236790291
 50
269.9939341495909844
 51
352.3021740445660726
  0
LINE
  5
1D9E0
  8
0
 10
3250.6864031039699512
 20
161.0592537982626027
 30
0.0
 11
3250.6011821581478216
 21
161.0592628205241965
 31
0.0
  0
ARC
  5
1D9E1
  8
0
 10
3250.6011834088699288
 20
161.0710766777363858
 30
0.0
 40
0.0118138572784277
 50
187.7539946364973105
 51
269.9939341496170755
  0
LINE
  5
1D9E2
  8
0
 10
3250.5894775716760705
 20
161.069482751962596
 30
0.0
 11
3250.5828291551129041
 21
161.1183089163625937
 31
0.0
  0
LINE
  5
1D9E3
  8
0
 10
3249.9691591116638847
 20
161.1183089163625937
 30
0.0
 11
3249.9762196527649394
 21
161.0660731007625941
 31
0.0
  0
ARC
  5
1D9E4
  8
0
 10
3249.9840227101190067
 20
161.0671278140189031
 30
0.0
 40
0.0078740157562617
 50
187.6978259660538129
 51
269.9999996422113213
  0
LINE
  5
1D9E5
  8
0
 10
3249.9840227100708034
 20
161.0592537982626027
 30
0.0
 11
3250.0761262218697993
 21
161.0592537976874894
 31
0.0
  0
ARC
  5
1D9E6
  8
0
 10
3250.0761262219189121
 20
161.0671278049869954
 30
0.0
 40
0.0078740072995132
 50
269.9999996422113213
 51
290.9385232717978056
  0
ARC
  5
1D9E7
  8
0
 10
3250.0824059983701773
 20
161.0710648254924138
 30
0.0
 40
0.0118110283961921
 50
205.0009015819283036
 51
252.9357506286609976
  0
ARC
  5
1D9E8
  8
0
 10
3250.0824059835908884
 20
161.071064818600604
 30
0.0
 40
0.0118110120892752
 50
187.6978176446191071
 51
205.0009015819223919
  0
LINE
  5
1D9E9
  8
0
 10
3250.0707014087702191
 20
161.069482751962596
 30
0.0
 11
3250.0641017460789044
 21
161.1183089163625937
 31
0.0
  0
LINE
  5
1D9EA
  8
0
 10
3250.2157491055882019
 20
161.1183089163625937
 30
0.0
 11
3250.2092121773707731
 21
161.0664109362625993
 31
0.0
  0
ARC
  5
1D9EB
  8
0
 10
3250.2013308975588188
 20
161.0674036408011887
 30
0.0
 40
0.0079435529684514
 50
270.6001289751545755
 51
352.8209859517718883
  0
ARC
  5
1D9EC
  8
0
 10
3250.1520078806961465
 20
161.7355297993156
 30
0.0
 40
0.6778721413185345
 50
266.3959619083653934
 51
274.1796672764050982
  0
ARC
  5
1D9ED
  8
0
 10
3250.1093996541908382
 20
161.0669451905845051
 30
0.0
 40
0.0079469059866006
 50
188.5913644526636119
 51
269.9755002096057979
  0
LINE
  5
1D9EE
  8
0
 10
3250.1015419211698827
 20
161.0657580315626092
 30
0.0
 11
3250.0936493005351622
 21
161.1183089163625937
 31
0.0
  0
ARC
  5
1D9EF
  8
0
 10
3250.0823917367538343
 20
161.0709525124447907
 30
0.0
 40
0.0116987228708201
 50
252.845912589215402
 51
270.0698302194682014
  0
LINE
  5
1D9F0
  8
0
 10
3250.082405994770852
 20
161.0592537982626027
 30
0.0
 11
3250.1072874614587818
 21
161.0592841229943133
 31
0.0
  0
ARC
  5
1D9F1
  8
0
 10
3250.1581322641882252
 20
160.9249581274293064
 30
0.0
 40
0.1370898124499647
 50
80.1610687649825451
 51
101.9143915603586947
  0
ARC
  5
1D9F2
  8
0
 10
3250.1514081163700212
 20
161.2961752093011114
 30
0.0
 40
0.2380605175250288
 50
264.7995167397256182
 51
277.2759435856129926
  0
LINE
  5
1D9F3
  8
0
 10
3249.351503313746889
 20
161.1183089163625937
 30
0.0
 11
3249.3585638547701819
 21
161.0660731007625941
 31
0.0
  0
ARC
  5
1D9F4
  8
0
 10
3249.3665157031850867
 20
161.067147925598789
 30
0.0
 40
0.0080241598713232
 50
187.6978258827016077
 51
269.9223382799285105
  0
ARC
  5
1D9F5
  8
0
 10
3249.4117940952610297
 20
161.749165479995014
 30
0.0
 40
0.6915263372369828
 50
266.244911623331916
 51
273.8666347675983843
  0
ARC
  5
1D9F6
  8
0
 10
3249.458400652526052
 20
161.0670966374057969
 30
0.0
 40
0.0078834281459747
 50
270.1892081110183881
 51
353.2070649470970807
  0
LINE
  5
1D9F7
  8
0
 10
3249.4662287397991349
 20
161.066164173477091
 30
0.0
 11
3249.4724401028188367
 21
161.1183089163625937
 31
0.0
  0
ARC
  5
1D9F8
  8
0
 10
3249.414631467586787
 20
160.6029434915685101
 30
0.0
 40
0.4572008958143434
 50
86.9357008791324262
 51
93.4826215713333255
  0
ARC
  5
1D9F9
  8
0
 10
3249.4117712522479451
 20
161.3864421493838108
 30
0.0
 40
0.328089309085753
 50
265.6451661862669198
 51
274.7731562656978781
  0
LINE
  5
1D9FA
  8
0
 10
3264.7238852885620872
 20
146.649496223365702
 30
0.0
 11
3264.7096770979928806
 21
146.9904801448878118
 31
0.0
  0
LINE
  5
1D9FB
  8
0
 10
3264.7096770979928806
 20
146.9904801448878118
 30
0.0
 11
3265.6151888840040556
 21
146.9904555468625915
 31
0.0
  0
LINE
  5
1D9FC
  8
0
 10
3265.6151888840040556
 20
146.9904555468625915
 30
0.0
 11
3265.600953262981875
 21
146.6492600028284983
 31
0.0
  0
LINE
  5
1D9FD
  8
0
 10
3264.7088574211179548
 20
147.0101652876298033
 30
0.0
 11
3265.6150366555029905
 21
147.0101379872625955
 31
0.0
  0
ARC
  5
1D9FE
  8
0
 10
3265.6150370184691383
 20
147.0221858691587045
 30
0.0
 40
0.0120478819015871
 50
269.9982738560331086
 51
355.6120997258802277
  0
ARC
  5
1D9FF
  8
0
 10
3269.4652973372890301
 20
146.7267423827391895
 30
0.0
 40
3.8495309890198102
 50
171.0959671343991886
 51
175.6120997258801992
  0
ARC
  5
1DA00
  8
0
 10
3262.6861622705541777
 20
147.7888154721860872
 30
0.0
 40
3.0122961364884602
 50
351.0959671343991886
 51
356.8649713367956906
  0
LINE
  5
1DA01
  8
0
 10
3265.6939502703030485
 20
147.6240751842626082
 30
0.0
 11
3265.6939502703030485
 21
150.6962301762625884
 31
0.0
  0
LINE
  5
1DA02
  8
0
 10
3264.6310227327808207
 20
150.3222144282125896
 30
0.0
 11
3264.6309502707031243
 21
147.6241041555626055
 31
0.0
  0
ARC
  5
1DA03
  8
0
 10
3267.3115685269440291
 20
147.7443878957460015
 30
0.0
 40
2.6833155635970449
 50
182.5692322244615013
 51
190.1555735064472969
  0
ARC
  5
1DA04
  8
0
 10
3261.8533352604240463
 20
146.8345827583781897
 30
0.0
 40
2.8506037921104852
 50
3.755403546413417
 51
8.8117309709585427
  0
ARC
  5
1DA05
  8
0
 10
3264.7096535611472063
 20
147.0219950065240084
 30
0.0
 40
0.0118564787378456
 50
183.4116769839693859
 51
266.1498001839540279
  0
ARC
  5
1DA06
  8
0
 10
3264.7685249954538449
 20
146.9784612620599091
 30
0.0
 40
0.0317654215706602
 50
22.2276926231743985
 51
86.3836014869099671
  0
ARC
  5
1DA07
  8
0
 10
3265.5561651796838305
 20
146.9786310364250994
 30
0.0
 40
0.0315311084060734
 50
92.1573215976591058
 51
157.9703120009120028
  0
ARC
  5
1DA08
  8
0
 10
3265.7923299656631571
 20
150.6962041941548875
 30
0.0
 40
0.0197110244457573
 50
357.7480448025298756
 51
89.9687167294205778
  0
ARC
  5
1DA09
  8
0
 10
3264.5197256587889569
 20
150.4474529937891134
 30
0.0
 40
0.1093501293870452
 50
1.5827597789597601
 51
72.4875144672411977
  0
ARC
  5
1DA0A
  8
0
 10
3264.5175591162669662
 20
150.442471714018609
 30
0.0
 40
0.1147538776990545
 50
72.2043187688687595
 51
106.3023177087027022
  0
ARC
  5
1DA0B
  8
0
 10
3264.4824501236389551
 20
150.5648118954680967
 30
0.0
 40
0.0127431835373434
 50
199.5881665698013876
 51
266.9654693526977098
  0
ARC
  5
1DA0C
  8
0
 10
3264.4816228619820322
 20
150.5655309640972916
 30
0.0
 40
0.0134452505838041
 50
270.6505854364024799
 51
286.0806658986887783
  0
ARC
  5
1DA0D
  8
0
 10
3262.9080498940697908
 20
155.4086941361744891
 30
0.0
 40
0.0118099271749056
 50
107.8290119590414946
 51
197.996192719790713
  0
ARC
  5
1DA0E
  8
0
 10
3275.3997371056120755
 20
116.5692232834364006
 30
0.0
 40
40.810667086557487
 50
107.0523159411579996
 51
107.8290119590414946
  0
ARC
  5
1DA0F
  8
0
 10
3264.0016652117287776
 20
153.7292482003992973
 30
0.0
 40
1.9418686136509089
 50
99.3706005866819879
 51
107.0523159411579996
  0
ARC
  5
1DA10
  8
0
 10
3263.7566896303737849
 20
155.0741269884958058
 30
0.0
 40
0.5776771845342016
 50
64.5621369228849034
 51
88.4365405079938114
  0
ARC
  5
1DA11
  8
0
 10
3263.7910969630379441
 20
154.8022605864082095
 30
0.0
 40
0.8495331771375377
 50
91.2576529935847844
 51
97.1409635754247347
  0
ARC
  5
1DA12
  8
0
 10
3263.8146910266468694
 20
155.1799074420308102
 30
0.0
 40
0.4572912147575425
 50
35.3009269268113925
 51
65.4319811737718453
  0
ARC
  5
1DA13
  8
0
 10
3262.3927879944922097
 20
154.2535350431082009
 30
0.0
 40
2.1540702889661532
 50
18.1299966306457883
 51
33.5547722145189766
  0
ARC
  5
1DA14
  8
0
 10
3196.1148240594798153
 20
131.1827760578032951
 30
0.0
 40
72.3322576673142663
 50
16.7761226586754084
 51
19.160903186194421
  0
ARC
  5
1DA15
  8
0
 10
3262.5198865008360372
 20
151.1818629025337088
 30
0.0
 40
2.9810698235305071
 50
5.7717043228332541
 51
17.1366406553238093
  0
ARC
  5
1DA16
  8
0
 10
3264.5136073103499257
 20
151.3948617735555047
 30
0.0
 40
0.976102783905397
 50
347.1881951725816862
 51
5.1013157639358111
  0
ARC
  5
1DA17
  8
0
 10
3265.08626598942692
 20
151.2977024030226119
 30
0.0
 40
0.3974663832533639
 50
300.5691346797411825
 51
342.534700989603607
  0
ARC
  5
1DA18
  8
0
 10
3264.0641679140790075
 20
153.096665746183703
 30
0.0
 40
2.4664655705708358
 50
289.7802505876151145
 51
299.7590889385704145
  0
ARC
  5
1DA19
  8
0
 10
3265.8069998864580157
 20
148.5861672398193036
 30
0.0
 40
2.3704231418290478
 50
112.5268153804418034
 51
122.4615674979230988
  0
ARC
  5
1DA1A
  8
0
 10
3254.6593606080018617
 20
165.0407903447764966
 30
0.0
 40
17.5059226473911913
 50
304.1454014579916247
 51
304.3408562601107974
  0
LINE
  5
1DA1B
  8
0
 10
3264.4704445280030995
 20
150.5605393523194948
 30
0.0
 11
3262.8968533795041367
 21
155.4049540038625992
 31
0.0
  0
ARC
  5
1DA1C
  8
0
 10
3265.29838554875505
 20
152.7368697083913958
 30
0.0
 40
0.1312120487052135
 50
199.1894635639935984
 51
285.847892192601023
  0
LINE
  5
1DA1D
  8
0
 10
3265.3342175185389351
 20
152.6106450211595984
 30
0.0
 11
3265.4333832769898436
 21
152.6409528754323901
 31
0.0
  0
ARC
  5
1DA1E
  8
0
 10
3265.4368354276898572
 20
152.6296576138360024
 30
0.0
 40
0.0118110236213703
 50
17.9946312528749104
 51
106.9946310810487944
  0
LINE
  5
1DA1F
  8
0
 10
3265.4480687206150833
 20
152.6333063682864974
 30
0.0
 11
3265.9277707083938367
 21
151.1564646079702925
 31
0.0
  0
ARC
  5
1DA20
  8
0
 10
3265.9165374145100031
 20
151.1528158532086081
 30
0.0
 40
0.0118110246289339
 50
289.1431291819142757
 51
17.9946312528981416
  0
ARC
  5
1DA21
  8
0
 10
3266.0018003653917731
 20
150.861902104652188
 30
0.0
 40
0.2913548152833712
 50
106.2213744581409003
 51
131.8279168602603875
  0
ARC
  5
1DA22
  8
0
 10
3266.0348450121359747
 20
150.8489552804182097
 30
0.0
 40
0.3234349398124769
 50
134.661501041448787
 51
163.6274141649209923
  0
ARC
  5
1DA23
  8
0
 10
3266.3087309964348606
 20
150.7590498303763979
 30
0.0
 40
0.6116243757346834
 50
162.7790305169731937
 51
175.7415594963507033
  0
LINE
  5
1DA24
  8
0
 10
3265.9026495110051656
 20
151.2338043612313925
 30
0.0
 11
3265.9732414321510987
 21
151.2567664170933028
 31
0.0
  0
ARC
  5
1DA25
  8
0
 10
3265.9656334925898591
 20
151.2761309691595955
 30
0.0
 40
0.0208054469092863
 50
291.4488563442346845
 51
13.3669487444584707
  0
LINE
  5
1DA26
  8
0
 10
3265.9858753074768174
 20
151.2809409121067006
 30
0.0
 11
3265.6801071435538688
 21
152.2226758215126097
 31
0.0
  0
ARC
  5
1DA27
  8
0
 10
3265.6618605192861651
 20
152.2157454031944894
 30
0.0
 40
0.0195184526851012
 50
20.7977387335729205
 51
105.6114009537195955
  0
LINE
  5
1DA28
  8
0
 10
3265.6566078798041417
 20
152.2345438013626051
 30
0.0
 11
3265.5849273869430363
 21
152.2119643708736021
 31
0.0
  0
LINE
  5
1DA29
  8
0
 10
3263.0169684048742056
 20
155.0351561081286036
 30
0.0
 11
3263.0063848302038423
 21
155.0233656211626112
 31
0.0
  0
ARC
  5
1DA2A
  8
0
 10
3263.0124446532367983
 20
155.0179261011709002
 30
0.0
 40
0.0081430849766303
 50
138.0876837264806056
 51
192.5148055398406939
  0
ARC
  5
1DA2B
  8
0
 10
3304.6697417415448399
 20
168.4647388838901065
 30
0.0
 40
43.7819256552899603
 50
197.8888784821155866
 51
198.0274763675849954
  0
ARC
  5
1DA2C
  8
0
 10
3263.0462525036141415
 20
154.9193529945607963
 30
0.0
 40
0.0099195637763887
 50
203.4015493098459046
 51
251.2287761567366999
  0
LINE
  5
1DA2D
  8
0
 10
3263.0430604850957934
 20
154.9099610425114975
 30
0.0
 11
3263.0587146190350722
 21
154.9066321195284104
 31
0.0
  0
LINE
  5
1DA2E
  8
0
 10
3263.0692214125360806
 20
154.8742848747473033
 30
0.0
 11
3263.0587100229831776
 21
154.8627465675330939
 31
0.0
  0
ARC
  5
1DA2F
  8
0
 10
3263.0644556347610887
 20
154.8575123193450054
 30
0.0
 40
0.0077723489891641
 50
137.6665020949295126
 51
185.5592301742208861
  0
LINE
  5
1DA30
  8
0
 10
3263.0695659839861946
 20
154.8732240432914011
 30
0.0
 11
3263.058709886799079
 21
154.8613093002632013
 31
0.0
  0
ARC
  5
1DA31
  8
0
 10
3263.0644303266458337
 20
154.8560971315413894
 30
0.0
 40
0.0077388716770057
 50
137.6618382672938026
 51
175.090984956319403
  0
ARC
  5
1DA32
  8
0
 10
3263.064793196975188
 20
154.8560659650651985
 30
0.0
 40
0.0081030779716245
 50
175.0909849563259115
 51
197.6618207477256135
  0
LINE
  5
1DA33
  8
0
 10
3263.0570720667938076
 20
154.8536075059236907
 30
0.0
 11
3263.0895353240848635
 21
154.7536679334918119
 31
0.0
  0
ARC
  5
1DA34
  8
0
 10
3263.0970205518110561
 20
154.756093921632413
 30
0.0
 40
0.0078685487017575
 50
197.9535975475633904
 51
258.0074371240248183
  0
LINE
  5
1DA35
  8
0
 10
3263.0953855875959562
 20
154.7483971073116038
 30
0.0
 11
3263.1112026805808455
 21
154.745037226206307
 31
0.0
  0
LINE
  5
1DA36
  8
0
 10
3263.1700684409370297
 20
154.5638073239240953
 30
0.0
 11
3263.1591210692981804
 21
154.5517627641632998
 31
0.0
  0
ARC
  5
1DA37
  8
0
 10
3263.1649020859258599
 20
154.5465083639419106
 30
0.0
 40
0.0078120979855571
 50
137.7321147341266112
 51
198.2571650829503085
  0
ARC
  5
1DA38
  8
0
 10
3252.2681473416978406
 20
150.9517866045221979
 30
0.0
 40
11.4665632001954503
 50
17.7320971624219688
 51
18.2571650829518397
  0
ARC
  5
1DA39
  8
0
 10
3263.197386683683817
 20
154.446499169601509
 30
0.0
 40
0.0078120990077966
 50
197.7320971624718027
 51
258.2571430820593719
  0
LINE
  5
1DA3A
  8
0
 10
3263.195796767703996
 20
154.4388505711625896
 30
0.0
 11
3263.2117455409629656
 21
154.435535295862195
 31
0.0
  0
ARC
  5
1DA3B
  8
0
 10
3263.1650575936091627
 20
154.5487215554121008
 30
0.0
 40
0.0079626100391711
 50
138.2040769201713886
 51
187.8989755050781127
  0
LINE
  5
1DA3C
  8
0
 10
3263.1591212812968479
 20
154.5540284711622121
 30
0.0
 11
3263.1694807693311304
 21
154.5656165873581074
 31
0.0
  0
LINE
  5
1DA3D
  8
0
 10
3264.3086883273608692
 20
151.0583404870961033
 30
0.0
 11
3264.2981396554819185
 21
151.0464877954331087
 31
0.0
  0
ARC
  5
1DA3E
  8
0
 10
3264.3043138112470842
 20
151.0409929133303137
 30
0.0
 40
0.008265224058026
 50
138.3315207949027013
 51
199.0616375425748004
  0
LINE
  5
1DA3F
  8
0
 10
3264.2965017876949787
 20
151.0382936140237007
 30
0.0
 11
3264.3289193979630909
 21
150.9385509947883861
 31
0.0
  0
ARC
  5
1DA40
  8
0
 10
3264.3364235032117904
 20
150.9407300041023916
 30
0.0
 40
0.0078140691817038
 50
196.1920096198498982
 51
258.1232043777238232
  0
LINE
  5
1DA41
  8
0
 10
3264.3348153062038364
 20
150.9330832152625987
 30
0.0
 11
3264.3504408748149217
 21
150.9297970001971976
 31
0.0
  0
LINE
  5
1DA42
  8
0
 10
3264.2983513439830858
 20
151.090164937782589
 30
0.0
 11
3264.2824141821038211
 21
151.0937188104140887
 31
0.0
  0
ARC
  5
1DA43
  8
0
 10
3264.2841516667758697
 20
151.1015104724550895
 30
0.0
 40
0.0079830351588147
 50
191.5143621711584103
 51
257.4291250365685073
  0
LINE
  5
1DA44
  8
0
 10
3264.2763292926038048
 20
151.0999169503625978
 30
0.0
 11
3264.2441765366138497
 21
151.1989128542086007
 31
0.0
  0
ARC
  5
1DA45
  8
0
 10
3264.2519029091918128
 20
151.2012946739151005
 30
0.0
 40
0.0080851653254331
 50
138.8548281515267036
 51
197.1330340958533895
  0
LINE
  5
1DA46
  8
0
 10
3264.2458144167981118
 20
151.2066144632630937
 30
0.0
 11
3264.2565398961301071
 21
151.2188897612238918
 31
0.0
  0
LINE
  5
1DA47
  8
0
 10
3264.1558056173757905
 20
151.5290201899252054
 30
0.0
 11
3264.145403370483109
 21
151.5175982666330867
 31
0.0
  0
ARC
  5
1DA48
  8
0
 10
3264.1511562058822165
 20
151.5123590076530036
 30
0.0
 40
0.0077810635396736
 50
137.6750477586724912
 51
188.314213434879008
  0
LINE
  5
1DA49
  8
0
 10
3264.1563253740619075
 20
151.527420016025701
 30
0.0
 11
3264.1454031583821234
 21
151.5153325596330944
 31
0.0
  0
ARC
  5
1DA4A
  8
0
 10
3264.151260619254117
 20
151.510039762795202
 30
0.0
 40
0.0078945263461834
 50
137.8990587031134112
 51
171.3003116783843893
  0
ARC
  5
1DA4B
  8
0
 10
3264.1512898252940431
 20
151.5100352938056005
 30
0.0
 40
0.0079240723213682
 50
171.3003116783746975
 51
202.3994808522583924
  0
LINE
  5
1DA4C
  8
0
 10
3264.1439636282989341
 20
151.5070157309652927
 30
0.0
 11
3264.1762278499008971
 21
151.4076895570262025
 31
0.0
  0
ARC
  5
1DA4D
  8
0
 10
3264.1837267514961241
 20
151.4101419225179939
 30
0.0
 40
0.0078954427588688
 50
195.8758271356356886
 51
257.9529491508317847
  0
LINE
  5
1DA4E
  8
0
 10
3264.182078855204054
 20
151.4024203647626052
 30
0.0
 11
3264.1980327619949094
 21
151.3990155616546929
 31
0.0
  0
LINE
  5
1DA4F
  8
0
 10
3264.0160846767957992
 20
151.9591787788035049
 30
0.0
 11
3264.0050405524830239
 21
151.9471391896331056
 31
0.0
  0
ARC
  5
1DA50
  8
0
 10
3264.0107525651178548
 20
151.9418994612055087
 30
0.0
 40
0.0077512477929027
 50
137.4693001834999109
 51
198.5199613237618905
  0
LINE
  5
1DA51
  8
0
 10
3264.0034027307938231
 20
151.9394373934237024
 30
0.0
 11
3264.0357975002079911
 21
151.8397009960675916
 31
0.0
  0
ARC
  5
1DA52
  8
0
 10
3264.0433697010248579
 20
151.8419516063599133
 30
0.0
 40
0.0078995897734782
 50
196.5521559135812879
 51
257.918182103069114
  0
LINE
  5
1DA53
  8
0
 10
3264.0417162515959717
 20
151.834226994811587
 30
0.0
 11
3264.0577879978368401
 21
151.8307868451690013
 31
0.0
  0
LINE
  5
1DA54
  8
0
 10
3263.8889847509872197
 20
152.3504810739779032
 30
0.0
 11
3263.8726782596559133
 21
152.3541606580571965
 31
0.0
  0
ARC
  5
1DA55
  8
0
 10
3263.8744114647038259
 20
152.3618415514625895
 30
0.0
 40
0.0078740157000063
 50
197.9946311509455938
 51
257.2840924498868276
  0
LINE
  5
1DA56
  8
0
 10
3263.8669226027941477
 20
152.3594090485237018
 30
0.0
 11
3263.834460122443943
 21
152.4593501539112879
 31
0.0
  0
ARC
  5
1DA57
  8
0
 10
3263.841948984298142
 20
152.461782656832213
 30
0.0
 40
0.007874015641456
 50
137.9946479874990075
 51
197.9946311509953887
  0
LINE
  5
1DA58
  8
0
 10
3263.8360979424978723
 20
152.467051948263105
 30
0.0
 11
3263.8471388865500558
 21
152.4793118556906961
 31
0.0
  0
LINE
  5
1DA59
  8
0
 10
3263.8463311636010076
 20
152.4817985907689035
 30
0.0
 11
3263.8360982548820175
 21
152.4703716329331087
 31
0.0
  0
ARC
  5
1DA5A
  8
0
 10
3263.8421187763487978
 20
152.464980220144497
 30
0.0
 40
0.0080817083957966
 50
138.1553655789662116
 51
192.1571773254214008
  0
LINE
  5
1DA5B
  8
0
 10
3263.6632461234380571
 20
153.045462148960894
 30
0.0
 11
3263.6522620587820711
 21
153.0329506012330967
 31
0.0
  0
ARC
  5
1DA5C
  8
0
 10
3263.6583118149328584
 20
153.027639434768588
 30
0.0
 40
0.0080503440111888
 50
138.7196454100877929
 51
197.5357611365373032
  0
LINE
  5
1DA5D
  8
0
 10
3263.6506355778178659
 20
153.0252138580441965
 30
0.0
 11
3263.6832229565848138
 21
152.9249225686369869
 31
0.0
  0
ARC
  5
1DA5E
  8
0
 10
3263.6905755811540075
 20
152.9277402037646993
 30
0.0
 40
0.0078740177644976
 50
200.9675757385782049
 51
257.9946050680943017
  0
LINE
  5
1DA5F
  8
0
 10
3263.6889377556040017
 20
152.9200384063626075
 30
0.0
 11
3263.7051018407551055
 21
152.9166010332048131
 31
0.0
  0
LINE
  5
1DA60
  8
0
 10
3263.6624610465842125
 20
153.0478791635464972
 30
0.0
 11
3263.65222944212519
 21
153.0363736226049127
 31
0.0
  0
ARC
  5
1DA61
  8
0
 10
3263.6582883148639667
 20
153.0309856108933957
 30
0.0
 40
0.0081080582801611
 50
138.3540644965636091
 51
193.3194134889548934
  0
LINE
  5
1DA62
  8
0
 10
3263.4794926089421097
 20
153.6111837377848985
 30
0.0
 11
3263.4684261848979077
 21
153.5989893978631926
 31
0.0
  0
ARC
  5
1DA63
  8
0
 10
3263.4742195971921319
 20
153.5937318474323945
 30
0.0
 40
0.0078233920100219
 50
137.7761014377950914
 51
198.3723957482964124
  0
LINE
  5
1DA64
  8
0
 10
3263.4667949793029038
 20
153.5912659780626086
 30
0.0
 11
3263.4992492191040583
 21
153.4913515050625961
 31
0.0
  0
ARC
  5
1DA65
  8
0
 10
3263.5067397072029962
 20
153.4937790010625918
 30
0.0
 40
0.0078740156999892
 50
197.994631150930104
 51
257.9946319455294201
  0
LINE
  5
1DA66
  8
0
 10
3263.5051018856961491
 20
153.4860772049115951
 30
0.0
 11
3263.5212437554828284
 21
153.4826445638761072
 31
0.0
  0
LINE
  5
1DA67
  8
0
 10
3263.3522206048201042
 20
154.0030158101270104
 30
0.0
 11
3263.3361593155959781
 21
154.0063990537115899
 31
0.0
  0
ARC
  5
1DA68
  8
0
 10
3263.3377769435142
 20
154.0140784268346863
 30
0.0
 40
0.0078478972754338
 50
197.884477970205694
 51
258.1047851262716222
  0
LINE
  5
1DA69
  8
0
 10
3263.3303082751940565
 20
154.0116683469236989
 30
0.0
 11
3263.2978722614038816
 21
154.1115254807625945
 31
0.0
  0
ARC
  5
1DA6A
  8
0
 10
3263.3053418665408572
 20
154.1140391874176032
 30
0.0
 40
0.00788122592293
 50
138.0147716311344084
 51
198.5993578089837115
  0
LINE
  5
1DA6B
  8
0
 10
3263.2994836148741342
 20
154.1193112467366007
 30
0.0
 11
3263.3104781445499611
 21
154.1315282416325942
 31
0.0
  0
LINE
  5
1DA6C
  8
0
 10
3263.3097441214131322
 20
154.1337880772383926
 30
0.0
 11
3263.2994838889821949
 21
154.1222218430330884
 31
0.0
  0
ARC
  5
1DA6D
  8
0
 10
3263.3053316819909924
 20
154.1170343537937981
 30
0.0
 40
0.0078170792294653
 50
138.4242499860283999
 51
189.9788278855602073
  0
ARC
  5
1DA6E
  8
0
 10
3261.0643423557157803
 20
150.3310576314648017
 30
0.0
 40
3.5666913399367539
 50
359.8579415221113891
 51
1.918667543745203
  0
ARC
  5
1DA6F
  8
0
 10
3267.5925285145608541
 20
150.6613660201186917
 30
0.0
 40
1.8991323539513061
 50
175.678649132721489
 51
178.9481084782642029
  0
LINE
  5
1DA70
  8
0
 10
3265.7923407278030936
 20
150.7159152155626032
 30
0.0
 11
3265.6941797365161619
 21
150.7159152155626032
 31
0.0
  0
LINE
  5
1DA71
  8
0
 10
3264.8169518213289848
 20
145.5731033558625995
 30
0.0
 11
3265.5077291817301557
 21
145.5730845677626064
 31
0.0
  0
LINE
  5
1DA72
  8
0
 10
3265.4478274426169264
 20
145.5730753769454111
 30
0.0
 11
3265.4489019328229915
 21
141.6361298813021108
 31
0.0
  0
ARC
  5
1DA73
  8
0
 10
5193.2785750118582655
 20
142.1622824800764135
 30
0.0
 40
1927.8297448790890485
 50
180.015637440880397
 51
180.1574200405752038
  0
ARC
  5
1DA74
  8
0
 10
3634.3591646796439818
 20
137.8791437145970917
 30
0.0
 40
368.9044505855418947
 50
180.1574200405752038
 51
180.8281800622488049
  0
ARC
  5
1DA75
  8
0
 10
3488.3767180559120789
 20
135.7688980142634136
 30
0.0
 40
222.9067524558575997
 50
180.8281800622488049
 51
182.6177185287351108
  0
ARC
  5
1DA76
  8
0
 10
2511.4802917810720828
 20
91.105561706305366
 30
0.0
 40
755.0101362819898441
 50
2.2437077501998872
 51
2.617718528735145
  0
ARC
  5
1DA77
  8
0
 10
2412.9230954857321194
 20
87.2440791775248954
 30
0.0
 40
853.6429502381892007
 50
2.0564351353210051
 51
2.2437077501998872
  0
ARC
  5
1DA78
  8
0
 10
3175.4687248533778074
 20
114.6247927383136016
 30
0.0
 40
90.6058997990922137
 50
359.4807457983811219
 51
2.0564351353210051
  0
ARC
  5
1DA79
  8
0
 10
3233.3110382399490845
 20
114.1005711146867014
 30
0.0
 40
32.7612109657952502
 50
354.9526411414034897
 51
359.4807457983811219
  0
ARC
  5
1DA7A
  8
0
 10
3252.9417898846609205
 20
112.3667513524375039
 30
0.0
 40
13.0540411764949997
 50
346.9319253324741794
 51
354.9526411414034897
  0
ARC
  5
1DA7B
  8
0
 10
3264.3349378803691252
 20
109.7221739594430971
 30
0.0
 40
1.357990097619123
 50
326.0310214141725282
 51
346.9319253324725878
  0
ARC
  5
1DA7C
  8
0
 10
3265.1569440803941689
 20
109.1982438866416061
 30
0.0
 40
0.3843238971010465
 50
289.9147824589725815
 51
322.3349933922194737
  0
ARC
  5
1DA7D
  8
0
 10
3265.1731228806988838
 20
109.147751451759504
 30
0.0
 40
0.3313459993276791
 50
242.1328811479282876
 51
290.2584645208713141
  0
LINE
  5
1DA7E
  8
0
 10
3264.4829971317039963
 20
115.6923309319626014
 30
0.0
 11
3264.4829971317039963
 21
114.9049371048218973
 31
0.0
  0
ARC
  5
1DA7F
  8
0
 10
3375.2414470795738453
 20
114.9049371048218973
 30
0.0
 40
110.7584499478704032
 50
180.0
 51
181.075827494816906
  0
ARC
  5
1DA80
  8
0
 10
3315.6379769987652253
 20
113.7856471785925976
 30
0.0
 40
51.1444712548412213
 50
181.075827494816906
 51
183.7834680165437078
  0
ARC
  5
1DA81
  8
0
 10
3273.8461625986951731
 20
111.0219494019253972
 30
0.0
 40
9.2613747092106795
 50
183.7834680165437078
 51
190.1894425888758917
  0
ARC
  5
1DA82
  8
0
 10
3265.9780932525168282
 20
109.6077569479754032
 30
0.0
 40
1.2672233763257821
 50
190.1894425888758917
 51
209.1101655115770086
  0
ARC
  5
1DA83
  8
0
 10
3265.2181944018770992
 20
109.2184526244118956
 30
0.0
 40
0.4149713634806424
 50
213.1941630533314083
 51
241.1943061033761069
  0
LINE
  5
1DA84
  8
0
 10
3265.0538632734160274
 20
115.6923309319626014
 30
0.0
 11
3265.0538418132041443
 21
114.9049215971625983
 31
0.0
  0
ARC
  5
1DA85
  8
0
 10
3370.1967431902039607
 20
114.9020560113934977
 30
0.0
 40
105.1429014160496962
 50
179.9984384493083951
 51
181.3950150376321062
  0
ARC
  5
1DA86
  8
0
 10
3304.4351268174991674
 20
113.3006016544597969
 30
0.0
 40
39.3617882907148129
 50
181.3950150376321062
 51
184.7739098663965081
  0
ARC
  5
1DA87
  8
0
 10
3247.9314199564678347
 20
112.978029681780697
 30
0.0
 40
17.5290436704289512
 50
350.3006012784160816
 51
356.4079708611234878
  0
ARC
  5
1DA88
  8
0
 10
3225.5497966184248071
 20
114.3830360877373948
 30
0.0
 40
39.9547232865926176
 50
356.4079708611234878
 51
359.573921074280122
  0
ARC
  5
1DA89
  8
0
 10
3185.0275652515879301
 20
114.6843844110045012
 30
0.0
 40
80.4780751440015365
 50
359.573921074280122
 51
1.9311203826527299
  0
ARC
  5
1DA8A
  8
0
 10
2435.1487736086878613
 20
89.4005882218633445
 30
0.0
 40
830.7829948303578931
 50
1.9311203826527299
 51
2.082425038667286
  0
ARC
  5
1DA8B
  8
0
 10
2982.8511488830331473
 20
109.3156958655348063
 30
0.0
 40
282.7186706916504022
 50
2.082425038667286
 51
2.5918088780418622
  0
ARC
  5
1DA8C
  8
0
 10
3973.5067461874768924
 20
154.1591860319473994
 30
0.0
 40
708.951360659972238
 50
182.314919613634487
 51
182.5918088780418032
  0
ARC
  5
1DA8D
  8
0
 10
3662.96519836764719
 20
141.6055538543552927
 30
0.0
 40
398.1561763292216938
 50
181.4980866257434116
 51
182.314919613634487
  0
ARC
  5
1DA8E
  8
0
 10
3453.0266380435841711
 20
136.1151348117413988
 30
0.0
 40
188.1458341738799902
 50
179.6621639225975002
 51
181.4980866257434116
  0
ARC
  5
1DA8F
  8
0
 10
3031.2801100327528729
 20
139.0479913658660109
 30
0.0
 40
233.6110813341190067
 50
359.5527640188838063
 51
0.634786665430875
  0
LINE
  5
1DA90
  8
0
 10
3264.8768540023461355
 20
141.6361430037858895
 30
0.0
 11
3264.8769613027038758
 21
145.5731528447626033
 31
0.0
  0
LINE
  5
1DA91
  8
0
 10
3264.3157129516030182
 20
117.1096660013625979
 30
0.0
 11
3265.22122473759282
 21
117.1096414033817013
 31
0.0
  0
LINE
  5
1DA92
  8
0
 10
3265.22122473759282
 20
117.1096414033817013
 30
0.0
 11
3265.1621312446081902
 21
115.6923309319626014
 31
0.0
  0
LINE
  5
1DA93
  8
0
 10
3265.1621312446081902
 20
115.6923309319626014
 30
0.0
 11
3264.3747294503041303
 21
115.6923309319626014
 31
0.0
  0
LINE
  5
1DA94
  8
0
 10
3264.3747294503041303
 20
115.6923309319626014
 30
0.0
 11
3264.3157129269939105
 21
117.1096660013632942
 31
0.0
  0
ARC
  5
1DA95
  8
0
 10
3264.3876042185170263
 20
117.1088586902999964
 30
0.0
 40
0.0208669973689467
 50
2.2103136308478888
 51
78.9489029610351736
  0
ARC
  5
1DA96
  8
0
 10
3265.148589693033955
 20
117.1093688083163045
 30
0.0
 40
0.0200115195541404
 50
93.694363790803493
 51
179.2122918152614091
  0
ARC
  5
1DA97
  8
0
 10
3267.0715658882518255
 20
148.6294112900500863
 30
0.0
 40
0.4691432426962602
 50
80.3378052296430383
 51
99.6621947703569617
  0
ENDSEC
  0
EOF
