  0
SECTION
  2
HEADER
  9
$ACADVER
  1
AC1009
  9
$INSBASE
 10
4120.1270071595463378
 20
122.4444001822884047
 30
0.0
  9
$EXTMIN
 10
4115.1250386556466765
 20
98.3584289392885012
 30
0.0
  9
$EXTMAX
 10
4128.6708686009033045
 20
122.4487559228235938
 30
0.0
  9
$LIMMIN
 10
0.0
 20
0.0
  9
$LIMMAX
 10
11.6929133858000007
 20
8.2677165353999982
  9
$ORTHOMODE
 70
     1
  9
$REGENMODE
 70
     1
  9
$FILLMODE
 70
     1
  9
$QTEXTMODE
 70
     0
  9
$MIRRTEXT
 70
     0
  9
$DRAGMODE
 70
     2
  9
$LTSCALE
 40
0.6431102362
  9
$OSMODE
 70
     7
  9
$ATTMODE
 70
     1
  9
$TEXTSIZE
 40
0.2
  9
$TRACEWID
 40
0.05
  9
$TEXTSTYLE
  7
STANDARD
  9
$CLAYER
  8
0
  9
$CELTYPE
  6
BYLAYER
  9
$CECOLOR
 62
   256
  9
$DIMSCALE
 40
1.0
  9
$DIMASZ
 40
0.1875
  9
$DIMEXO
 40
0.0625
  9
$DIMDLI
 40
0.4443307087
  9
$DIMRND
 40
0.0
  9
$DIMDLE
 40
0.0
  9
$DIMEXE
 40
0.125
  9
$DIMTP
 40
0.01
  9
$DIMTM
 40
0.01
  9
$DIMTXT
 40
2.0
  9
$DIMCEN
 40
0.1052362205
  9
$DIMTSZ
 40
0.0
  9
$DIMTOL
 70
     1
  9
$DIMLIM
 70
     0
  9
$DIMTIH
 70
     1
  9
$DIMTOH
 70
     1
  9
$DIMSE1
 70
     0
  9
$DIMSE2
 70
     0
  9
$DIMTAD
 70
     0
  9
$DIMZIN
 70
     0
  9
$DIMBLK
  1

  9
$DIMASO
 70
     1
  9
$DIMSHO
 70
     1
  9
$DIMPOST
  1
\X
  9
$DIMAPOST
  1

  9
$DIMALT
 70
     1
  9
$DIMALTD
 70
     2
  9
$DIMALTF
 40
25.3999999999999986
  9
$DIMLFAC
 40
1.0
  9
$DIMTOFL
 70
     0
  9
$DIMTVP
 40
0.0
  9
$DIMTIX
 70
     0
  9
$DIMSOXD
 70
     0
  9
$DIMSAH
 70
     0
  9
$DIMBLK1
  1

  9
$DIMBLK2
  1

  9
$DIMSTYLE
  2
STANDARD
  9
$DIMCLRD
 70
     0
  9
$DIMCLRE
 70
     0
  9
$DIMCLRT
 70
     0
  9
$DIMTFAC
 40
1.0
  9
$DIMGAP
 40
0.09
  9
$LUNITS
 70
     2
  9
$LUPREC
 70
     4
  9
$SKETCHINC
 40
0.1
  9
$FILLETRAD
 40
0.0
  9
$AUNITS
 70
     0
  9
$AUPREC
 70
     0
  9
$MENU
  1
.
  9
$ELEVATION
 40
0.0
  9
$PELEVATION
 40
0.0
  9
$THICKNESS
 40
0.0
  9
$LIMCHECK
 70
     0
  9
$BLIPMODE
 70
     0
  9
$CHAMFERA
 40
0.0
  9
$CHAMFERB
 40
0.0
  9
$SKPOLY
 70
     0
  9
$TDCREATE
 40
2458060.468368056230247
  9
$TDUPDATE
 40
2459573.6305787041783333
  9
$TDINDWG
 40
0.4715927083
  9
$TDUSRTIMER
 40
0.4715927083
  9
$USRTIMER
 70
     1
  9
$ANGBASE
 50
0.0
  9
$ANGDIR
 70
     0
  9
$PDMODE
 70
     0
  9
$PDSIZE
 40
0.3125
  9
$PLINEWID
 40
0.0
  9
$COORDS
 70
     1
  9
$SPLFRAME
 70
     0
  9
$SPLINETYPE
 70
     6
  9
$SPLINESEGS
 70
     8
  9
$ATTDIA
 70
     1
  9
$ATTREQ
 70
     1
  9
$HANDLING
 70
     1
  9
$HANDSEED
  5
11E6C
  9
$SURFTAB1
 70
     6
  9
$SURFTAB2
 70
     6
  9
$SURFTYPE
 70
     6
  9
$SURFU
 70
     6
  9
$SURFV
 70
     6
  9
$UCSNAME
  2

  9
$UCSORG
 10
0.0
 20
0.0
 30
0.0
  9
$UCSXDIR
 10
1.0
 20
0.0
 30
0.0
  9
$UCSYDIR
 10
0.0
 20
1.0
 30
0.0
  9
$PUCSNAME
  2

  9
$PUCSORG
 10
0.0
 20
0.0
 30
0.0
  9
$PUCSXDIR
 10
1.0
 20
0.0
 30
0.0
  9
$PUCSYDIR
 10
0.0
 20
1.0
 30
0.0
  9
$USERI1
 70
     0
  9
$USERI2
 70
     0
  9
$USERI3
 70
     0
  9
$USERI4
 70
     0
  9
$USERI5
 70
     0
  9
$USERR1
 40
0.0
  9
$USERR2
 40
0.0
  9
$USERR3
 40
0.0
  9
$USERR4
 40
0.0
  9
$USERR5
 40
0.0
  9
$WORLDVIEW
 70
     1
  9
$SHADEDGE
 70
     3
  9
$SHADEDIF
 70
    70
  9
$TILEMODE
 70
     1
  9
$MAXACTVP
 70
    64
  9
$PLIMCHECK
 70
     0
  9
$PEXTMIN
 10
1.0000000000000000E+20
 20
1.0000000000000000E+20
 30
1.0000000000000000E+20
  9
$PEXTMAX
 10
-1.0000000000000000E+20
 20
-1.0000000000000000E+20
 30
-1.0000000000000000E+20
  9
$PLIMMIN
 10
0.0
 20
0.0
  9
$PLIMMAX
 10
12.0
 20
9.0
  9
$UNITMODE
 70
     0
  9
$VISRETAIN
 70
     1
  9
$PLINEGEN
 70
     0
  9
$PSLTSCALE
 70
     1
  0
ENDSEC
  0
SECTION
  2
TABLES
  0
TABLE
  2
VPORT
 70
     1
  0
VPORT
  2
*ACTIVE
 70
     0
 10
0.0
 20
0.0
 11
1.0
 21
1.0
 12
-142.9721542483302983
 22
6.097363399079911
 13
0.0
 23
0.0
 14
1.0
 24
1.0
 15
0.0
 25
0.0
 16
0.0
 26
0.0
 36
122.0237731519760018
 17
4265.00634765625
 27
104.3040122985839986
 37
0.0
 40
24.2806264797508184
 41
1.8876941457586609
 42
50.0
 43
0.0
 44
0.0
 50
0.0
 51
0.0
 71
     0
 72
   100
 73
     1
 74
     1
 75
     0
 76
     0
 77
     0
 78
     0
  0
ENDTAB
  0
TABLE
  2
LTYPE
 70
     2
  0
LTYPE
  2
CONTINUOUS
 70
     0
  3
Solid line
 72
    65
 73
     0
 40
0.0
  0
LTYPE
  2
PHANTOM2
 70
     0
  3
___ _ _ ___ _ _ ___ _ _ ___ _ _
 72
    65
 73
     6
 40
1.25
 49
0.625
 49
-0.125
 49
0.125
 49
-0.125
 49
0.125
 49
-0.125
  0
ENDTAB
  0
TABLE
  2
LAYER
 70
     2
  0
LAYER
  2
0
 70
     0
 62
   255
  6
CONTINUOUS
  0
LAYER
  2
DEFPOINTS
 70
     0
 62
     7
  6
CONTINUOUS
  0
ENDTAB
  0
TABLE
  2
STYLE
 70
     1
  0
STYLE
  2
STANDARD
 70
     0
 40
0.0
 41
0.8
 50
0.0
 71
     0
 42
0.2
  3
txt
  4

  0
ENDTAB
  0
TABLE
  2
VIEW
 70
     0
  0
ENDTAB
  0
TABLE
  2
UCS
 70
     0
  0
ENDTAB
  0
TABLE
  2
APPID
 70
     9
  0
APPID
  2
ACAD
 70
     0
  0
APPID
  2
ACAD_MLEADERVER
 70
     0
  0
APPID
  2
ACAD_EXEMPT_FROM_CAD_STANDARDS
 70
     0
  0
APPID
  2
ACAD_NAV_VCDISPLAY
 70
     0
  0
APPID
  2
ACAECLAYERSTANDARD
 70
     0
  0
APPID
  2
ACCMTRANSPARENCY
 70
     0
  0
APPID
  2
ACAD_DSTYLE_DIMJAG
 70
     0
  0
APPID
  2
ACAD_DSTYLE_DIMTALN
 70
     0
  0
APPID
  2
ACDBATTR
 70
     0
  0
ENDTAB
  0
TABLE
  2
DIMSTYLE
 70
     1
  0
DIMSTYLE
  2
STANDARD
 70
     0
  3

  4

  5

  6

  7

 40
1.0
 41
0.1875
 42
0.0625
 43
0.38
 44
0.125
 45
0.0
 46
0.0
 47
0.01
 48
0.01
140
0.15625
141
0.09
142
0.0
143
25.3999999999999986
144
1.0
145
0.0
146
1.0
147
0.09
 71
     1
 72
     0
 73
     1
 74
     1
 75
     0
 76
     0
 77
     0
 78
     4
170
     0
171
     2
172
     0
173
     0
174
     0
175
     0
176
     0
177
     0
178
     0
  0
ENDTAB
  0
ENDSEC
  0
SECTION
  2
BLOCKS
  0
BLOCK
  8
0
  2
$MODEL_SPACE
 70
     0
 10
0.0
 20
0.0
 30
0.0
  3
$MODEL_SPACE
  1

  0
ENDBLK
  5
21
  8
0
  0
BLOCK
 67
     1
  8
0
  2
$PAPER_SPACE
 70
     0
 10
0.0
 20
0.0
 30
0.0
  3
$PAPER_SPACE
  1

  0
ENDBLK
  5
1D
 67
     1
  8
0
  0
ENDSEC
  0
SECTION
  2
ENTITIES
  0
ATTDEF
  5
DD18
  8
DEFPOINTS
 10
4120.1270298448998801
 20
122.4477559228235037
 30
0.0
 40
0.001
  1
K-EX27032T-4E2
  3

  2
MODELNUMBER
 70
     0
1001
ACDBATTR
1070
     0
1070
     1
  0
ATTDEF
  5
DD19
  8
DEFPOINTS
 10
4120.1270298448998801
 20
122.4460892561568954
 30
0.0
 40
0.001
  1

  3

  2
TRADENAME
 70
     0
1001
ACDBATTR
1070
     0
1070
     1
  0
ATTDEF
  5
DD1A
  8
DEFPOINTS
 10
4120.1270298448998801
 20
122.4444225894902019
 30
0.0
 40
0.001
  1
BATH AND SHOWER FAUCET
  3

  2
PRODUCT
 70
     0
1001
ACDBATTR
1070
     0
1070
     1
  0
LINE
  5
11BFB
  8
0
 10
4115.8156541925627607
 20
122.4444456153884033
 30
0.0
 11
4118.5328484720630513
 21
122.4444456153884033
 31
0.0
  0
LINE
  5
11BFC
  8
0
 10
4118.5328484720630513
 20
122.4444456153884033
 30
0.0
 11
4118.5328479937643351
 21
122.1851883252884932
 31
0.0
  0
ARC
  5
11BFD
  8
0
 10
4118.4934298446059984
 20
122.1851883980103963
 30
0.0
 40
0.0394181491573149
 50
314.6000324237728023
 51
359.9998942958519024
  0
LINE
  5
11BFE
  8
0
 10
4118.5211074342632855
 20
122.1571216647884057
 30
0.0
 11
4118.4246785915083819
 21
122.0596457862274065
 31
0.0
  0
ARC
  5
11BFF
  8
0
 10
4118.3970941964553276
 20
122.087618014539899
 30
0.0
 40
0.0392854223241483
 50
270.0348633578053068
 51
314.6000324237728023
  0
LINE
  5
11C00
  8
0
 10
4118.3971181008637359
 20
122.0483325994885035
 30
0.0
 11
4115.9513977119622723
 21
122.0483325994885035
 31
0.0
  0
ARC
  5
11C01
  8
0
 10
4115.9513969292047477
 20
122.0876867861974944
 30
0.0
 40
0.0393541867167825
 50
225.4034448769859864
 51
270.0011396178865084
  0
LINE
  5
11C02
  8
0
 10
4115.9237659516620624
 20
122.0596639188884041
 30
0.0
 11
4115.8273634141869479
 21
122.1571023172900965
 31
0.0
  0
ARC
  5
11C03
  8
0
 10
4115.8549623379049081
 20
122.1850922952993983
 30
0.0
 40
0.0393082619733252
 50
179.8604265225224879
 51
225.4030551088619916
  0
LINE
  5
11C04
  8
0
 10
4115.8156541925627607
 20
122.1851880507884971
 30
0.0
 11
4115.8156541925627607
 21
122.4444456153884033
 31
0.0
  0
ARC
  5
11C05
  8
0
 10
4116.2173691734524255
 20
121.8513022592194943
 30
0.0
 40
0.1970303408914982
 50
1.008670209214622
 51
89.9954453057624164
  0
LINE
  5
11C06
  8
0
 10
4116.414368983064378
 20
121.8547707235885014
 30
0.0
 11
4116.4255236405479081
 21
121.2212150150610057
 31
0.0
  0
ARC
  5
11C07
  8
0
 10
4116.4452109661742725
 20
121.2215616386825019
 30
0.0
 40
0.0196903767929484
 50
181.008670209214614
 51
269.6644851584812841
  0
LINE
  5
11C08
  8
0
 10
4116.4450956631626468
 20
121.2018715994883991
 30
0.0
 11
4117.9027346514876626
 21
121.2018715994884985
 31
0.0
  0
ARC
  5
11C09
  8
0
 10
4117.9033716958037985
 20
121.2215818963289991
 30
0.0
 40
0.0197205889110937
 50
268.1488229455231931
 51
358.9284084591436113
  0
LINE
  5
11C0A
  8
0
 10
4117.9230888357369622
 20
121.2212130875883958
 30
0.0
 11
4117.934939251968899
 21
121.8547564109132963
 31
0.0
  0
ARC
  5
11C0B
  8
0
 10
4118.132206243642031
 20
121.8510665354552032
 30
0.0
 40
0.1973014981803828
 50
91.085900243580241
 51
178.9284084591436113
  0
LINE
  5
11C0C
  8
0
 10
4115.8272794198601332
 20
122.1571853862885035
 30
0.0
 11
4118.5211832556606169
 21
122.1571853862885035
 31
0.0
  0
LINE
  5
11C0D
  8
0
 10
4119.7333063468631735
 20
119.0968744463926043
 30
0.0
 11
4119.7333063468631735
 21
103.3590263529926006
 31
0.0
  0
LINE
  5
11C0E
  8
0
 10
4120.5207096491121774
 20
103.3590263529926006
 30
0.0
 11
4120.5207096491121774
 21
119.0968744463926043
 31
0.0
  0
ARC
  5
11C0F
  8
0
 10
4120.127007997988585
 20
119.0968735826675982
 30
0.0
 40
0.3937016511259663
 50
0.0001256987306746
 51
179.9998743012693012
  0
ARC
  5
11C10
  8
0
 10
4120.1248219638628143
 20
119.0970582610154054
 30
0.0
 40
0.6484308007706689
 50
307.6282350081290815
 51
232.8582247601823951
  0
ARC
  5
11C11
  8
0
 10
4119.5364559531326449
 20
118.8776711250926041
 30
0.0
 40
0.0196850393695733
 50
179.9999999999787974
 51
200.3663101181510058
  0
ARC
  5
11C12
  8
0
 10
4120.1270071342632946
 20
119.0968744463926043
 30
0.0
 40
0.433070866100003
 50
335.3805712840136835
 51
204.6199773171223057
  0
LINE
  5
11C13
  8
0
 10
4118.7660306981297254
 20
122.4444001822884047
 30
0.0
 11
4121.4879836209629502
 21
122.4444001822884047
 31
0.0
  0
LINE
  5
11C14
  8
0
 10
4121.4879836209629502
 20
122.4444001822884047
 30
0.0
 11
4121.4833663321633139
 21
122.1799014529884033
 31
0.0
  0
ARC
  5
11C15
  8
0
 10
4121.4438981569010139
 20
122.180590439147494
 30
0.0
 40
0.0394741885334629
 50
314.5735131471136015
 51
358.9999033503954138
  0
LINE
  5
11C16
  8
0
 10
4121.4716020827136163
 20
122.1524709787151011
 30
0.0
 11
4121.3789902431108203
 21
122.0588436923496971
 31
0.0
  0
ARC
  5
11C17
  8
0
 10
4121.3521085645779749
 20
122.0877869852598963
 30
0.0
 40
0.0395011246076657
 50
270.2254273606341144
 51
312.8850298610541927
  0
LINE
  5
11C18
  8
0
 10
4121.3522639793627604
 20
122.0482861663884933
 30
0.0
 11
4118.9017502474625871
 21
122.0482861663884933
 31
0.0
  0
ARC
  5
11C19
  8
0
 10
4118.9017391687248164
 20
122.087584174238998
 30
0.0
 40
0.0392980090567869
 50
225.548263022345111
 51
269.9858036882973238
  0
LINE
  5
11C1A
  8
0
 10
4118.8742184503389581
 20
122.0595316596387931
 30
0.0
 11
4118.7823990185797811
 21
122.1524709810893938
 31
0.0
  0
ARC
  5
11C1B
  8
0
 10
4118.8093304604726654
 20
122.1800339273873988
 30
0.0
 40
0.0385359386946226
 50
179.992595047395298
 51
225.6639384126739003
  0
LINE
  5
11C1C
  8
0
 10
4118.770794522100914
 20
122.1800389078030946
 30
0.0
 11
4118.7660306981297254
 21
122.4444001822884047
 31
0.0
  0
ARC
  5
11C1D
  8
0
 10
4120.4997128338309267
 20
119.6954415884921019
 30
0.0
 40
0.0577936473837235
 50
182.3499550368034079
 51
234.6348609202462114
  0
ARC
  5
11C1E
  8
0
 10
4120.1270071342632946
 20
119.0968744463926043
 30
0.0
 40
0.668598134099973
 50
118.1297183993033997
 51
233.9248987002758895
  0
ARC
  5
11C1F
  8
0
 10
4121.4950387989138108
 20
122.6424030542270032
 30
0.0
 40
3.1316948984419142
 50
250.350682401322814
 51
261.3241538056677769
  0
ARC
  5
11C20
  8
0
 10
4121.4935907817243788
 20
122.5921074199890057
 30
0.0
 40
3.0817624910824062
 50
261.2097141397974838
 51
273.9712694221993843
  0
LINE
  5
11C21
  8
0
 10
4118.7782988195122016
 20
122.1571853862885035
 30
0.0
 11
4121.4763872022713258
 21
122.1571853862885035
 31
0.0
  0
ARC
  5
11C22
  8
0
 10
4123.0042291651052437
 20
114.9141952244420963
 30
0.0
 40
4.5430103560764303
 50
72.3857305946886953
 51
83.0821891046564645
  0
ARC
  5
11C23
  8
0
 10
4123.7618634531490898
 20
117.3004989412270049
 30
0.0
 40
2.0393220481671932
 50
61.0682262262870381
 51
72.3857305946886953
  0
ARC
  5
11C24
  8
0
 10
4124.0581904685786867
 20
117.8365915264351997
 30
0.0
 40
1.4267822862020789
 50
53.2260898343140596
 51
61.0682262262870381
  0
ARC
  5
11C25
  8
0
 10
4124.3802185986478435
 20
118.2674643143894002
 30
0.0
 40
0.8888664229336715
 50
7.6447661844110604
 51
53.2260898343140596
  0
ARC
  5
11C26
  8
0
 10
4114.4673321979917091
 20
117.6842684490942048
 30
0.0
 40
10.8166202297388505
 50
0.0851422506278542
 51
3.7181591661340518
  0
LINE
  5
11C27
  8
0
 10
4125.2839404849219136
 20
117.7003420771944064
 30
0.0
 11
4125.2839404849219136
 21
117.6236855237192032
 31
0.0
  0
ARC
  5
11C28
  8
0
 10
4124.9777082273203632
 20
117.6509063797675054
 30
0.0
 40
0.3074397023806791
 50
339.0908919897764804
 51
354.9203529848949756
  0
ARC
  5
11C29
  8
0
 10
4124.7958012810768196
 20
117.7370017728159013
 30
0.0
 40
0.5083304923273583
 50
299.7832245062376728
 51
337.3429187221677239
  0
ARC
  5
11C2A
  8
0
 10
4123.8610036228337776
 20
119.2381937202762998
 30
0.0
 40
2.2765107345004738
 50
283.3661346035659108
 51
301.4357295481424899
  0
ARC
  5
11C2B
  8
0
 10
4123.0986545709056372
 20
121.8262796826860068
 30
0.0
 40
4.9727949780028444
 50
274.347201825431398
 51
285.018639645490282
  0
ARC
  5
11C2C
  8
0
 10
4122.7301431416717605
 20
124.800892928788798
 30
0.0
 40
7.9680485386828472
 50
269.9593580733869089
 51
275.368153741270703
  0
ARC
  5
11C2D
  8
0
 10
4122.968480348956291
 20
127.2449985553564034
 30
0.0
 40
10.4150104829119297
 50
262.8416718262720906
 51
268.6576267090975989
  0
ARC
  5
11C2E
  8
0
 10
4122.257543005761363
 20
121.5842425073824984
 30
0.0
 40
4.7097856021011788
 50
251.104012251436302
 51
262.8416718262720906
  0
ARC
  5
11C2F
  8
0
 10
4121.4428068065053594
 20
118.9973258895553982
 30
0.0
 40
1.9995507822612519
 50
242.5385208555264001
 51
249.1853183440321118
  0
ARC
  5
11C30
  8
0
 10
4121.4933172572482363
 20
117.659699276515596
 30
0.0
 40
1.6338771404802019
 50
113.5437700233849938
 51
116.1744334234495994
  0
ARC
  5
11C31
  8
0
 10
4121.9876525811987449
 20
116.5251767709346069
 30
0.0
 40
2.8714185451106831
 50
106.0036202391376037
 51
113.5437700233849938
  0
ARC
  5
11C32
  8
0
 10
4122.3356189075384464
 20
115.3119632995187942
 30
0.0
 40
4.1335467048042771
 50
99.4191505908793403
 51
106.0036202391376037
  0
ARC
  5
11C33
  8
0
 10
4122.9853015795588362
 20
111.3956724945606993
 30
0.0
 40
8.1033604590405641
 50
98.3270720507288445
 51
99.4191505908793403
  0
ARC
  5
11C34
  8
0
 10
4121.7096841758120718
 20
119.4784644058393042
 30
0.0
 40
0.0393702278330425
 50
359.9999533561756948
 51
93.8849801875484786
  0
LINE
  5
11C35
  8
0
 10
4121.7490544036463689
 20
119.4784643737884977
 30
0.0
 11
4121.7490543431686092
 21
119.4041769429368998
 31
0.0
  0
LINE
  5
11C36
  8
0
 10
4121.7503929863460144
 20
119.4781667964884946
 30
0.0
 11
4121.7703929863473604
 21
119.4781667964884946
 31
0.0
  0
LINE
  5
11C37
  8
0
 10
4121.7703929863473604
 20
119.4781667964884946
 30
0.0
 11
4121.7703929863473604
 21
119.4074418271913061
 31
0.0
  0
LINE
  5
11C38
  8
0
 10
4121.7503929863460144
 20
119.4781667964884946
 30
0.0
 11
4121.7503929863460144
 21
119.4043834704637987
 31
0.0
  0
LINE
  5
11C39
  8
0
 10
4121.7882433800459694
 20
119.4813317157527024
 30
0.0
 11
4121.7882433800459694
 21
119.4101283336131019
 31
0.0
  0
LINE
  5
11C3A
  8
0
 10
4121.7703929863473604
 20
119.4306816239885052
 30
0.0
 11
4121.7882433800459694
 21
119.4306816239885052
 31
0.0
  0
ARC
  5
11C3B
  8
0
 10
4121.8276134587467823
 20
119.4813317160885049
 30
0.0
 40
0.0393700787000064
 50
90.0
 51
180.0000004887073999
  0
LINE
  5
11C3C
  8
0
 10
4121.8276134587467823
 20
119.5207017947883941
 30
0.0
 11
4121.8669768872387067
 21
119.5207017947884935
 31
0.0
  0
ARC
  5
11C3D
  8
0
 10
4121.8392955872450329
 20
119.4965289886354043
 30
0.0
 40
0.0915584502552466
 50
330.7379016692756863
 51
357.3520204933998912
  0
ARC
  5
11C3E
  8
0
 10
4121.8588876400290246
 20
119.4855514767882028
 30
0.0
 40
0.0691006164631457
 50
297.0192055774627988
 51
330.7379016692756863
  0
ARC
  5
11C3F
  8
0
 10
4121.9862086570692554
 20
119.493198308737604
 30
0.0
 40
0.0554633248053368
 50
181.0439785557680921
 51
205.6860954365359078
  0
ARC
  5
11C40
  8
0
 10
4122.0324859234824544
 20
119.5154562228293003
 30
0.0
 40
0.106815054340836
 50
205.6860954365359078
 51
226.8489270662016111
  0
ARC
  5
11C41
  8
0
 10
4122.1624275740114172
 20
119.6540670344412973
 30
0.0
 40
0.2968092375091755
 50
226.8489270662016111
 51
246.231643490806988
  0
ARC
  5
11C42
  8
0
 10
4122.4596499069957645
 20
120.3289695334364069
 30
0.0
 40
1.0342605907354661
 50
246.231643490806988
 51
255.1200192973462038
  0
ARC
  5
11C43
  8
0
 10
4122.5521758118184152
 20
120.6771970519049972
 30
0.0
 40
1.3945708010844351
 50
255.1200192973462038
 51
262.6602244159494717
  0
ARC
  5
11C44
  8
0
 10
4122.7643124266278392
 20
122.3241101802568949
 30
0.0
 40
3.055090236586933
 50
262.6602244159494717
 51
267.2548175717885783
  0
ARC
  5
11C45
  8
0
 10
4122.7041596779154133
 20
121.0695993973380951
 30
0.0
 40
1.79913814449204
 50
267.2548175717885783
 51
270.5424179808808276
  0
ARC
  5
11C46
  8
0
 10
4122.6907961850492939
 20
122.4811471215325014
 30
0.0
 40
3.210749125116652
 50
270.5424179808808276
 51
275.3907526542025721
  0
ARC
  5
11C47
  8
0
 10
4122.8416311031196528
 20
120.8827268781113986
 30
0.0
 40
1.6052278866748839
 50
275.3907526542025721
 51
287.0832171131116866
  0
ARC
  5
11C48
  8
0
 10
4123.1451657098950818
 20
119.8950428946433959
 30
0.0
 40
0.5719549756247169
 50
287.0832171131116866
 51
302.7348696428331891
  0
ARC
  5
11C49
  8
0
 10
4123.3683326262425908
 20
119.5478896077820963
 30
0.0
 40
0.1592578989086657
 50
302.7348696428331891
 51
327.0415489890910976
  0
ARC
  5
11C4A
  8
0
 10
4123.4514201747961124
 20
119.4940175450887949
 30
0.0
 40
0.0602339630978468
 50
327.0415489890910976
 51
358.1841198118917191
  0
LINE
  5
11C4B
  8
0
 10
4123.511623889367911
 20
119.4921088643564957
 30
0.0
 11
4123.5093817085680712
 21
119.6146540336565067
 31
0.0
  0
ARC
  5
11C4C
  8
0
 10
4123.4170586795817144
 20
119.6124868324691022
 30
0.0
 40
0.0923484620452006
 50
1.34472062637273
 51
27.5785876146932196
  0
ARC
  5
11C4D
  8
0
 10
4123.3679439232118966
 20
119.5868336253244024
 30
0.0
 40
0.1477591679606261
 50
27.5785876146932196
 51
47.4158055817143023
  0
ARC
  5
11C4E
  8
0
 10
4123.265595852262777
 20
119.4754692919112955
 30
0.0
 40
0.2990110849191916
 50
47.4158055817143023
 51
58.2009347306716194
  0
ARC
  5
11C4F
  8
0
 10
4123.1968373543586495
 20
119.3645691477006068
 30
0.0
 40
0.4294969961125736
 50
58.2009347306716194
 51
61.3166960835301182
  0
ARC
  5
11C50
  8
0
 10
4123.5994548773878705
 20
119.4963697173347015
 30
0.0
 40
0.0880432361466369
 50
183.5139198235370941
 51
214.4421231763797948
  0
ARC
  5
11C51
  8
0
 10
4123.5861111655503919
 20
119.4872186704305932
 30
0.0
 40
0.0718631154704718
 50
214.442123176379198
 51
240.6202952272008133
  0
ARC
  5
11C52
  8
0
 10
4123.5560818641888545
 20
119.4362550475615024
 30
0.0
 40
0.0127750152554868
 50
245.8510313517618044
 51
270.1497252926408805
  0
ARC
  5
11C53
  8
0
 10
4122.7225213630290455
 20
118.8341667162215032
 30
0.0
 40
0.8099676543117126
 50
86.9263279330737788
 51
89.5368773224531793
  0
ARC
  5
11C54
  8
0
 10
4122.7299412810580179
 20
118.9282319792321942
 30
0.0
 40
0.7156437658099281
 50
79.9132041704501148
 51
87.115712010426634
  0
ARC
  5
11C55
  8
0
 10
4122.7950475393899978
 20
119.2644293372125048
 30
0.0
 40
0.3732765982438451
 50
67.1547847431681646
 51
80.7142238383000858
  0
ARC
  5
11C56
  8
0
 10
4122.8892536380299134
 20
119.4880426516157002
 30
0.0
 40
0.1306293163731253
 50
40.8076472809927822
 51
67.1547847431681646
  0
LINE
  5
11C57
  8
0
 10
4122.7290682728944375
 20
119.6441079110019956
 30
0.0
 11
4122.7309275130683091
 21
119.9039955181566057
 31
0.0
  0
ARC
  5
11C58
  8
0
 10
4122.7508744388978812
 20
119.9038528175242959
 30
0.0
 40
0.0199474362640403
 50
143.1661199005631886
 51
179.5901120528480988
  0
ARC
  5
11C59
  8
0
 10
4122.749392347630419
 20
119.9046462036207998
 30
0.0
 40
0.0182873290240065
 50
89.4204288780483552
 51
142.3718531931307041
  0
ARC
  5
11C5A
  8
0
 10
4122.7241230407043986
 20
117.8199259464824991
 30
0.0
 40
2.1031606912286551
 50
84.2471346194522965
 51
89.3065394962996635
  0
ARC
  5
11C5B
  8
0
 10
4122.8142998374505623
 20
118.5533853251920959
 30
0.0
 40
1.3644524509076701
 50
72.5910339587125577
 51
84.9275119450677636
  0
ARC
  5
11C5C
  8
0
 10
4123.0739924363288083
 20
119.3816112024856011
 30
0.0
 40
0.4964672265346375
 50
53.8162007398262787
 51
72.5910339587125577
  0
ARC
  5
11C5D
  8
0
 10
4123.2683192645890813
 20
119.6595861373686063
 30
0.0
 40
0.1575474256740353
 50
31.2684418830197295
 51
51.173667115897203
  0
ARC
  5
11C5E
  8
0
 10
4123.3232904761280224
 20
119.6936021319843064
 30
0.0
 40
0.0929067007251719
 50
1.168133202518743
 51
30.9340167488613105
  0
LINE
  5
11C5F
  8
0
 10
4123.4161778686675461
 20
119.6954961612565995
 30
0.0
 11
4123.4168343831588572
 21
119.6239618789865062
 31
0.0
  0
LINE
  5
11C60
  8
0
 10
4123.4168343831588572
 20
119.6239618789865062
 30
0.0
 11
4123.4173305983686078
 21
119.5698844225565978
 31
0.0
  0
ARC
  5
11C61
  8
0
 10
4122.7361078478079435
 20
119.7448410443518014
 30
0.0
 40
0.0069694024425839
 50
204.5444948074616889
 51
246.8168760825352024
  0
ARC
  5
11C62
  8
0
 10
4122.7442185348372732
 20
119.7637800992630019
 30
0.0
 40
0.027572097533491
 50
246.8168760825352024
 51
259.6078698013636199
  0
ARC
  5
11C63
  8
0
 10
4122.7481769144887949
 20
119.7853643107946056
 30
0.0
 40
0.0495162757344164
 50
259.6078698013636199
 51
268.8147512758537232
  0
ARC
  5
11C64
  8
0
 10
4122.7296692571226231
 20
118.8908184074502969
 30
0.0
 40
0.8452210636961059
 50
85.7130569385322758
 51
88.8147512758537658
  0
ARC
  5
11C65
  8
0
 10
4122.7355429636436384
 20
118.9691750239121006
 30
0.0
 40
0.7666446055700148
 50
78.3488709309381761
 51
85.7130569385322758
  0
ARC
  5
11C66
  8
0
 10
4122.8128039142993657
 20
119.3438632026264941
 30
0.0
 40
0.3840737157150298
 50
64.4686697761790271
 51
78.3488709309381761
  0
ARC
  5
11C67
  8
0
 10
4122.9391586846841165
 20
119.608399124922002
 30
0.0
 40
0.0909103104548535
 50
36.4375916965371616
 51
64.4686697761790271
  0
ARC
  5
11C68
  8
0
 10
4122.9903113444543123
 20
119.6461639469754061
 30
0.0
 40
0.0273274795460743
 50
8.3429180258131836
 51
36.4375916965338789
  0
ARC
  5
11C69
  8
0
 10
4122.9954474538608338
 20
119.6469171538728062
 30
0.0
 40
0.022136435291267
 50
325.6033200101841203
 51
8.3429180258164042
  0
ARC
  5
11C6A
  8
0
 10
4122.9612572132000423
 20
119.6768272594980971
 30
0.0
 40
0.0674588926286593
 50
302.0315708044461758
 51
321.0413585286361808
  0
ARC
  5
11C6B
  8
0
 10
4123.0080374862918688
 20
119.6033758001771048
 30
0.0
 40
0.019634148252867
 50
124.0764622237282993
 51
179.8745385065705875
  0
LINE
  5
11C6C
  8
0
 10
4122.9884033851103595
 20
119.6034187933541943
 30
0.0
 11
4122.9881279912960963
 21
119.5734117359622957
 31
0.0
  0
LINE
  5
11C6D
  8
0
 10
4122.9881279912960963
 20
119.5734117359622957
 30
0.0
 11
4122.9875830530681924
 21
119.5140349749566013
 31
0.0
  0
ARC
  5
11C6E
  8
0
 10
4122.9790577576286523
 20
119.4969129825822023
 30
0.0
 40
0.0172953812052577
 50
89.023090139103175
 51
113.7973168369687045
  0
ARC
  5
11C6F
  8
0
 10
4122.9604275949341172
 20
118.4045835369925044
 30
0.0
 40
1.1097836880827909
 50
88.5978813310301092
 51
89.0228929508386244
  0
ARC
  5
11C70
  8
0
 10
4123.0306244978200994
 20
121.2725172291790017
 30
0.0
 40
1.7590089617880531
 50
268.5978813310301234
 51
269.401518030158627
  0
ARC
  5
11C71
  8
0
 10
4122.7631782611515519
 20
97.239491794240223
 30
0.0
 40
22.2755049772095397
 50
88.6401433861099548
 51
89.359335646778689
  0
ARC
  5
11C72
  8
0
 10
4123.2916951018651162
 20
119.4892527893126015
 30
0.0
 40
0.0194707316625731
 50
16.3246793470263114
 51
89.6474377438402286
  0
ARC
  5
11C73
  8
0
 10
4123.347902859106398
 20
119.6018707218103998
 30
0.0
 40
0.0824767050056292
 50
18.1097326883400989
 51
33.576080981686971
  0
ARC
  5
11C74
  8
0
 10
4123.3623738472933837
 20
119.6066032907301064
 30
0.0
 40
0.067251505246778
 50
347.4346385617603801
 51
18.1097326883416407
  0
ARC
  5
11C75
  8
0
 10
4123.3603271224910713
 20
119.6110848808637002
 30
0.0
 40
0.0703340175648802
 50
324.1416889235453027
 51
344.2323320919633147
  0
ARC
  5
11C76
  8
0
 10
4123.2435187706569195
 20
119.7109392003579984
 30
0.0
 40
0.2238459331609392
 50
294.8032665137939716
 51
320.9393824536995226
  0
ARC
  5
11C77
  8
0
 10
4123.1508543171667043
 20
119.860741510651394
 30
0.0
 40
0.399269765835017
 50
293.549784554990481
 51
297.8575397413538894
  0
ARC
  5
11C78
  8
0
 10
4122.8761027120153813
 20
120.5543236395937043
 30
0.0
 40
1.1451399307574961
 50
275.1793710084867257
 51
292.2863591322515049
  0
ARC
  5
11C79
  8
0
 10
4122.7206898000922592
 20
121.8583033084235012
 30
0.0
 40
2.458104582830027
 50
270.0135734691664879
 51
276.0432996747431957
  0
ARC
  5
11C7A
  8
0
 10
4123.0064711824652477
 20
119.6052492134815992
 30
0.0
 40
0.0172401328203411
 50
91.8790040587131642
 51
120.0840620555746057
  0
ARC
  5
11C7B
  8
0
 10
-220.7735567708027986
 20
-263954.8977734101936221
 30
0.0
 40
264110.2433968234108761
 50
89.057555239888174
 51
89.057622874433946
  0
ARC
  5
11C7C
  8
0
 10
4123.2312033493290073
 20
119.7786293549011987
 30
0.0
 40
0.1829757407151418
 50
298.1868060947739991
 51
326.0477263887337926
  0
ARC
  5
11C7D
  8
0
 10
4123.3252266242161568
 20
119.7130124809057037
 30
0.0
 40
0.0683628687702982
 50
327.6547660366423997
 51
22.2739958367055095
  0
ARC
  5
11C7E
  8
0
 10
4123.2772245397272854
 20
119.6886717849201034
 30
0.0
 40
0.1220859378579574
 50
24.3064789928064791
 51
51.4817861047341907
  0
ARC
  5
11C7F
  8
0
 10
4122.8470141416282786
 20
119.0920698379062941
 30
0.0
 40
0.8575048519718306
 50
53.8170695604927687
 51
60.3075029501696633
  0
ARC
  5
11C80
  8
0
 10
4123.3138871031378585
 20
119.5940901381006967
 30
0.0
 40
0.0235615959496669
 50
3.6645742262057048
 51
80.8557177309659636
  0
LINE
  5
11C81
  8
0
 10
4123.3374005233426942
 20
119.5955960842993022
 30
0.0
 11
4123.337422998168222
 21
119.5077422568565026
 31
0.0
  0
ARC
  5
11C82
  8
0
 10
4123.2074767649201021
 20
119.8170330414238975
 30
0.0
 40
0.2567382109918539
 50
300.4014373508541098
 51
315.141134106183074
  0
ARC
  5
11C83
  8
0
 10
4123.3203748242231086
 20
119.7046898099431047
 30
0.0
 40
0.0974680836804505
 50
315.1411341061836993
 51
341.2941122857274081
  0
ARC
  5
11C84
  8
0
 10
4123.3470078850677965
 20
119.6956719657241024
 30
0.0
 40
0.0693497365679654
 50
341.2941122857289997
 51
356.3480050098423817
  0
ARC
  5
11C85
  8
0
 10
4123.324930286664312
 20
119.5356144216507062
 30
0.0
 40
0.1074948613879154
 50
24.0268927377987502
 51
30.9309103133972911
  0
ARC
  5
11C86
  8
0
 10
4123.4201134122768053
 20
119.6159660228806985
 30
0.0
 40
0.0895147999349426
 50
326.9811078289523039
 51
356.4731155244999172
  0
ARC
  5
11C87
  8
0
 10
4123.3098841308701594
 20
119.7000005757135028
 30
0.0
 40
0.2279699781392007
 50
297.5458307738072108
 51
324.3672292903560219
  0
ARC
  5
11C88
  8
0
 10
4122.9212880144295923
 20
120.5150345889804981
 30
0.0
 40
1.1307856017201521
 50
275.9930900011813151
 51
295.9052655108197882
  0
ARC
  5
11C89
  8
0
 10
4122.7259023079113831
 20
121.754772071544707
 30
0.0
 40
2.385029817737998
 50
270.5069930421653908
 51
277.5518681876206983
  0
ARC
  5
11C8A
  8
0
 10
4122.7176011387118706
 20
121.7564023415328052
 30
0.0
 40
2.3867478621055138
 50
270.0881250818899275
 51
270.7059155074903742
  0
ARC
  5
11C8B
  8
0
 10
4122.7200068296524478
 20
120.3239529356548019
 30
0.0
 40
0.8513628134046616
 50
270.0851533045179167
 51
273.3376782873515936
  0
ARC
  5
11C8C
  8
0
 10
4122.7268235551227917
 20
120.370133896900299
 30
0.0
 40
0.8971188027562474
 50
272.7313290768091747
 51
277.5138977829204805
  0
ARC
  5
11C8D
  8
0
 10
4122.7603790787352409
 20
120.1259571426289057
 30
0.0
 40
0.6506521822349929
 50
277.3961447014697228
 51
283.9082690573342802
  0
ARC
  5
11C8E
  8
0
 10
4122.816213323845659
 20
119.8964810101676051
 30
0.0
 40
0.4144842183602039
 50
284.0411761997924032
 51
289.093023052939202
  0
ARC
  5
11C8F
  8
0
 10
4122.8599106925967135
 20
119.7694489345914945
 30
0.0
 40
0.2801469227555777
 50
289.1459998843739072
 51
293.6026307057356917
  0
LINE
  5
11C90
  8
0
 10
4121.9309203692509982
 20
119.4921088643564957
 30
0.0
 11
4121.933162550050838
 21
119.6146540336565067
 31
0.0
  0
ARC
  5
11C91
  8
0
 10
4122.0254855790371948
 20
119.6124868324691022
 30
0.0
 40
0.0923484620452006
 50
152.4214123853066951
 51
178.6552793736273088
  0
ARC
  5
11C92
  8
0
 10
4122.0746003354070126
 20
119.5868336253244024
 30
0.0
 40
0.1477591679606261
 50
132.5841944182857048
 51
152.4214123853066951
  0
ARC
  5
11C93
  8
0
 10
4122.1769484063561322
 20
119.4754692919112955
 30
0.0
 40
0.2990110849191916
 50
121.7990652693282954
 51
132.5841944182857048
  0
ARC
  5
11C94
  8
0
 10
4122.2457069042602598
 20
119.3645691477006068
 30
0.0
 40
0.4294969961125736
 50
118.683303916469896
 51
121.7990652693282954
  0
ARC
  5
11C95
  8
0
 10
4122.7200228955898638
 20
118.8341667162215032
 30
0.0
 40
0.8099676543117126
 50
90.4631226775468207
 51
93.073672066926207
  0
ARC
  5
11C96
  8
0
 10
4122.7126029775618008
 20
118.9282319792321942
 30
0.0
 40
0.7156437658099281
 50
92.884287989573366
 51
100.0867958295498994
  0
ARC
  5
11C97
  8
0
 10
4122.6474967192289114
 20
119.2644293372125048
 30
0.0
 40
0.3732765982438451
 50
99.2857761616999284
 51
112.845215256831807
  0
ARC
  5
11C98
  8
0
 10
4122.5532906205889958
 20
119.4880426516157002
 30
0.0
 40
0.1306293163731253
 50
112.845215256831807
 51
139.1923527190072036
  0
LINE
  5
11C99
  8
0
 10
4122.7134759857253812
 20
119.6441079110019956
 30
0.0
 11
4122.7116167455506002
 21
119.9039955181566057
 31
0.0
  0
ARC
  5
11C9A
  8
0
 10
4122.6916698197219375
 20
119.9038528175242959
 30
0.0
 40
0.0199474362640403
 50
0.4098879471518728
 51
36.8338800994367901
  0
ARC
  5
11C9B
  8
0
 10
4122.6931519109893998
 20
119.9046462036207998
 30
0.0
 40
0.0182873290240065
 50
37.6281468068045584
 51
90.5795711219516448
  0
ARC
  5
11C9C
  8
0
 10
4122.7184212179154201
 20
117.8199259464824991
 30
0.0
 40
2.1031606912286551
 50
90.6934605037003649
 51
95.7528653805477035
  0
ARC
  5
11C9D
  8
0
 10
4122.6282444211683469
 20
118.5533853251920959
 30
0.0
 40
1.3644524509076701
 50
95.0724880549322364
 51
107.4089660412873997
  0
ARC
  5
11C9E
  8
0
 10
4122.368551822290101
 20
119.3816112024856011
 30
0.0
 40
0.4964672265346375
 50
107.4089660412873997
 51
126.1837992601737
  0
ARC
  5
11C9F
  8
0
 10
4122.1742249940289184
 20
119.6595861373686063
 30
0.0
 40
0.1575474256740353
 50
128.8263328841028112
 51
148.7315581169802101
  0
ARC
  5
11CA0
  8
0
 10
4122.1192537824908868
 20
119.6936021319843064
 30
0.0
 40
0.0929067007251719
 50
149.0659832511387037
 51
178.8318667974812115
  0
LINE
  5
11CA1
  8
0
 10
4122.0263663899522726
 20
119.6954961612565995
 30
0.0
 11
4122.025709875460052
 21
119.6239618789865062
 31
0.0
  0
LINE
  5
11CA2
  8
0
 10
4122.025709875460052
 20
119.6239618789865062
 30
0.0
 11
4122.025213660251211
 21
119.5698844225565978
 31
0.0
  0
ARC
  5
11CA3
  8
0
 10
4122.7064364108109658
 20
119.7448410443518014
 30
0.0
 40
0.0069694024425839
 50
293.1831239174647976
 51
335.4555051925382827
  0
ARC
  5
11CA4
  8
0
 10
4122.698325723781636
 20
119.7637800992630019
 30
0.0
 40
0.027572097533491
 50
280.3921301986363801
 51
293.1831239174647976
  0
ARC
  5
11CA5
  8
0
 10
4122.6943673441301144
 20
119.7853643107946056
 30
0.0
 40
0.0495162757344164
 50
271.1852487241462768
 51
280.3921301986363801
  0
ARC
  5
11CA6
  8
0
 10
4122.7128750014962861
 20
118.8908184074502969
 30
0.0
 40
0.8452210636961059
 50
91.1852487241462342
 51
94.2869430614677242
  0
ARC
  5
11CA7
  8
0
 10
4122.7070012949752709
 20
118.9691750239121006
 30
0.0
 40
0.7666446055700148
 50
94.2869430614677242
 51
101.6511290690617955
  0
ARC
  5
11CA8
  8
0
 10
4122.629740344320453
 20
119.3438632026264941
 30
0.0
 40
0.3840737157150298
 50
101.6511290690617955
 51
115.5313302238210014
  0
ARC
  5
11CA9
  8
0
 10
4122.5033855739347928
 20
119.608399124922002
 30
0.0
 40
0.0909103104548535
 50
115.5313302238210014
 51
143.5624083034628029
  0
ARC
  5
11CAA
  8
0
 10
4122.4522329141645969
 20
119.6461639469754061
 30
0.0
 40
0.0273274795460743
 50
143.5624083034660998
 51
171.6570819741868092
  0
ARC
  5
11CAB
  8
0
 10
4122.4470968047589849
 20
119.6469171538728062
 30
0.0
 40
0.022136435291267
 50
171.6570819741835976
 51
214.3966799898149134
  0
ARC
  5
11CAC
  8
0
 10
4122.4812870454188669
 20
119.6768272594980971
 30
0.0
 40
0.0674588926286593
 50
218.9586414713637907
 51
237.9684291955537958
  0
ARC
  5
11CAD
  8
0
 10
4122.4345067723279499
 20
119.6033758001771048
 30
0.0
 40
0.019634148252867
 50
0.1254614934293784
 51
55.92353777627212
  0
LINE
  5
11CAE
  8
0
 10
4122.4541408735085497
 20
119.6034187933541943
 30
0.0
 11
4122.4544162673237224
 21
119.5734117359622957
 31
0.0
  0
LINE
  5
11CAF
  8
0
 10
4122.4544162673237224
 20
119.5734117359622957
 30
0.0
 11
4122.4549612055507168
 21
119.5140349749566013
 31
0.0
  0
ARC
  5
11CB0
  8
0
 10
4122.4634865009902569
 20
119.4969129825822023
 30
0.0
 40
0.0172953812052577
 50
66.2026831630312529
 51
90.976909860896825
  0
ARC
  5
11CB1
  8
0
 10
4122.482116663684792
 20
118.4045835369925044
 30
0.0
 40
1.1097836880827909
 50
90.9771070491613756
 51
91.402118668969905
  0
ARC
  5
11CB2
  8
0
 10
4122.4119197607988099
 20
121.2725172291790017
 30
0.0
 40
1.7590089617880531
 50
270.598481969841373
 51
271.4021186689698766
  0
ARC
  5
11CB3
  8
0
 10
4122.6793659974673574
 20
97.239491794240223
 30
0.0
 40
22.2755049772095397
 50
90.6406643532212968
 51
91.3598566138900736
  0
ARC
  5
11CB4
  8
0
 10
4122.1508491567537931
 20
119.4892527893126015
 30
0.0
 40
0.0194707316625731
 50
90.3525622561597572
 51
163.6753206529735962
  0
ARC
  5
11CB5
  8
0
 10
4122.0946413995134208
 20
119.6018707218103998
 30
0.0
 40
0.0824767050056292
 50
146.4239190183130006
 51
161.8902673116598976
  0
ARC
  5
11CB6
  8
0
 10
4122.080170411326435
 20
119.6066032907301064
 30
0.0
 40
0.067251505246778
 50
161.890267311658306
 51
192.5653614382395915
  0
ARC
  5
11CB7
  8
0
 10
4122.0822171361287474
 20
119.6110848808637002
 30
0.0
 40
0.0703340175648802
 50
195.7676679080367137
 51
215.8583110764533899
  0
ARC
  5
11CB8
  8
0
 10
4122.1990254879619897
 20
119.7109392003579984
 30
0.0
 40
0.2238459331609392
 50
219.0606175463005059
 51
245.196733486206
  0
ARC
  5
11CB9
  8
0
 10
4122.2916899414522049
 20
119.860741510651394
 30
0.0
 40
0.399269765835017
 50
242.1424602586459969
 51
246.4502154450094054
  0
ARC
  5
11CBA
  8
0
 10
4122.5664415466044375
 20
120.5543236395937043
 30
0.0
 40
1.1451399307574961
 50
247.7136408677484951
 51
264.8206289915132743
  0
ARC
  5
11CBB
  8
0
 10
4122.72185445852665
 20
121.8583033084235012
 30
0.0
 40
2.458104582830027
 50
263.9567003252566906
 51
269.9864265308335121
  0
ARC
  5
11CBC
  8
0
 10
4122.4360730761536615
 20
119.6052492134815992
 30
0.0
 40
0.0172401328203411
 50
59.9159379444253304
 51
88.1209959412868642
  0
ARC
  5
11CBD
  8
0
 10
8466.2161010294203152
 20
-263954.8977734101936221
 30
0.0
 40
264110.2433968234108761
 50
90.9423771255660682
 51
90.942444760111826
  0
ARC
  5
11CBE
  8
0
 10
4122.2113409092908114
 20
119.7786293549011987
 30
0.0
 40
0.1829757407151418
 50
213.9522736112662926
 51
241.8131939052260009
  0
ARC
  5
11CBF
  8
0
 10
4122.1173176344036619
 20
119.7130124809057037
 30
0.0
 40
0.0683628687702982
 50
157.7260041632945047
 51
212.3452339633574866
  0
ARC
  5
11CC0
  8
0
 10
4122.1653197188916238
 20
119.6886717849201034
 30
0.0
 40
0.1220859378579574
 50
128.5182138952658022
 51
155.6935210071935103
  0
ARC
  5
11CC1
  8
0
 10
4122.5955301169906306
 20
119.0920698379062941
 30
0.0
 40
0.8575048519718306
 50
119.692497049830294
 51
126.1829304395072029
  0
ARC
  5
11CC2
  8
0
 10
4122.1286571554819602
 20
119.5940901381006967
 30
0.0
 40
0.0235615959496669
 50
99.1442822690340648
 51
176.3354257737942987
  0
LINE
  5
11CC3
  8
0
 10
4122.105143735276215
 20
119.5955960842993022
 30
0.0
 11
4122.1051212604506873
 21
119.5077422568565026
 31
0.0
  0
ARC
  5
11CC4
  8
0
 10
4122.2350674936988071
 20
119.8170330414238975
 30
0.0
 40
0.2567382109918539
 50
224.8588658938163007
 51
239.5985626491460039
  0
ARC
  5
11CC5
  8
0
 10
4122.1221694343958006
 20
119.7046898099431047
 30
0.0
 40
0.0974680836804505
 50
198.7058877142710003
 51
224.8588658938163007
  0
ARC
  5
11CC6
  8
0
 10
4122.0955363735511128
 20
119.6956719657241024
 30
0.0
 40
0.0693497365679654
 50
183.651994990155913
 51
198.7058877142710003
  0
ARC
  5
11CC7
  8
0
 10
4122.1176139719545972
 20
119.5356144216507062
 30
0.0
 40
0.1074948613879154
 50
149.0690896866026947
 51
155.9731072622012107
  0
ARC
  5
11CC8
  8
0
 10
4122.0199622781556172
 20
119.6147808512111936
 30
0.0
 40
0.0867998207479644
 50
180.0837111548634084
 51
213.2508523840128021
  0
ARC
  5
11CC9
  8
0
 10
4122.1326601277487498
 20
119.7000005757135028
 30
0.0
 40
0.2279699781392007
 50
215.632770709643296
 51
242.4541692261927892
  0
ARC
  5
11CCA
  8
0
 10
4122.5212562441884074
 20
120.5150345889804981
 30
0.0
 40
1.1307856017201521
 50
244.0947344891800981
 51
264.0069099988186849
  0
ARC
  5
11CCB
  8
0
 10
4122.7166419507084356
 20
121.754772071544707
 30
0.0
 40
2.385029817737998
 50
262.4481318123793017
 51
269.4930069578346092
  0
ARC
  5
11CCC
  8
0
 10
4122.7249431199079481
 20
121.7564023415328052
 30
0.0
 40
2.3867478621055138
 50
269.2940844925096258
 51
269.9118749181100725
  0
ARC
  5
11CCD
  8
0
 10
4122.7225374289673709
 20
120.3239529356548019
 30
0.0
 40
0.8513628134046616
 50
266.6623217126485201
 51
269.9148466954820833
  0
ARC
  5
11CCE
  8
0
 10
4122.7157207034961175
 20
120.370133896900299
 30
0.0
 40
0.8971188027562474
 50
262.4861022170795195
 51
267.2686709231907116
  0
ARC
  5
11CCF
  8
0
 10
4122.6821651798836683
 20
120.1259571426289057
 30
0.0
 40
0.6506521822349929
 50
256.0917309426657198
 51
262.6038552985302772
  0
ARC
  5
11CD0
  8
0
 10
4122.6263309347741597
 20
119.8964810101676051
 30
0.0
 40
0.4144842183602039
 50
250.906976947060798
 51
255.9588238002075968
  0
ARC
  5
11CD1
  8
0
 10
4122.5826335660221957
 20
119.7694489345914945
 30
0.0
 40
0.2801469227555777
 50
246.3973692942643083
 51
250.8540001156260928
  0
ARC
  5
11CD2
  8
0
 10
4122.4312653643683007
 20
119.8861266405564976
 30
0.0
 40
0.0196850394000661
 50
90.0000000000521254
 51
127.5122614873757954
  0
LINE
  5
11CD3
  8
0
 10
4122.4312653643683007
 20
119.9058116799564999
 30
0.0
 11
4122.4474864456133218
 21
119.9058116799565994
 31
0.0
  0
ARC
  5
11CD4
  8
0
 10
4122.1360982411160876
 20
117.2638315682804944
 30
0.0
 40
2.1741030133407619
 50
96.492135440943855
 51
98.5800191466273645
  0
ARC
  5
11CD5
  8
0
 10
4121.8094985982452272
 20
122.3554578720346058
 30
0.0
 40
2.8353388737462031
 50
271.161627231008822
 51
272.4657471282727101
  0
LINE
  5
11CD6
  8
0
 10
4121.013764680769782
 20
119.5479098549885038
 30
0.0
 11
4121.9319413471530424
 21
119.5479098549885038
 31
0.0
  0
LINE
  5
11CD7
  8
0
 10
4122.7118961397709427
 20
119.8649413408685973
 30
0.0
 11
4122.7306481234054445
 21
119.8649419779221006
 31
0.0
  0
LINE
  5
11CD8
  8
0
 10
4119.5214207206090578
 20
117.671019669346407
 30
0.0
 11
4119.5213430293460988
 21
114.2247488574883931
 31
0.0
  0
ARC
  5
11CD9
  8
0
 10
4119.5627338480762774
 20
114.223294251684294
 30
0.0
 40
0.0414163705937799
 50
177.9872713148579066
 51
212.0967869047304077
  0
ARC
  5
11CDA
  8
0
 10
4120.3877080037318592
 20
114.8245197808758036
 30
0.0
 40
1.0621307417545911
 50
215.9285112380962914
 51
231.9665393874622055
  0
ARC
  5
11CDB
  8
0
 10
4119.8623116693806878
 20
114.8270123508561937
 30
0.0
 40
1.066572194548286
 50
308.1194355319851184
 51
323.9403761486470898
  0
ARC
  5
11CDC
  8
0
 10
4120.6917907681627185
 20
114.2230406849967039
 30
0.0
 40
0.0405033135860872
 50
323.9403761486470898
 51
358.1467029737281109
  0
LINE
  5
11CDD
  8
0
 10
4120.7322728948465738
 20
114.221730787788502
 30
0.0
 11
4120.7322734474473691
 21
117.128276485043699
 31
0.0
  0
ARC
  5
11CDE
  8
0
 10
4120.1270092057493457
 20
103.3603982431219066
 30
0.0
 40
0.3937028336037604
 50
180.0001164147369082
 51
359.8003477071245015
  0
ARC
  5
11CDF
  8
0
 10
4120.1270092057493457
 20
103.3603982431219066
 30
0.0
 40
0.4351021209479278
 50
154.8033061415843861
 51
25.1974410037942391
  0
ARC
  5
11CE0
  8
0
 10
4120.1270071595463378
 20
103.3603974431885035
 30
0.0
 40
0.7185039370000004
 50
123.2261593691811044
 51
56.7738406308188175
  0
ARC
  5
11CE1
  8
0
 10
4120.1270071595463378
 20
103.3603974431885035
 30
0.0
 40
5.0019685038999988
 50
94.5143729166206725
 51
85.4856078155196855
  0
CIRCLE
  5
11CE2
  8
0
 10
4115.4793693642459402
 20
103.3603974431885035
 30
0.0
 40
0.1653543306999978
  0
CIRCLE
  5
11CE3
  8
0
 10
4115.4793693642459402
 20
103.3603974431885035
 30
0.0
 40
0.1181102362000033
  0
CIRCLE
  5
11CE4
  8
0
 10
4117.8022040099458536
 20
107.3836650670885007
 30
0.0
 40
0.1653543306999978
  0
CIRCLE
  5
11CE5
  8
0
 10
4117.8022040099458536
 20
107.3836650670885007
 30
0.0
 40
0.1181102362000033
  0
CIRCLE
  5
11CE6
  8
0
 10
4122.447873301245636
 20
107.3836650670885007
 30
0.0
 40
0.1653543306999978
  0
CIRCLE
  5
11CE7
  8
0
 10
4122.447873301245636
 20
107.3836650670885007
 30
0.0
 40
0.1181102362000033
  0
CIRCLE
  5
11CE8
  8
0
 10
4124.7707079469455493
 20
103.3603974431885035
 30
0.0
 40
0.1653543306999978
  0
CIRCLE
  5
11CE9
  8
0
 10
4124.7707079469455493
 20
103.3603974431885035
 30
0.0
 40
0.1181102362000033
  0
CIRCLE
  5
11CEA
  8
0
 10
4122.447873301245636
 20
99.3371298192885206
 30
0.0
 40
0.1653543306999978
  0
CIRCLE
  5
11CEB
  8
0
 10
4122.447873301245636
 20
99.3371298192885206
 30
0.0
 40
0.1181102362000033
  0
CIRCLE
  5
11CEC
  8
0
 10
4117.8022040099458536
 20
99.3371298192885206
 30
0.0
 40
0.1653543306999978
  0
CIRCLE
  5
11CED
  8
0
 10
4117.8022040099458536
 20
99.3371298192885206
 30
0.0
 40
0.1181102362000033
  0
ARC
  5
11CEE
  8
0
 10
4120.1270071595463378
 20
103.3603974431885035
 30
0.0
 40
0.5039370078999998
 50
141.3751671229454985
 51
38.6248328770544802
  0
ARC
  5
11CEF
  8
0
 10
4120.1270071595463378
 20
103.3603974431885035
 30
0.0
 40
0.4960629920999997
 50
142.5280048208072969
 51
37.4719951791926533
  0
LINE
  5
11CF0
  8
0
 10
4116.4019117671450658
 20
122.4444001822884047
 30
0.0
 11
4116.3988536706146988
 21
122.1850655846335059
 31
0.0
  0
ARC
  5
11CF1
  8
0
 10
4116.4398699832936472
 20
122.1845819166435945
 30
0.0
 40
0.0410191643074256
 50
179.3243944101257057
 51
221.9901990291733966
  0
LINE
  5
11CF2
  8
0
 10
4116.409382108947284
 20
122.1571399531884055
 30
0.0
 11
4116.4689262526462699
 21
122.0598183954885059
 31
0.0
  0
ARC
  5
11CF3
  8
0
 10
4116.4937464719496347
 20
122.0753854585997971
 30
0.0
 40
0.029298067174456
 50
212.0956411898226861
 51
247.4233394355603934
  0
LINE
  5
11CF4
  8
0
 10
4117.9465907409457941
 20
122.4444001822884047
 30
0.0
 11
4117.9496488374779801
 21
122.1850655846335059
 31
0.0
  0
ARC
  5
11CF5
  8
0
 10
4117.9086325247990317
 20
122.1845819166435945
 30
0.0
 40
0.0410191643074256
 50
318.0098009708265181
 51
0.6756055898726419
  0
LINE
  5
11CF6
  8
0
 10
4117.9391203991463044
 20
122.1571399531884055
 30
0.0
 11
4117.879576255446409
 21
122.0598183954885059
 31
0.0
  0
ARC
  5
11CF7
  8
0
 10
4117.8547560361430442
 20
122.0753854585997971
 30
0.0
 40
0.029298067174456
 50
292.5766605644395781
 51
327.9043588101773139
  0
LINE
  5
11CF8
  8
0
 10
4120.1270071595463378
 20
122.4444001822884047
 30
0.0
 11
4120.1270071595463378
 21
122.0482861663884933
 31
0.0
  0
ARC
  5
11CF9
  8
0
 10
4120.1270071595463378
 20
103.358428939388503
 30
0.0
 40
4.9350393700000001
 50
94.5757265740672466
 51
85.4242538951010175
  0
LINE
  5
11CFA
  8
0
 10
4116.534243380046064
 20
121.2018715994883991
 30
0.0
 11
4116.534243380046064
 21
120.4459987217884986
 31
0.0
  0
LINE
  5
11CFB
  8
0
 10
4116.534243380046064
 20
120.4459987217884986
 30
0.0
 11
4116.5539285302465942
 21
120.4263135679884016
 31
0.0
  0
LINE
  5
11CFC
  8
0
 10
4116.5539285302465942
 20
120.4263135679884016
 30
0.0
 11
4117.7940857888470418
 21
120.4263135679884016
 31
0.0
  0
LINE
  5
11CFD
  8
0
 10
4117.7940857888470418
 20
120.4263135679884016
 30
0.0
 11
4117.813770939045753
 21
120.4459987217884986
 31
0.0
  0
LINE
  5
11CFE
  8
0
 10
4117.813770939045753
 20
120.4459987217884986
 30
0.0
 11
4117.813770939045753
 21
121.2018715994884985
 31
0.0
  0
LINE
  5
11CFF
  8
0
 10
4116.534243380046064
 20
120.4459987217884986
 30
0.0
 11
4116.5641244978723989
 21
120.4459987217884986
 31
0.0
  0
LINE
  5
11D00
  8
0
 10
4116.8817545778456406
 20
120.4459987217884986
 30
0.0
 11
4117.813770939045753
 21
120.4459987217884986
 31
0.0
  0
LINE
  5
11D01
  8
0
 10
4116.600906612045037
 20
120.4263135679884016
 30
0.0
 11
4116.5641244978723989
 21
120.4459987217884986
 31
0.0
  0
LINE
  5
11D02
  8
0
 10
4116.5641244978723989
 20
120.4459987217884986
 30
0.0
 11
4116.5641244978723989
 21
120.8396993947884965
 31
0.0
  0
LINE
  5
11D03
  8
0
 10
4116.5641244978723989
 20
120.8396993947884965
 30
0.0
 11
4116.8817545778456406
 21
120.8396993947884965
 31
0.0
  0
LINE
  5
11D04
  8
0
 10
4116.8817545778456406
 20
120.8396993947884965
 30
0.0
 11
4116.8817545778456406
 21
120.4459987217884986
 31
0.0
  0
LINE
  5
11D05
  8
0
 10
4116.8817545778456406
 20
120.4459987217884986
 30
0.0
 11
4116.8449755525462024
 21
120.4263135679884016
 31
0.0
  0
ARC
  5
11D06
  8
0
 10
4116.6793899601861995
 20
120.6992005243183002
 30
0.0
 40
0.1817347866657278
 50
96.0838957788827344
 51
129.3670575344069107
  0
ARC
  5
11D07
  8
0
 10
4116.6859787071516621
 20
120.4810826796023946
 30
0.0
 40
0.399665901448958
 50
77.3799805193156942
 51
93.7083997750223716
  0
ARC
  5
11D08
  8
0
 10
4116.6113653029688066
 20
120.1086208010951992
 30
0.0
 40
0.7794782037038583
 50
69.7030959912063537
 51
78.0096588842670968
  0
LINE
  5
11D09
  8
0
 10
4116.573377238246394
 20
120.3593844340884971
 30
0.0
 11
4119.6348811752459369
 21
120.3593844341883994
 31
0.0
  0
LINE
  5
11D0A
  8
0
 10
4119.6348811752459369
 20
122.0444237872884941
 30
0.0
 11
4119.6348811752459369
 21
120.0956341022884999
 31
0.0
  0
LINE
  5
11D0B
  8
0
 10
4120.6191331437466943
 20
122.0444237872884941
 30
0.0
 11
4120.6191331437466943
 21
120.0956341022884999
 31
0.0
  0
LINE
  5
11D0C
  8
0
 10
4119.6348811752459369
 20
120.0956341022884999
 30
0.0
 11
4120.6191331437466943
 21
120.0956341022884999
 31
0.0
  0
LINE
  5
11D0D
  8
0
 10
4119.8120465296460679
 20
120.0956341022884999
 30
0.0
 11
4119.8120465296460679
 21
119.6910932145865019
 31
0.0
  0
LINE
  5
11D0E
  8
0
 10
4120.4419677894456981
 20
120.0956341022884999
 30
0.0
 11
4120.4419677894456981
 21
119.6930718781894001
 31
0.0
  0
ARC
  5
11D0F
  8
0
 10
4119.7644198239468096
 20
119.6915147469954945
 30
0.0
 40
0.0476285711032796
 50
311.9029811080446848
 51
359.4929022129969098
  0
ARC
  5
11D10
  8
0
 10
4116.573377238246394
 20
120.3200143553884942
 30
0.0
 40
0.0393700787000242
 50
90.0
 51
179.9999999999689919
  0
LINE
  5
11D11
  8
0
 10
4116.5340071595455811
 20
120.3200143553884942
 30
0.0
 11
4116.5340071595455811
 21
119.8682743022988006
 31
0.0
  0
ARC
  5
11D12
  8
0
 10
4116.3359873697081639
 20
119.8682743022989996
 30
0.0
 40
0.1980197898369587
 50
270.904262029882716
 51
359.9999999999690772
  0
LINE
  5
11D13
  8
0
 10
4116.3391124575464346
 20
119.6702791735884972
 30
0.0
 11
4116.0093447801464208
 21
119.6702140404884034
 31
0.0
  0
ARC
  5
11D14
  8
0
 10
4116.0093447808549172
 20
119.6308439599524007
 30
0.0
 40
0.0393700805359956
 50
90.000001032876412
 51
134.9999989438900911
  0
LINE
  5
11D15
  8
0
 10
4115.9815059304455644
 20
119.6586828113884025
 30
0.0
 11
4115.8865683868389169
 21
119.5637452712808937
 31
0.0
  0
ARC
  5
11D16
  8
0
 10
4115.9144065792597758
 20
119.5359068617684954
 30
0.0
 40
0.0393693027812295
 50
134.9997765957147919
 51
180.0006430863419098
  0
LINE
  5
11D17
  8
0
 10
4115.8750372764807253
 20
119.5359064198884056
 30
0.0
 11
4115.8750372764807253
 21
117.882535321011801
 31
0.0
  0
ARC
  5
11D18
  8
0
 10
4115.9084935627688537
 20
117.8825359124500949
 30
0.0
 40
0.0334562862920361
 50
180.0010128715370001
 51
228.0026339820337
  0
LINE
  5
11D19
  8
0
 10
4115.8861080806473183
 20
117.8576720172884933
 30
0.0
 11
4115.9816797862467865
 21
117.7590666212883974
 31
0.0
  0
ARC
  5
11D1A
  8
0
 10
4116.0096331035465482
 20
117.7865909342996957
 30
0.0
 40
0.0392290499798301
 50
224.8411718491848887
 51
270.1004336733511764
  0
LINE
  5
11D1B
  8
0
 10
4116.0097018680462497
 20
117.7473619445885049
 30
0.0
 11
4119.4341399975455715
 21
117.7473746461884048
 31
0.0
  0
ARC
  5
11D1C
  8
0
 10
4119.4399981754968394
 20
117.6659958977130032
 30
0.0
 40
0.0815773812634058
 50
3.5306742601861001
 51
94.015995113609236
  0
ARC
  5
11D1D
  8
0
 10
4119.5233803606552101
 20
118.9800758934352984
 30
0.0
 40
0.0353339454816068
 50
201.3640443406540896
 51
212.6227203628336042
  0
LINE
  5
11D1E
  8
0
 10
4119.4936207449172798
 20
118.9610271933623977
 30
0.0
 11
4119.7331460088298627
 21
118.5802878052246001
 31
0.0
  0
ARC
  5
11D1F
  8
0
 10
4120.1270071595463378
 20
119.1002140404884955
 30
0.0
 40
0.787401574799978
 50
113.5781784765870981
 51
239.9985259983027106
  0
LINE
  5
11D20
  8
0
 10
4120.5329478905041469
 20
119.6009389327943069
 30
0.0
 11
4120.7557170629797838
 21
119.2468376898374061
 31
0.0
  0
LINE
  5
11D21
  8
0
 10
4119.4435629291801888
 20
119.4912450162135968
 30
0.0
 11
4119.3349807078211597
 21
119.5533700734884945
 31
0.0
  0
LINE
  5
11D22
  8
0
 10
4119.3349807078211597
 20
119.5533700734884945
 30
0.0
 11
4117.1740071602462194
 21
119.5533700734884945
 31
0.0
  0
ARC
  5
11D23
  8
0
 10
4117.1998163780526738
 20
120.0311381220950011
 30
0.0
 40
0.4784646528147169
 50
228.0988149973725001
 51
266.9078649551494209
  0
ARC
  5
11D24
  8
0
 10
4157.4927572501337636
 20
192.1215464398927111
 30
0.0
 40
83.0534359529382442
 50
240.4514161050288976
 51
240.7256365780393992
  0
LINE
  5
11D25
  8
0
 10
4116.0093447801464208
 20
119.6702140404884034
 30
0.0
 11
4116.0093447801464208
 21
117.7473629438855056
 31
0.0
  0
LINE
  5
11D26
  8
0
 10
4116.0093447801464208
 20
118.4283270401885062
 30
0.0
 11
4119.7164354863571134
 21
118.4283270401885062
 31
0.0
  0
ARC
  5
11D27
  8
0
 10
4116.0239039521811719
 20
118.5341019358461949
 30
0.0
 40
0.1067721782197071
 50
246.4760637680907109
 51
262.1628834033746216
  0
LINE
  5
11D28
  8
0
 10
4115.9812877430558729
 20
118.436203229207905
 30
0.0
 11
4115.8861061612888079
 21
118.4710992886379017
 31
0.0
  0
ARC
  5
11D29
  8
0
 10
4115.8978706992547814
 20
118.4928158265222038
 30
0.0
 40
0.0248229741990693
 50
203.0957786152889071
 51
241.709509012395614
  0
LINE
  5
11D2A
  8
0
 10
4119.7333063721462167
 20
117.7970427823864981
 30
0.0
 11
4119.5095629651959825
 21
117.7088590105883981
 31
0.0
  0
LINE
  5
11D2B
  8
0
 10
4118.040392986345978
 20
120.3790694734883999
 30
0.0
 11
4118.040392986345978
 21
120.3593844341883994
 31
0.0
  0
LINE
  5
11D2C
  8
0
 10
4118.040392986345978
 20
120.3790694734883999
 30
0.0
 11
4118.2766134587463966
 21
120.3790694734883999
 31
0.0
  0
LINE
  5
11D2D
  8
0
 10
4118.2766134587463966
 20
120.3790694734883999
 30
0.0
 11
4118.2766134587463966
 21
120.3593844341883994
 31
0.0
  0
LINE
  5
11D2E
  8
0
 10
4116.7527473170457597
 20
120.4263135679884016
 30
0.0
 11
4116.7527473170457597
 21
120.3593844341883994
 31
0.0
  0
LINE
  5
11D2F
  8
0
 10
4117.5952670020460573
 20
120.4263135679884016
 30
0.0
 11
4117.5952670020460573
 21
120.3593844341883994
 31
0.0
  0
LINE
  5
11D30
  8
0
 10
4124.4383603334290456
 20
122.4444456153884033
 30
0.0
 11
4121.7211658469286704
 21
122.4444456153884033
 31
0.0
  0
LINE
  5
11D31
  8
0
 10
4121.7211658469286704
 20
122.4444456153884033
 30
0.0
 11
4121.7211663252292055
 21
122.1851883252884932
 31
0.0
  0
ARC
  5
11D32
  8
0
 10
4121.7605844743857233
 20
122.1851883980103963
 30
0.0
 40
0.0394181491573149
 50
180.0001057041480976
 51
225.3999675762269135
  0
LINE
  5
11D33
  8
0
 10
4121.7329068847293456
 20
122.1571216647884057
 30
0.0
 11
4121.8293357274842492
 21
122.0596457862274065
 31
0.0
  0
ARC
  5
11D34
  8
0
 10
4121.856920122536394
 20
122.087618014539899
 30
0.0
 40
0.0392854223241483
 50
225.3999675762269135
 51
269.9651366421948069
  0
LINE
  5
11D35
  8
0
 10
4121.8568962181288953
 20
122.0483325994885035
 30
0.0
 11
4124.3026166070294494
 21
122.0483325994885035
 31
0.0
  0
ARC
  5
11D36
  8
0
 10
4124.3026173897860645
 20
122.0876867861974944
 30
0.0
 40
0.0393541867167825
 50
269.9988603821136053
 51
314.5965551230141273
  0
LINE
  5
11D37
  8
0
 10
4124.3302483673287497
 20
122.0596639188884041
 30
0.0
 11
4124.4266509048056832
 21
122.1571023172900965
 31
0.0
  0
ARC
  5
11D38
  8
0
 10
4124.3990531037907203
 20
122.1850915375296012
 30
0.0
 40
0.0393069341268808
 50
314.5965551230128767
 51
0.1406827594018349
  0
LINE
  5
11D39
  8
0
 10
4124.4383599194279668
 20
122.1851880507884971
 30
0.0
 11
4124.4383603334290456
 21
122.4444456153884033
 31
0.0
  0
ARC
  5
11D3A
  8
0
 10
4124.0366451455392962
 20
121.8513022592194943
 30
0.0
 40
0.1970303408914982
 50
90.0045546942375836
 51
178.991329790785386
  0
LINE
  5
11D3B
  8
0
 10
4123.8396453359291627
 20
121.8547707235885014
 30
0.0
 11
4123.828490678444723
 21
121.2212150150610057
 31
0.0
  0
ARC
  5
11D3C
  8
0
 10
4123.8088033528183587
 20
121.2215616386825019
 30
0.0
 40
0.0196903767929484
 50
270.3355148415186022
 51
358.9913297907838228
  0
LINE
  5
11D3D
  8
0
 10
4123.8089186558290749
 20
121.2018715994883991
 30
0.0
 11
4122.351279667504059
 21
121.2018715994884985
 31
0.0
  0
ARC
  5
11D3E
  8
0
 10
4122.3506426231879232
 20
121.2215818963289991
 30
0.0
 40
0.0197205889110937
 50
181.0715915408563035
 51
271.8511770544769206
  0
LINE
  5
11D3F
  8
0
 10
4122.330925483255669
 20
121.2212130875883958
 30
0.0
 11
4122.3190750670219131
 21
121.8547564109132963
 31
0.0
  0
ARC
  5
11D40
  8
0
 10
4122.1218080753506001
 20
121.8510665354552032
 30
0.0
 40
0.1973014981803828
 50
1.071591540856353
 51
88.9140997564197875
  0
LINE
  5
11D41
  8
0
 10
4124.4267348991334075
 20
122.1571853862885035
 30
0.0
 11
4121.7328310633311048
 21
122.1571853862885035
 31
0.0
  0
LINE
  5
11D42
  8
0
 10
4123.8521025518457463
 20
122.4444001822884047
 30
0.0
 11
4123.8551606483770229
 21
122.1850655846335059
 31
0.0
  0
ARC
  5
11D43
  8
0
 10
4123.8141443356989839
 20
122.1845819166435945
 30
0.0
 40
0.0410191643074256
 50
318.0098009708265181
 51
0.6756055898726419
  0
LINE
  5
11D44
  8
0
 10
4123.8446322100471662
 20
122.1571399531884055
 30
0.0
 11
4123.7850880663463613
 21
122.0598183954885059
 31
0.0
  0
ARC
  5
11D45
  8
0
 10
4123.7602678470429964
 20
122.0753854585997971
 30
0.0
 40
0.029298067174456
 50
292.5766605644395781
 51
327.9043588101773139
  0
LINE
  5
11D46
  8
0
 10
4122.3074235780450181
 20
122.4444001822884047
 30
0.0
 11
4122.304365481514651
 21
122.1850655846335059
 31
0.0
  0
ARC
  5
11D47
  8
0
 10
4122.34538179419269
 20
122.1845819166435945
 30
0.0
 40
0.0410191643074256
 50
179.3243944101257057
 51
221.9901990291733966
  0
LINE
  5
11D48
  8
0
 10
4122.3148939198463268
 20
122.1571399531884055
 30
0.0
 11
4122.3744380635462221
 21
122.0598183954885059
 31
0.0
  0
ARC
  5
11D49
  8
0
 10
4122.3992582828486775
 20
122.0753854585997971
 30
0.0
 40
0.029298067174456
 50
212.0956411898226861
 51
247.4233394355603934
  0
LINE
  5
11D4A
  8
0
 10
4123.7197709389456577
 20
121.2018715994883991
 30
0.0
 11
4123.7197709389456577
 21
120.4459987217884986
 31
0.0
  0
LINE
  5
11D4B
  8
0
 10
4123.7197709389456577
 20
120.4459987217884986
 30
0.0
 11
4123.700085788746037
 21
120.4263135679884016
 31
0.0
  0
LINE
  5
11D4C
  8
0
 10
4123.700085788746037
 20
120.4263135679884016
 30
0.0
 11
4122.4599285301474083
 21
120.4263135679884016
 31
0.0
  0
LINE
  5
11D4D
  8
0
 10
4122.4599285301474083
 20
120.4263135679884016
 30
0.0
 11
4122.4402433799459686
 21
120.4459987217884986
 31
0.0
  0
LINE
  5
11D4E
  8
0
 10
4122.4402433799459686
 20
120.4459987217884986
 30
0.0
 11
4122.4402433799459686
 21
121.2018715994884985
 31
0.0
  0
LINE
  5
11D4F
  8
0
 10
4123.7197709389456577
 20
120.4459987217884986
 30
0.0
 11
4123.7087731204474039
 21
120.4459987217884986
 31
0.0
  0
LINE
  5
11D50
  8
0
 10
4123.6066160471473268
 20
120.4460006253383995
 30
0.0
 11
4122.4402433799459686
 21
120.4459987217884986
 31
0.0
  0
LINE
  5
11D51
  8
0
 10
4123.7087731204474039
 20
120.8396989631362999
 30
0.0
 11
4123.6066160471473268
 21
120.8397012983383974
 31
0.0
  0
LINE
  5
11D52
  8
0
 10
4123.6066160471473268
 20
120.8397012983383974
 30
0.0
 11
4123.6066160471473268
 21
120.4460006253383995
 31
0.0
  0
LINE
  5
11D53
  8
0
 10
4123.5012670019450525
 20
120.4263135679884016
 30
0.0
 11
4123.5012670019450525
 21
120.3593844341883994
 31
0.0
  0
LINE
  5
11D54
  8
0
 10
4122.6587473169456644
 20
120.4263135679884016
 30
0.0
 11
4122.6587473169456644
 21
120.3593844341883994
 31
0.0
  0
ARC
  5
11D55
  8
0
 10
4123.985066753596584
 20
120.1762612617140036
 30
0.0
 40
0.7637899537663991
 50
115.9896302380550992
 51
119.7021031490480993
  0
ARC
  5
11D56
  8
0
 10
4123.7768237090476759
 20
120.6034189736401032
 30
0.0
 40
0.2885753954238149
 50
108.5374028663440953
 51
115.9896302380550992
  0
ARC
  5
11D57
  8
0
 10
4123.7084157405006408
 20
120.8074261608507953
 30
0.0
 40
0.0734043411568829
 50
89.5903021707748621
 51
108.5374028663440953
  0
ARC
  5
11D58
  8
0
 10
4123.708860451610235
 20
120.8696174478448029
 30
0.0
 40
0.0112114641858377
 50
33.8415256084445986
 51
89.5903021707748621
  0
ARC
  5
11D59
  8
0
 10
4123.698105966550429
 20
120.8681601362672069
 30
0.0
 40
0.0214934795547261
 50
351.601370644688302
 51
20.9953639710315585
  0
ARC
  5
11D5A
  8
0
 10
4123.6338351125541521
 20
120.885935073923207
 30
0.0
 40
0.0880536373818828
 50
328.3260076218533072
 51
346.2599448252340153
  0
LINE
  5
11D5B
  8
0
 10
4123.7087731204474039
 20
120.8396989631362999
 30
0.0
 11
4123.7087731204474039
 21
120.4459978188885003
 31
0.0
  0
LINE
  5
11D5C
  8
0
 10
4123.6066160471473268
 20
120.4459987217884986
 30
0.0
 11
4123.618447831046069
 21
120.4263135679884016
 31
0.0
  0
LINE
  5
11D5D
  8
0
 10
4123.7087731204474039
 20
120.4459987217884986
 30
0.0
 11
4123.6969443858461091
 21
120.4263135679884016
 31
0.0
  0
LINE
  5
11D5E
  8
0
 10
4120.6191331437466943
 20
120.3593844341883994
 30
0.0
 11
4123.6806370808471911
 21
120.3593844340884971
 31
0.0
  0
ARC
  5
11D5F
  8
0
 10
4123.6806370808462816
 20
120.3200143553884942
 30
0.0
 40
0.0393700787000029
 50
0.0
 51
89.9999999981240251
  0
LINE
  5
11D60
  8
0
 10
4123.720007159546185
 20
120.3200143553884942
 30
0.0
 11
4123.720007159546185
 21
119.8702140480884992
 31
0.0
  0
ARC
  5
11D61
  8
0
 10
4123.9200071671457408
 20
119.8702140480884992
 30
0.0
 40
0.2000000075999964
 50
180.0
 51
269.9999986821849234
  0
LINE
  5
11D62
  8
0
 10
4123.9200071625473356
 20
119.6702140404884034
 30
0.0
 11
4124.3396070808457807
 21
119.6702140308376983
 31
0.0
  0
ARC
  5
11D63
  8
0
 10
4124.339607079939924
 20
119.6308439512321939
 30
0.0
 40
0.0393700796055114
 50
0.0000152171822002
 51
89.9999986821849518
  0
LINE
  5
11D64
  8
0
 10
4124.3789771595465936
 20
119.6308439616884982
 30
0.0
 11
4124.3789772445015842
 21
119.310970652028999
 31
0.0
  0
ARC
  5
11D65
  8
0
 10
4837.1320293169155775
 20
15793.5724900903405796
 30
0.0
 40
15690.4585753550200025
 50
267.3953615002699848
 51
267.4015835629239177
  0
ARC
  5
11D66
  8
0
 10
1940.146726570535975
 20
-48041.9309508140577236
 30
0.0
 40
48210.7466041879306431
 50
87.398491335955228
 51
87.4015835629239035
  0
ARC
  5
11D67
  8
0
 10
4128.3854338694263788
 20
118.8433113543857047
 30
0.0
 40
0.2854347314772232
 50
267.5930655265585756
 51
87.398491335955228
  0
ARC
  5
11D68
  8
0
 10
4141.4898633400262042
 20
430.6036783082629995
 30
0.0
 40
312.3210937112900751
 50
267.2069344724584994
 51
267.5930655265585756
  0
ARC
  5
11D69
  8
0
 10
4118.1897011854407538
 20
-46.9874416168069686
 30
0.0
 40
165.8380590691544114
 50
87.2069344724584852
 51
87.5930655265585472
  0
LINE
  5
11D6A
  8
0
 10
4125.5356228288455895
 20
117.8792110926860062
 30
0.0
 11
4125.5356228288455895
 21
118.6878410026390043
 31
0.0
  0
LINE
  5
11D6B
  8
0
 10
4125.2837684135502059
 20
117.7473619445885049
 30
0.0
 11
4125.4014211538951713
 21
117.7473668763883978
 31
0.0
  0
ARC
  5
11D6C
  8
0
 10
4125.4014195826457581
 20
117.7848505367849015
 30
0.0
 40
0.0374836604293433
 50
270.0024017402541858
 51
318.201609470039898
  0
LINE
  5
11D6D
  8
0
 10
4125.4293634536807076
 20
117.7598672449537958
 30
0.0
 11
4125.5245523889461765
 21
117.8576725705885053
 31
0.0
  0
ARC
  5
11D6E
  8
0
 10
4125.4908425858893679
 20
117.8886131166776039
 30
0.0
 40
0.0457566193513089
 50
317.4527292700084899
 51
348.1424598229438061
  0
LINE
  5
11D6F
  8
0
 10
4125.2528824033097408
 20
118.4364063217581986
 30
0.0
 11
4125.4298839650091395
 21
118.4364063217581986
 31
0.0
  0
LINE
  5
11D70
  8
0
 10
4125.4298839650091395
 20
118.4364063217581986
 30
0.0
 11
4125.5356228288455895
 21
118.4772843942884037
 31
0.0
  0
ARC
  5
11D71
  8
0
 10
4124.3789771595547791
 20
119.5365526231794036
 30
0.0
 40
0.0787401574090438
 50
42.0773619932205918
 51
90.0000000064095502
  0
ARC
  5
11D72
  8
0
 10
4124.5250875276360603
 20
119.6684686473230954
 30
0.0
 40
0.1181102352407696
 50
222.0773619932203076
 51
266.2868005563166776
  0
ARC
  5
11D73
  8
0
 10
4124.4651697408462496
 20
118.7452140404884062
 30
0.0
 40
0.8070866142000179
 50
64.095078354101048
 51
86.2868003222151998
  0
ARC
  5
11D74
  8
0
 10
4127.8124592958556605
 20
117.6581477352429062
 30
0.0
 40
3.674220145731248
 50
149.1657402416410036
 51
149.3618966917931061
  0
ARC
  5
11D75
  8
0
 10
4124.7191493851696578
 20
119.504644593593099
 30
0.0
 40
0.0717047953174777
 50
136.4039191461043004
 51
149.1700347515482861
  0
ARC
  5
11D76
  8
0
 10
4125.7578951230389066
 20
118.3677094792063968
 30
0.0
 40
1.6115434904626911
 50
126.9116594910439062
 51
132.5932699028344075
  0
ARC
  5
11D77
  8
0
 10
4124.8323157358254321
 20
119.6027676968642055
 30
0.0
 40
0.0681712200145774
 50
98.7141802778551352
 51
128.3375546200499002
  0
LINE
  5
11D78
  8
0
 10
4124.8226074320264161
 20
119.6702140404884034
 30
0.0
 11
4125.4017976647801333
 21
119.6702140404884034
 31
0.0
  0
ARC
  5
11D79
  8
0
 10
4124.8229658796790318
 20
119.6635052408683038
 30
0.0
 40
0.0067183686310985
 50
93.0583754666481155
 51
98.3742792095932828
  0
ARC
  5
11D7A
  8
0
 10
4125.4013067445830529
 20
119.6308339758316066
 30
0.0
 40
0.0393831244954374
 50
45.0015659126134508
 51
89.9876868027472483
  0
LINE
  5
11D7B
  8
0
 10
4125.4291540578697095
 20
119.6586828113131986
 30
0.0
 11
4125.5240941943102371
 21
119.5637478642230036
 31
0.0
  0
ARC
  5
11D7C
  8
0
 10
4125.496264202398379
 20
119.5359163510645004
 30
0.0
 40
0.0393586277004542
 50
359.9855428272704216
 51
45.0015659126134508
  0
LINE
  5
11D7D
  8
0
 10
4125.5356228288455895
 20
119.5359064198884056
 30
0.0
 11
4125.5355528185164076
 21
119.2584457831045057
 31
0.0
  0
LINE
  5
11D7E
  8
0
 10
4124.8179535374465559
 20
119.291036855213207
 30
0.0
 11
4124.8179535374465559
 21
119.5968542163752062
 31
0.0
  0
LINE
  5
11D7F
  8
0
 10
4125.4013152082461602
 20
119.6702170994175987
 30
0.0
 11
4125.4013152082461602
 21
119.2645405977574029
 31
0.0
  0
LINE
  5
11D80
  8
0
 10
4125.4013152082461602
 20
118.6937415604338071
 30
0.0
 11
4125.4013152082461602
 21
117.7473668719474063
 31
0.0
  0
ARC
  5
11D81
  8
0
 10
4125.4383756532988627
 20
118.8972359362384026
 30
0.0
 40
0.9812715463090858
 50
136.2241327766209054
 51
140.4107781909968935
  0
ARC
  5
11D82
  8
0
 10
4123.203647431078025
 20
121.0384571259738067
 30
0.0
 40
2.1136983098550322
 50
316.2241327766209906
 51
317.8337042179878154
  0
ARC
  5
11D83
  8
0
 10
4124.8701036663878767
 20
119.5291922064454013
 30
0.0
 40
0.1346248389659086
 50
128.7543882132299871
 51
137.8337042179877869
  0
ARC
  5
11D84
  8
0
 10
4124.8340704958500282
 20
119.5740815630289973
 30
0.0
 40
0.0770623189243427
 50
119.6266391139042042
 51
128.7543882132299871
  0
ARC
  5
11D85
  8
0
 10
4124.8011515750049512
 20
119.6319666623346052
 30
0.0
 40
0.0104714781787583
 50
1.0447087725553761
 51
119.6266391139636056
  0
ARC
  5
11D86
  8
0
 10
4124.6623528808986521
 20
119.5871643218585945
 30
0.0
 40
0.1559020794395466
 50
3.563442786031469
 51
16.7741289068790991
  0
ARC
  5
11D87
  8
0
 10
4125.1552306030043837
 20
119.3020699725082068
 30
0.0
 40
0.305199606383265
 50
91.2332291464129241
 51
105.4221990226499059
  0
ARC
  5
11D88
  8
0
 10
4125.1858787741730339
 20
119.1909706372116062
 30
0.0
 40
0.4204487829502688
 50
105.4221990226499059
 51
111.1070891661285032
  0
ARC
  5
11D89
  8
0
 10
4125.0483966822230286
 20
119.5471325918035035
 30
0.0
 40
0.0386731112456013
 50
111.1070891661285032
 51
165.1167474710483987
  0
ARC
  5
11D8A
  8
0
 10
4125.1029232920409413
 20
119.551687605142007
 30
0.0
 40
0.092059517674208
 50
176.6508298356527007
 51
189.7998493924773129
  0
ARC
  5
11D8B
  8
0
 10
4125.1244114416713273
 20
119.5594428893955978
 30
0.0
 40
0.1146234040922026
 50
191.7920424174843106
 51
235.9344583544221052
  0
ARC
  5
11D8C
  8
0
 10
4125.1480039551279333
 20
119.5895451641125931
 30
0.0
 40
0.1527987282388059
 50
234.9285495384762896
 51
270.2469018903439064
  0
ARC
  5
11D8D
  8
0
 10
4125.1495985250612648
 20
119.5881933169605986
 30
0.0
 40
0.1514483555654473
 50
269.6458443499764144
 51
309.3420334170477872
  0
ARC
  5
11D8E
  8
0
 10
4125.1722814504601047
 20
119.5608666331851992
 30
0.0
 40
0.115934974066356
 50
309.2339467765344239
 51
340.8929852320608234
  0
ARC
  5
11D8F
  8
0
 10
4125.1963288751503569
 20
119.5513859200892028
 30
0.0
 40
0.0901155486278842
 50
341.5840439830922719
 51
2.1582055440920338
  0
ARC
  5
11D90
  8
0
 10
4125.1452545420434035
 20
119.3462382231875978
 30
0.0
 40
0.2609829123722411
 50
74.8248520684798564
 51
89.2518281583939057
  0
ARC
  5
11D91
  8
0
 10
4125.1961879953660173
 20
119.4568085397937978
 30
0.0
 40
0.1423774399169481
 50
56.5040159733873679
 51
82.9867218105107725
  0
ARC
  5
11D92
  8
0
 10
4125.258978307399957
 20
119.5530908400644989
 30
0.0
 40
0.0274435547088449
 50
2.0253310041230761
 51
54.8883810799067717
  0
ARC
  5
11D93
  8
0
 10
4125.1366961727080707
 20
119.3297642030590993
 30
0.0
 40
0.2102405701795004
 50
51.5833141590689479
 51
122.8126494040954952
  0
ARC
  5
11D94
  8
0
 10
4125.1337082898053268
 20
119.3157173434932048
 30
0.0
 40
0.2153671944607833
 50
53.2410293511440429
 51
120.2158600494883984
  0
LINE
  5
11D95
  8
0
 10
4124.8179535374465559
 20
119.5519329387982026
 30
0.0
 11
4125.010864101266634
 21
119.5519329387982026
 31
0.0
  0
LINE
  5
11D96
  8
0
 10
4125.2864427635086031
 20
119.5519329387982026
 30
0.0
 11
4125.4013152082461602
 21
119.5519329387982026
 31
0.0
  0
ARC
  5
11D97
  8
0
 10
4125.3949931927409125
 20
119.4903136031499002
 30
0.0
 40
0.0619427994667635
 50
56.3611524119058984
 51
84.1420691461185868
  0
LINE
  5
11D98
  8
0
 10
4125.4293067879407317
 20
119.5418838231441043
 30
0.0
 11
4125.5244469871413457
 21
119.4604010549273028
 31
0.0
  0
ARC
  5
11D99
  8
0
 10
4125.5108995019063514
 20
119.4396264818078066
 30
0.0
 40
0.0248015572996588
 50
5.1970433137913004
 51
56.8908821692426727
  0
LINE
  5
11D9A
  8
0
 10
4125.1943849734461764
 20
117.4215165439897959
 30
0.0
 11
4125.194920180745612
 21
116.9403163385539983
 31
0.0
  0
ARC
  5
11D9B
  8
0
 10
4124.9114435780020358
 20
117.0039409362301939
 30
0.0
 40
0.2905289550677374
 50
325.2394913999410164
 51
347.3499463481998077
  0
ARC
  5
11D9C
  8
0
 10
4124.8036198932950356
 20
117.0713682568047034
 30
0.0
 40
0.417598474274386
 50
308.1140572501121824
 51
326.0738522212407133
  0
ARC
  5
11D9D
  8
0
 10
4124.8334855779758072
 20
117.2149078971521021
 30
0.0
 40
0.524223946570748
 50
292.2102255250474059
 51
295.7671797819015751
  0
ARC
  5
11D9E
  8
0
 10
4124.9995735381507984
 20
116.9526967584238974
 30
0.0
 40
0.2254103257843514
 50
262.0005551138538067
 51
278.1799213302232943
  0
ARC
  5
11D9F
  8
0
 10
4125.1481545781252862
 20
117.1751159242033964
 30
0.0
 40
0.4805970528320688
 50
244.5197747284140064
 51
248.0109152318310919
  0
ARC
  5
11DA0
  8
0
 10
4125.1631221616607945
 20
117.0429743980382966
 30
0.0
 40
0.3744176695195067
 50
197.5870935779080924
 51
233.6886011802797896
  0
LINE
  5
11DA1
  8
0
 10
4124.8046065091466517
 20
117.1664517678992041
 30
0.0
 11
4124.8046065091466517
 21
116.9403147468885038
 31
0.0
  0
ARC
  5
11DA2
  8
0
 10
4124.8397065146582463
 20
116.9403147468885038
 30
0.0
 40
0.0351000055120299
 50
180.0
 51
197.3593754328819898
  0
ENDSEC
  0
EOF
