  0
SECTION
  2
HEADER
  9
$ACADVER
  1
AC1009
  9
$INSBASE
 10
4131.922969550473681
 20
180.8203406524283992
 30
0.0
  9
$EXTMIN
 10
4126.6197430508182151
 20
156.7305683089267063
 30
-0.0000000000000058
  9
$EXTMAX
 10
4140.5198246044774351
 20
180.8321386228763004
 30
0.0000000000000104
  9
$LIMMIN
 10
0.0
 20
0.0
  9
$LIMMAX
 10
11.6929133858000007
 20
8.2677165353999982
  9
$ORTHOMODE
 70
     0
  9
$REGENMODE
 70
     1
  9
$FILLMODE
 70
     1
  9
$QTEXTMODE
 70
     0
  9
$MIRRTEXT
 70
     0
  9
$DRAGMODE
 70
     2
  9
$LTSCALE
 40
0.6431102362
  9
$OSMODE
 70
  4095
  9
$ATTMODE
 70
     1
  9
$TEXTSIZE
 40
0.2
  9
$TRACEWID
 40
0.05
  9
$TEXTSTYLE
  7
STANDARD
  9
$CLAYER
  8
0
  9
$CELTYPE
  6
BYLAYER
  9
$CECOLOR
 62
   256
  9
$DIMSCALE
 40
1.0
  9
$DIMASZ
 40
0.1875
  9
$DIMEXO
 40
0.0625
  9
$DIMDLI
 40
0.4443307087
  9
$DIMRND
 40
0.0
  9
$DIMDLE
 40
0.0
  9
$DIMEXE
 40
0.125
  9
$DIMTP
 40
0.01
  9
$DIMTM
 40
0.01
  9
$DIMTXT
 40
2.0
  9
$DIMCEN
 40
0.1052362205
  9
$DIMTSZ
 40
0.0
  9
$DIMTOL
 70
     1
  9
$DIMLIM
 70
     0
  9
$DIMTIH
 70
     1
  9
$DIMTOH
 70
     1
  9
$DIMSE1
 70
     0
  9
$DIMSE2
 70
     0
  9
$DIMTAD
 70
     0
  9
$DIMZIN
 70
     0
  9
$DIMBLK
  1

  9
$DIMASO
 70
     1
  9
$DIMSHO
 70
     1
  9
$DIMPOST
  1
\X
  9
$DIMAPOST
  1

  9
$DIMALT
 70
     1
  9
$DIMALTD
 70
     2
  9
$DIMALTF
 40
25.3999999999999986
  9
$DIMLFAC
 40
1.0
  9
$DIMTOFL
 70
     0
  9
$DIMTVP
 40
0.0
  9
$DIMTIX
 70
     0
  9
$DIMSOXD
 70
     0
  9
$DIMSAH
 70
     0
  9
$DIMBLK1
  1

  9
$DIMBLK2
  1

  9
$DIMSTYLE
  2
STANDARD
  9
$DIMCLRD
 70
     0
  9
$DIMCLRE
 70
     0
  9
$DIMCLRT
 70
     0
  9
$DIMTFAC
 40
1.0
  9
$DIMGAP
 40
0.09
  9
$LUNITS
 70
     2
  9
$LUPREC
 70
     4
  9
$SKETCHINC
 40
0.1
  9
$FILLETRAD
 40
0.0
  9
$AUNITS
 70
     0
  9
$AUPREC
 70
     0
  9
$MENU
  1
.
  9
$ELEVATION
 40
0.0
  9
$PELEVATION
 40
0.0
  9
$THICKNESS
 40
0.0
  9
$LIMCHECK
 70
     0
  9
$BLIPMODE
 70
     0
  9
$CHAMFERA
 40
0.0
  9
$CHAMFERB
 40
0.0
  9
$SKPOLY
 70
     0
  9
$TDCREATE
 40
2458060.468368056230247
  9
$TDUPDATE
 40
2460180.9578935191966593
  9
$TDINDWG
 40
0.3267547454
  9
$TDUSRTIMER
 40
0.3267547454
  9
$USRTIMER
 70
     1
  9
$ANGBASE
 50
0.0
  9
$ANGDIR
 70
     0
  9
$PDMODE
 70
     0
  9
$PDSIZE
 40
0.3125
  9
$PLINEWID
 40
0.0
  9
$COORDS
 70
     1
  9
$SPLFRAME
 70
     0
  9
$SPLINETYPE
 70
     6
  9
$SPLINESEGS
 70
     8
  9
$ATTDIA
 70
     1
  9
$ATTREQ
 70
     1
  9
$HANDLING
 70
     1
  9
$HANDSEED
  5
EA38
  9
$SURFTAB1
 70
     6
  9
$SURFTAB2
 70
     6
  9
$SURFTYPE
 70
     6
  9
$SURFU
 70
     6
  9
$SURFV
 70
     6
  9
$UCSNAME
  2

  9
$UCSORG
 10
0.0
 20
0.0
 30
0.0
  9
$UCSXDIR
 10
1.0
 20
0.0
 30
0.0
  9
$UCSYDIR
 10
0.0
 20
1.0
 30
0.0
  9
$PUCSNAME
  2

  9
$PUCSORG
 10
0.0
 20
0.0
 30
0.0
  9
$PUCSXDIR
 10
1.0
 20
0.0
 30
0.0
  9
$PUCSYDIR
 10
0.0
 20
1.0
 30
0.0
  9
$USERI1
 70
     0
  9
$USERI2
 70
     0
  9
$USERI3
 70
     0
  9
$USERI4
 70
     0
  9
$USERI5
 70
     0
  9
$USERR1
 40
0.0
  9
$USERR2
 40
0.0
  9
$USERR3
 40
0.0
  9
$USERR4
 40
0.0
  9
$USERR5
 40
0.0
  9
$WORLDVIEW
 70
     1
  9
$SHADEDGE
 70
     3
  9
$SHADEDIF
 70
    70
  9
$TILEMODE
 70
     1
  9
$MAXACTVP
 70
    64
  9
$PLIMCHECK
 70
     0
  9
$PEXTMIN
 10
1.0000000000000000E+20
 20
1.0000000000000000E+20
 30
1.0000000000000000E+20
  9
$PEXTMAX
 10
-1.0000000000000000E+20
 20
-1.0000000000000000E+20
 30
-1.0000000000000000E+20
  9
$PLIMMIN
 10
0.0
 20
0.0
  9
$PLIMMAX
 10
12.0
 20
9.0
  9
$UNITMODE
 70
     0
  9
$VISRETAIN
 70
     1
  9
$PLINEGEN
 70
     0
  9
$PSLTSCALE
 70
     1
  0
ENDSEC
  0
SECTION
  2
TABLES
  0
TABLE
  2
VPORT
 70
     1
  0
VPORT
  2
*ACTIVE
 70
     0
 10
0.0
 20
0.0
 11
1.0
 21
1.0
 12
-131.4365638286026012
 22
64.4773411673175474
 13
0.0
 23
0.0
 14
1.0
 24
1.0
 15
0.0
 25
0.0
 16
0.0
 26
0.0
 36
122.0237731519760018
 17
4265.00634765625
 27
104.3040122985839986
 37
0.0
 40
24.2925999333467715
 41
2.5251322751322749
 42
50.0
 43
0.0
 44
0.0
 50
0.0
 51
0.0
 71
     0
 72
   100
 73
     1
 74
     1
 75
     0
 76
     0
 77
     0
 78
     0
  0
ENDTAB
  0
TABLE
  2
LTYPE
 70
     2
  0
LTYPE
  2
CONTINUOUS
 70
     0
  3
Solid line
 72
    65
 73
     0
 40
0.0
  0
LTYPE
  2
PHANTOM2
 70
     0
  3
___ _ _ ___ _ _ ___ _ _ ___ _ _
 72
    65
 73
     6
 40
1.25
 49
0.625
 49
-0.125
 49
0.125
 49
-0.125
 49
0.125
 49
-0.125
  0
ENDTAB
  0
TABLE
  2
LAYER
 70
     2
  0
LAYER
  2
0
 70
     0
 62
   255
  6
CONTINUOUS
  0
LAYER
  2
DEFPOINTS
 70
     0
 62
     7
  6
CONTINUOUS
  0
ENDTAB
  0
TABLE
  2
STYLE
 70
     1
  0
STYLE
  2
STANDARD
 70
     0
 40
0.0
 41
0.8
 50
0.0
 71
     0
 42
0.2
  3
txt
  4

  0
ENDTAB
  0
TABLE
  2
VIEW
 70
     0
  0
ENDTAB
  0
TABLE
  2
UCS
 70
     0
  0
ENDTAB
  0
TABLE
  2
APPID
 70
     9
  0
APPID
  2
ACAD
 70
     0
  0
APPID
  2
ACAD_MLEADERVER
 70
     0
  0
APPID
  2
ACAD_EXEMPT_FROM_CAD_STANDARDS
 70
     0
  0
APPID
  2
ACAD_NAV_VCDISPLAY
 70
     0
  0
APPID
  2
ACAECLAYERSTANDARD
 70
     0
  0
APPID
  2
ACCMTRANSPARENCY
 70
     0
  0
APPID
  2
ACAD_DSTYLE_DIMJAG
 70
     0
  0
APPID
  2
ACAD_DSTYLE_DIMTALN
 70
     0
  0
APPID
  2
ACDBATTR
 70
     0
  0
ENDTAB
  0
TABLE
  2
DIMSTYLE
 70
     1
  0
DIMSTYLE
  2
STANDARD
 70
     0
  3

  4

  5

  6

  7

 40
1.0
 41
0.1875
 42
0.0625
 43
0.38
 44
0.125
 45
0.0
 46
0.0
 47
0.01
 48
0.01
140
0.15625
141
0.09
142
0.0
143
25.3999999999999986
144
1.0
145
0.0
146
1.0
147
0.09
 71
     1
 72
     0
 73
     1
 74
     1
 75
     0
 76
     0
 77
     0
 78
     4
170
     0
171
     2
172
     0
173
     0
174
     0
175
     0
176
     0
177
     0
178
     0
  0
ENDTAB
  0
ENDSEC
  0
SECTION
  2
BLOCKS
  0
BLOCK
  8
0
  2
$MODEL_SPACE
 70
     0
 10
0.0
 20
0.0
 30
0.0
  3
$MODEL_SPACE
  1

  0
ENDBLK
  5
21
  8
0
  0
BLOCK
 67
     1
  8
0
  2
$PAPER_SPACE
 70
     0
 10
0.0
 20
0.0
 30
0.0
  3
$PAPER_SPACE
  1

  0
ENDBLK
  5
1D
 67
     1
  8
0
  0
BLOCK
  8
0
  2
_FILLED
 70
     0
 10
0.0
 20
0.0
 30
0.0
  3
_FILLED
  1

  0
SOLID
  5
E558
  8
0
  6
BYBLOCK
 62
     0
 10
0.0
 20
0.0
 30
0.0
 11
-1.0
 21
0.1666666667
 31
0.0
 12
-1.0
 22
-0.1666666667
 32
0.0
 13
-1.0
 23
-0.1666666667
 33
0.0
  0
ENDBLK
  5
E559
  8
0
  6
BYBLOCK
 62
     0
  0
ENDSEC
  0
SECTION
  2
ENTITIES
  0
ATTDEF
  5
DD1B
  8
DEFPOINTS
 10
4131.9237121092637608
 20
180.8250816482494088
 30
0.0
 40
0.001
  1
K-EX27032T-4
  3

  2
MODELNUMBER
 70
     0
1001
ACDBATTR
1070
     0
1070
     1
  0
ATTDEF
  5
DD1C
  8
DEFPOINTS
 10
4131.9237121092637608
 20
180.8234149815828005
 30
0.0
 40
0.001
  1
OCCASIONS
  3

  2
TRADENAME
 70
     0
1001
ACDBATTR
1070
     0
1070
     1
  0
ATTDEF
  5
DD1D
  8
DEFPOINTS
 10
4131.9237121092637608
 20
180.8217483149161069
 30
0.0
 40
0.001
  1
SHOWER COLUMN
  3

  2
PRODUCT
 70
     0
1001
ACDBATTR
1070
     0
1070
     1
  0
LINE
  5
E704
  8
0
 10
4127.6116165834910134
 20
180.820386085528412
 30
0.0
 11
4130.328810862991304
 21
180.820386085528412
 31
0.0
  0
LINE
  5
E705
  8
0
 10
4130.328810862991304
 20
180.820386085528412
 30
0.0
 11
4130.3288103846907688
 21
180.5611287954284023
 31
0.0
  0
ARC
  5
E706
  8
0
 10
4130.2893922355333416
 20
180.561128868150405
 30
0.0
 40
0.0394181491573149
 50
314.6000324237800783
 51
359.9998942958503108
  0
LINE
  5
E707
  8
0
 10
4130.3170698251897193
 20
180.5330621349284002
 30
0.0
 11
4130.2206409824357252
 21
180.4355862563674009
 31
0.0
  0
ARC
  5
E708
  8
0
 10
4130.1930565873826708
 20
180.463558484679794
 30
0.0
 40
0.0392854223241483
 50
270.0348633578053068
 51
314.6000324237800783
  0
LINE
  5
E709
  8
0
 10
4130.1930804917910791
 20
180.4242730696284127
 30
0.0
 11
4127.7473601028896155
 21
180.4242730696284127
 31
0.0
  0
ARC
  5
E70A
  8
0
 10
4127.7473593201330004
 20
180.4636272563373893
 30
0.0
 40
0.0393541867167825
 50
225.4034448769847927
 51
270.0011396178865084
  0
LINE
  5
E70B
  8
0
 10
4127.7197283425912246
 20
180.4356043890284127
 30
0.0
 11
4127.6233258051152006
 21
180.5330427874301051
 31
0.0
  0
ARC
  5
E70C
  8
0
 10
4127.6509247288331608
 20
180.5610327654393075
 30
0.0
 40
0.0393082619733252
 50
179.8604265225241079
 51
225.4030551088723939
  0
LINE
  5
E70D
  8
0
 10
4127.6116165834910134
 20
180.5611285209284063
 30
0.0
 11
4127.6116165834910134
 21
180.820386085528412
 31
0.0
  0
ARC
  5
E70E
  8
0
 10
4128.0133315643797687
 20
180.2272427293594035
 30
0.0
 40
0.1970303408914982
 50
1.0086702092154649
 51
89.9954453057624164
  0
LINE
  5
E70F
  8
0
 10
4128.2103313739908117
 20
180.2307111937284105
 30
0.0
 11
4128.2214860314752514
 21
179.5971554852008865
 31
0.0
  0
ARC
  5
E710
  8
0
 10
4128.2411733571016157
 20
179.5975021088223968
 30
0.0
 40
0.0196903767929484
 50
181.0086702092154098
 51
269.6644851584812841
  0
LINE
  5
E711
  8
0
 10
4128.2410580540908995
 20
179.5778120696284077
 30
0.0
 11
4129.6986970424159153
 21
179.5778120696284077
 31
0.0
  0
ARC
  5
E712
  8
0
 10
4129.6993340867320512
 20
179.597522366468894
 30
0.0
 40
0.0197205889110937
 50
268.1488229455231931
 51
358.9284084591434976
  0
LINE
  5
E713
  8
0
 10
4129.7190512266643054
 20
179.5971535577284044
 30
0.0
 11
4129.7309016428971518
 21
180.2306968810532055
 31
0.0
  0
ARC
  5
E714
  8
0
 10
4129.9281686345693743
 20
180.2270070055951976
 30
0.0
 40
0.1973014981803828
 50
91.085900243580241
 51
178.9284084591434123
  0
LINE
  5
E715
  8
0
 10
4127.6232418107865669
 20
180.5331258564283985
 30
0.0
 11
4130.3171456465879601
 21
180.5331258564283985
 31
0.0
  0
LINE
  5
E716
  8
0
 10
4131.5292687377914262
 20
177.4728149165325135
 30
0.0
 11
4131.5292687377914262
 21
161.734966823132595
 31
0.0
  0
LINE
  5
E717
  8
0
 10
4132.3166720400413396
 20
161.734966823132595
 30
0.0
 11
4132.3166720400413396
 21
177.4728149165325135
 31
0.0
  0
ARC
  5
E718
  8
0
 10
4131.9229703889159282
 20
177.4728140528075073
 30
0.0
 40
0.3937016511259663
 50
0.0001256987290462
 51
179.9998743012708928
  0
ARC
  5
E719
  8
0
 10
4131.920784354791067
 20
177.4729987311553998
 30
0.0
 40
0.6484308007706689
 50
307.6282350081189065
 51
232.858224760190808
  0
ARC
  5
E71A
  8
0
 10
4131.3324183440599882
 20
177.2536115952325133
 30
0.0
 40
0.0196850393695733
 50
179.9999999999772058
 51
200.3663101181431898
  0
ARC
  5
E71B
  8
0
 10
4131.9229695251906378
 20
177.4728149165325135
 30
0.0
 40
0.433070866100003
 50
335.3805712840044748
 51
204.6199773171130118
  0
LINE
  5
E71C
  8
0
 10
4130.5619930890570686
 20
180.8203406524283992
 30
0.0
 11
4133.2839460118912029
 21
180.8203406524283992
 31
0.0
  0
LINE
  5
E71D
  8
0
 10
4133.2839460118912029
 20
180.8203406524283992
 30
0.0
 11
4133.2793287230897477
 21
180.555841923128412
 31
0.0
  0
ARC
  5
E71E
  8
0
 10
4133.2398605478301761
 20
180.5565309092876021
 30
0.0
 40
0.0394741885334629
 50
314.573513147104677
 51
358.999903350393879
  0
LINE
  5
E71F
  8
0
 10
4133.2675644736409595
 20
180.528411448854996
 30
0.0
 11
4133.1749526340381635
 21
180.4347841624895921
 31
0.0
  0
ARC
  5
E720
  8
0
 10
4133.1480709555053181
 20
180.4637274553998054
 30
0.0
 40
0.0395011246076657
 50
270.2254273606341144
 51
312.8850298610665277
  0
LINE
  5
E721
  8
0
 10
4133.1482263702901037
 20
180.4242266365284024
 30
0.0
 11
4130.6977126383899304
 21
180.4242266365284024
 31
0.0
  0
ARC
  5
E722
  8
0
 10
4130.6977015596521596
 20
180.4635246443789072
 30
0.0
 40
0.0392980090567869
 50
225.5482630223318949
 51
269.9858036882973238
  0
LINE
  5
E723
  8
0
 10
4130.6701808412672108
 20
180.4354721297787876
 30
0.0
 11
4130.5783614095080338
 21
180.5284114512294025
 31
0.0
  0
ARC
  5
E724
  8
0
 10
4130.6052928514009182
 20
180.5559743975273932
 30
0.0
 40
0.0385359386946226
 50
179.9925950473968896
 51
225.6639384126733034
  0
LINE
  5
E725
  8
0
 10
4130.5667569130291668
 20
180.5559793779430038
 30
0.0
 11
4130.5619930890570686
 21
180.8203406524283992
 31
0.0
  0
ARC
  5
E726
  8
0
 10
4132.2956752247582699
 20
178.0713820586319969
 30
0.0
 40
0.0577936473837235
 50
182.3499550368032089
 51
234.6348609202551927
  0
ARC
  5
E727
  8
0
 10
4131.9229695251906378
 20
177.4728149165325135
 30
0.0
 40
0.668598134099973
 50
118.1297183993047071
 51
233.9248987002823128
  0
ARC
  5
E728
  8
0
 10
4133.291001189841154
 20
181.0183435243669123
 30
0.0
 40
3.1316948984419142
 50
250.3506824013240077
 51
261.3241538056680042
  0
ARC
  5
E729
  8
0
 10
4133.289553172651722
 20
180.968047890128986
 30
0.0
 40
3.0817624910824062
 50
261.2097141397973132
 51
273.9712694221993843
  0
LINE
  5
E72A
  8
0
 10
4130.5742612104404543
 20
180.5331258564283985
 30
0.0
 11
4133.2723495931977595
 21
180.5331258564283985
 31
0.0
  0
ARC
  5
E72B
  8
0
 10
4134.8001915560316775
 20
173.2901356945820908
 30
0.0
 40
4.5430103560764303
 50
72.38573059468834
 51
83.0821891046563792
  0
ARC
  5
E72C
  8
0
 10
4135.5578258440773425
 20
175.6764394113669994
 30
0.0
 40
2.0393220481671932
 50
61.068226226285411
 51
72.38573059468834
  0
ARC
  5
E72D
  8
0
 10
4135.8541528595060299
 20
176.2125319965751089
 30
0.0
 40
1.4267822862020789
 50
53.2260898343109616
 51
61.068226226285411
  0
ARC
  5
E72E
  8
0
 10
4136.1761809895760962
 20
176.6434047845293946
 30
0.0
 40
0.8888664229336715
 50
7.6447661844141308
 51
53.2260898343109616
  0
ARC
  5
E72F
  8
0
 10
4126.2632945889208713
 20
176.0602089192340998
 30
0.0
 40
10.8166202297388505
 50
0.0851422506278518
 51
3.7181591661323541
  0
LINE
  5
E730
  8
0
 10
4137.0799028758501663
 20
176.0762825473343867
 30
0.0
 11
4137.0799028758501663
 21
175.9996259938592118
 31
0.0
  0
ARC
  5
E731
  8
0
 10
4136.7736706182477064
 20
176.0268468499075141
 30
0.0
 40
0.3074397023806791
 50
339.0908919897782994
 51
354.9203529848932135
  0
ARC
  5
E732
  8
0
 10
4136.5917636720041628
 20
176.1129422429557962
 30
0.0
 40
0.5083304923273583
 50
299.7832245062356833
 51
337.342918722174204
  0
ARC
  5
E733
  8
0
 10
4135.6569660137620303
 20
177.6141341904163085
 30
0.0
 40
2.2765107345004738
 50
283.3661346035660813
 51
301.4357295481452184
  0
ARC
  5
E734
  8
0
 10
4134.8946169618329805
 20
180.202220152825987
 30
0.0
 40
4.9727949780028444
 50
274.3472018254315117
 51
285.0186396454903957
  0
ARC
  5
E735
  8
0
 10
4134.5261055325991038
 20
183.1768333989288067
 30
0.0
 40
7.9680485386828472
 50
269.9593580733869089
 51
275.368153741270703
  0
ARC
  5
E736
  8
0
 10
4134.7644427398836342
 20
185.6209390254963125
 30
0.0
 40
10.4150104829119297
 50
262.841671826272318
 51
268.6576267090975989
  0
ARC
  5
E737
  8
0
 10
4134.0535053966877967
 20
179.9601829775224928
 30
0.0
 40
4.7097856021011788
 50
251.1040122514378936
 51
262.841671826272318
  0
ARC
  5
E738
  8
0
 10
4133.2387691974336121
 20
177.3732663596952932
 30
0.0
 40
1.9995507822612519
 50
242.5385208555246095
 51
249.1853183440341013
  0
ARC
  5
E739
  8
0
 10
4133.2892796481755795
 20
176.0356397466555052
 30
0.0
 40
1.6338771404802019
 50
113.5437700233865996
 51
116.1744334234532943
  0
ARC
  5
E73A
  8
0
 10
4133.7836149721260881
 20
174.9011172410745871
 30
0.0
 40
2.8714185451106831
 50
106.0036202391371063
 51
113.5437700233865996
  0
ARC
  5
E73B
  8
0
 10
4134.1315812984666991
 20
173.6879037696587886
 30
0.0
 40
4.1335467048042771
 50
99.4191505908791981
 51
106.0036202391371063
  0
ARC
  5
E73C
  8
0
 10
4134.781263970487089
 20
169.7716129647006937
 30
0.0
 40
8.1033604590405641
 50
98.3270720507286882
 51
99.4191505908791981
  0
ARC
  5
E73D
  8
0
 10
4133.505646566741234
 20
177.8544048759792986
 30
0.0
 40
0.0393702278330425
 50
359.9999533561756948
 51
93.884980187548507
  0
LINE
  5
E73E
  8
0
 10
4133.5450167945728026
 20
177.8544048439283927
 30
0.0
 11
4133.5450167340977714
 21
177.7801174130769084
 31
0.0
  0
LINE
  5
E73F
  8
0
 10
4133.5463553772742671
 20
177.8541072666284037
 30
0.0
 11
4133.5663553772737941
 21
177.8541072666284037
 31
0.0
  0
LINE
  5
E740
  8
0
 10
4133.5663553772737941
 20
177.8541072666284037
 30
0.0
 11
4133.5663553772737941
 21
177.783382297331201
 31
0.0
  0
LINE
  5
E741
  8
0
 10
4133.5463553772742671
 20
177.8541072666284037
 30
0.0
 11
4133.5463553772742671
 21
177.7803239406038074
 31
0.0
  0
LINE
  5
E742
  8
0
 10
4133.5842057709742221
 20
177.8572721858926116
 30
0.0
 11
4133.5842057709742221
 21
177.7860688037530963
 31
0.0
  0
LINE
  5
E743
  8
0
 10
4133.5663553772737941
 20
177.8066220941283859
 30
0.0
 11
4133.5842057709742221
 21
177.8066220941283859
 31
0.0
  0
ARC
  5
E744
  8
0
 10
4133.6235758496741255
 20
177.8572721862284141
 30
0.0
 40
0.0393700787000064
 50
90.0
 51
180.0000004887089915
  0
LINE
  5
E745
  8
0
 10
4133.6235758496741255
 20
177.8966422649284027
 30
0.0
 11
4133.6629392781660499
 21
177.8966422649284027
 31
0.0
  0
ARC
  5
E746
  8
0
 10
4133.6352579781723762
 20
177.8724694587754129
 30
0.0
 40
0.0915584502552466
 50
330.7379016692657956
 51
357.3520204933998912
  0
ARC
  5
E747
  8
0
 10
4133.6548500309572773
 20
177.8614919469281119
 30
0.0
 40
0.0691006164631457
 50
297.0192055774602977
 51
330.7379016692657956
  0
ARC
  5
E748
  8
0
 10
4133.7821710479984176
 20
177.8691387788774989
 30
0.0
 40
0.0554633248053368
 50
181.0439785557666994
 51
205.6860954365409953
  0
ARC
  5
E749
  8
0
 10
4133.8284483144088881
 20
177.8913966929692947
 30
0.0
 40
0.106815054340836
 50
205.6860954365409953
 51
226.8489270662086028
  0
ARC
  5
E74A
  8
0
 10
4133.9583899649387604
 20
178.030007504581306
 30
0.0
 40
0.2968092375091755
 50
226.8489270662086028
 51
246.2316434908065048
  0
ARC
  5
E74B
  8
0
 10
4134.2556122979231077
 20
178.7049100035764013
 30
0.0
 40
1.0342605907354661
 50
246.2316434908065048
 51
255.1200192973460048
  0
ARC
  5
E74C
  8
0
 10
4134.348138202744849
 20
179.0531375220450059
 30
0.0
 40
1.3945708010844351
 50
255.1200192973460048
 51
262.6602244159494148
  0
ARC
  5
E74D
  8
0
 10
4134.5602748175570014
 20
180.7000506503968893
 30
0.0
 40
3.055090236586933
 50
262.6602244159494148
 51
267.254817571788692
  0
ARC
  5
E74E
  8
0
 10
4134.5001220688418471
 20
179.4455398674780895
 30
0.0
 40
1.79913814449204
 50
267.254817571788692
 51
270.5424179808808276
  0
ARC
  5
E74F
  8
0
 10
4134.4867585759766371
 20
180.8570875916724958
 30
0.0
 40
3.210749125116652
 50
270.5424179808808276
 51
275.3907526542026858
  0
ARC
  5
E750
  8
0
 10
4134.6375934940479056
 20
179.2586673482514072
 30
0.0
 40
1.6052278866748839
 50
275.3907526542026858
 51
287.0832171131095834
  0
ARC
  5
E751
  8
0
 10
4134.9411281008233345
 20
178.2709833647832909
 30
0.0
 40
0.5719549756247169
 50
287.0832171131095834
 51
302.734869642831427
  0
ARC
  5
E752
  8
0
 10
4135.164295017169934
 20
177.9238300779221049
 30
0.0
 40
0.1592578989086657
 50
302.734869642831427
 51
327.0415489890805816
  0
ARC
  5
E753
  8
0
 10
4135.2473825657225461
 20
177.8699580152286899
 30
0.0
 40
0.0602339630978468
 50
327.0415489890805816
 51
358.1841198118916054
  0
LINE
  5
E754
  8
0
 10
4135.3075862802961637
 20
177.8680493344965043
 30
0.0
 11
4135.3053440994954144
 21
177.9905945037965012
 31
0.0
  0
ARC
  5
E755
  8
0
 10
4135.2130210705099671
 20
177.9884273026090113
 30
0.0
 40
0.0923484620452006
 50
1.3447206263725009
 51
27.5785876146865405
  0
ARC
  5
E756
  8
0
 10
4135.1639063141401493
 20
177.9627740954643969
 30
0.0
 40
0.1477591679606261
 50
27.578587614682899
 51
47.4158055817213082
  0
ARC
  5
E757
  8
0
 10
4135.0615582431910298
 20
177.8514097620511905
 30
0.0
 40
0.2990110849191916
 50
47.4158055817213082
 51
58.2009347306706672
  0
ARC
  5
E758
  8
0
 10
4134.9927997452869022
 20
177.740509617840587
 30
0.0
 40
0.4294969961125736
 50
58.2009347306706672
 51
61.3166960835297203
  0
ARC
  5
E759
  8
0
 10
4135.3954172683152137
 20
177.8723101874747101
 30
0.0
 40
0.0880432361466369
 50
183.5139198235386004
 51
214.4421231763861897
  0
ARC
  5
E75A
  8
0
 10
4135.3820735564768256
 20
177.8631591405705876
 30
0.0
 40
0.0718631154704718
 50
214.4421231763861897
 51
240.6202952272045934
  0
ARC
  5
E75B
  8
0
 10
4135.3520442551171072
 20
177.8121955177014968
 30
0.0
 40
0.0127750152554868
 50
245.8510313517589054
 51
270.1497252926408805
  0
ARC
  5
E75C
  8
0
 10
4134.5184837539572982
 20
177.2101071863615118
 30
0.0
 40
0.8099676543117126
 50
86.9263279330738641
 51
89.5368773224531793
  0
ARC
  5
E75D
  8
0
 10
4134.5259036719853611
 20
177.3041724493720892
 30
0.0
 40
0.7156437658099281
 50
79.9132041704498306
 51
87.115712010426634
  0
ARC
  5
E75E
  8
0
 10
4134.5910099303173411
 20
177.6403698073524993
 30
0.0
 40
0.3732765982438451
 50
67.1547847431648819
 51
80.7142238383000858
  0
ARC
  5
E75F
  8
0
 10
4134.6852160289572566
 20
177.8639831217556946
 30
0.0
 40
0.1306293163731253
 50
40.8076472809894284
 51
67.1547847431648819
  0
LINE
  5
E760
  8
0
 10
4134.5250306638217808
 20
178.0200483811420042
 30
0.0
 11
4134.5268899039947428
 21
178.2799359882965007
 31
0.0
  0
ARC
  5
E761
  8
0
 10
4134.5468368298261339
 20
178.2797932876642903
 30
0.0
 40
0.0199474362640403
 50
143.1661199005534115
 51
179.5901120528465071
  0
ARC
  5
E762
  8
0
 10
4134.5453547385577622
 20
178.2805866737608085
 30
0.0
 40
0.0182873290240065
 50
89.4204288780483552
 51
142.3718531931451992
  0
ARC
  5
E763
  8
0
 10
4134.5200854316308323
 20
176.1958664166224935
 30
0.0
 40
2.1031606912286551
 50
84.2471346194524529
 51
89.3065394962996635
  0
ARC
  5
E764
  8
0
 10
4134.6102622283797245
 20
176.9293257953320904
 30
0.0
 40
1.3644524509076701
 50
72.5910339587103977
 51
84.9275119450678631
  0
ARC
  5
E765
  8
0
 10
4134.8699548272561515
 20
177.7575516726255955
 30
0.0
 40
0.4964672265346375
 50
53.8162007398329791
 51
72.5910339587103977
  0
ARC
  5
E766
  8
0
 10
4135.064281655517334
 20
178.0355266075085865
 30
0.0
 40
0.1575474256740353
 50
31.2684418830180384
 51
51.1736671158969401
  0
ARC
  5
E767
  8
0
 10
4135.1192528670562751
 20
178.0695426021243009
 30
0.0
 40
0.0929067007251719
 50
1.1681332025188429
 51
30.9340167488628488
  0
LINE
  5
E768
  8
0
 10
4135.2121402595957989
 20
178.0714366313964945
 30
0.0
 11
4135.2127967740862005
 21
177.9999023491265007
 31
0.0
  0
LINE
  5
E769
  8
0
 10
4135.2127967740862005
 20
177.9999023491265007
 30
0.0
 11
4135.213292989295951
 21
177.9458248926964927
 31
0.0
  0
ARC
  5
E76A
  8
0
 10
4134.5320702387352867
 20
178.1207815144917959
 30
0.0
 40
0.0069694024425839
 50
204.5444948074587899
 51
246.8168760825375045
  0
ARC
  5
E76B
  8
0
 10
4134.5401809257637069
 20
178.1397205694030106
 30
0.0
 40
0.027572097533491
 50
246.8168760825375045
 51
259.6078698013633925
  0
ARC
  5
E76C
  8
0
 10
4134.5441393054170476
 20
178.1613047809346142
 30
0.0
 40
0.0495162757344164
 50
259.6078698013633925
 51
268.8147512758537232
  0
ARC
  5
E76D
  8
0
 10
4134.5256316480499663
 20
177.2667588775902914
 30
0.0
 40
0.8452210636961059
 50
85.7130569385322616
 51
88.8147512758537658
  0
ARC
  5
E76E
  8
0
 10
4134.5315053545709816
 20
177.3451154940520951
 30
0.0
 40
0.7666446055700148
 50
78.3488709309382472
 51
85.7130569385322616
  0
ARC
  5
E76F
  8
0
 10
4134.6087663052257994
 20
177.7198036727664032
 30
0.0
 40
0.3840737157150298
 50
64.4686697761790271
 51
78.3488709309382472
  0
ARC
  5
E770
  8
0
 10
4134.7351210756105502
 20
177.9843395950620106
 30
0.0
 40
0.0909103104548535
 50
36.4375916965387816
 51
64.4686697761790271
  0
ARC
  5
E771
  8
0
 10
4134.7862737353816556
 20
178.0221044171154006
 30
0.0
 40
0.0273274795460743
 50
8.3429180258083502
 51
36.4375916965306317
  0
ARC
  5
E772
  8
0
 10
4134.791409844788177
 20
178.022857624012687
 30
0.0
 40
0.022136435291267
 50
325.6033200101795728
 51
8.3429180258118087
  0
ARC
  5
E773
  8
0
 10
4134.757219604128295
 20
178.0527677296381057
 30
0.0
 40
0.0674588926286593
 50
302.0315708044386156
 51
321.0413585286452189
  0
ARC
  5
E774
  8
0
 10
4134.8039998772192121
 20
177.9793162703170992
 30
0.0
 40
0.019634148252867
 50
124.0764622237264945
 51
179.8745385065722076
  0
LINE
  5
E775
  8
0
 10
4134.7843657760377027
 20
177.9793592634941035
 30
0.0
 11
4134.7840903822252585
 21
177.9493522061023043
 31
0.0
  0
LINE
  5
E776
  8
0
 10
4134.7840903822252585
 20
177.9493522061023043
 30
0.0
 11
4134.7835454439964451
 21
177.8899754450964963
 31
0.0
  0
ARC
  5
E777
  8
0
 10
4134.7750201485559955
 20
177.8728534527222109
 30
0.0
 40
0.0172953812052577
 50
89.023090139103175
 51
113.7973168369691024
  0
ARC
  5
E778
  8
0
 10
4134.756389985860551
 20
176.7805240071324988
 30
0.0
 40
1.1097836880827909
 50
88.5978813310301376
 51
89.0228929508386102
  0
ARC
  5
E779
  8
0
 10
4134.8265868887474426
 20
179.6484576993188966
 30
0.0
 40
1.7590089617880531
 50
268.5978813310301234
 51
269.401518030158627
  0
ARC
  5
E77A
  8
0
 10
4134.5591406520788951
 20
155.6154322643801038
 30
0.0
 40
22.2755049772095397
 50
88.640143386162066
 51
89.3593356467787032
  0
ARC
  5
E77B
  8
0
 10
4135.0876574927933689
 20
177.8651932594524965
 30
0.0
 40
0.0194707316625731
 50
16.3246793470283897
 51
89.6474377438402286
  0
ARC
  5
E77C
  8
0
 10
4135.1438652500337412
 20
177.9778111919503942
 30
0.0
 40
0.0824767050056292
 50
18.1097326883401486
 51
33.576080981693508
  0
ARC
  5
E77D
  8
0
 10
4135.1583362382198175
 20
177.9825437608701009
 30
0.0
 40
0.067251505246778
 50
347.4346385617656097
 51
18.1097326883437511
  0
ARC
  5
E77E
  8
0
 10
4135.1562895134184146
 20
177.9870253510036946
 30
0.0
 40
0.0703340175648802
 50
324.1416889235352983
 51
344.2323320919649063
  0
ARC
  5
E77F
  8
0
 10
4135.0394811615851722
 20
178.086879670498007
 30
0.0
 40
0.2238459331609392
 50
294.8032665137938011
 51
320.9393824536941793
  0
ARC
  5
E780
  8
0
 10
4134.9468167080958665
 20
178.2366819807913885
 30
0.0
 40
0.399269765835017
 50
293.5497845549900262
 51
297.8575397413522978
  0
ARC
  5
E781
  8
0
 10
4134.672065102941815
 20
178.930264109733713
 30
0.0
 40
1.1451399307574961
 50
275.1793710084867257
 51
292.2863591322554271
  0
ARC
  5
E782
  8
0
 10
4134.5166521910214215
 20
180.2342437785634104
 30
0.0
 40
2.458104582830027
 50
270.0135734691664879
 51
276.0432996747433094
  0
ARC
  5
E783
  8
0
 10
4134.8024335733916814
 20
177.9811896836214942
 30
0.0
 40
0.0172401328203411
 50
91.8790040587131642
 51
120.0840620555687934
  0
ARC
  5
E784
  8
0
 10
-208.9775943798750006
 20
-263896.5218329399940558
 30
0.0
 40
264110.2433968234108761
 50
89.057555239888174
 51
89.0576228744339744
  0
ARC
  5
E785
  8
0
 10
4135.02716574025726
 20
178.1545698250411931
 30
0.0
 40
0.1829757407151418
 50
298.1868060947768981
 51
326.0477263887381127
  0
ARC
  5
E786
  8
0
 10
4135.1211890151425905
 20
178.0889529510457123
 30
0.0
 40
0.0683628687702982
 50
327.6547660366439914
 51
22.2739958367140716
  0
ARC
  5
E787
  8
0
 10
4135.0731869306546287
 20
178.0646122550600126
 30
0.0
 40
0.1220859378579574
 50
24.3064789928078895
 51
51.4817861047430796
  0
ARC
  5
E788
  8
0
 10
4134.6429765325556218
 20
177.4680103080463027
 30
0.0
 40
0.8575048519718306
 50
53.8170695604992275
 51
60.3075029501722781
  0
ARC
  5
E789
  8
0
 10
4135.1098494940670207
 20
177.9700306082407053
 30
0.0
 40
0.0235615959496669
 50
3.6645742262037668
 51
80.8557177309657646
  0
LINE
  5
E78A
  8
0
 10
4135.1333629142700374
 20
177.9715365544392967
 30
0.0
 11
4135.1333853890946557
 21
177.8836827269965113
 31
0.0
  0
ARC
  5
E78B
  8
0
 10
4135.0034391558483549
 20
178.1929735115637925
 30
0.0
 40
0.2567382109918539
 50
300.4014373508550193
 51
315.1411341061808002
  0
ARC
  5
E78C
  8
0
 10
4135.1163372151504518
 20
178.0806302800831133
 30
0.0
 40
0.0974680836804505
 50
315.1411341061808002
 51
341.2941122857370146
  0
ARC
  5
E78D
  8
0
 10
4135.1429702759951397
 20
178.0716124358640968
 30
0.0
 40
0.0693497365679654
 50
341.2941122857400273
 51
356.3480050098457923
  0
ARC
  5
E78E
  8
0
 10
4135.1208926775916552
 20
177.9115548917905869
 30
0.0
 40
0.1074948613879154
 50
24.0268927377987502
 51
30.9309103134035688
  0
ARC
  5
E78F
  8
0
 10
4135.216075803205058
 20
177.9919064930207071
 30
0.0
 40
0.0895147999349426
 50
326.9811078289610009
 51
356.4731155244995762
  0
ARC
  5
E790
  8
0
 10
4135.1058465217965932
 20
178.0759410458533978
 30
0.0
 40
0.2279699781392007
 50
297.5458307738089729
 51
324.3672292903493144
  0
ARC
  5
E791
  8
0
 10
4134.717250405357845
 20
178.8909750591205068
 30
0.0
 40
1.1307856017201521
 50
275.9930900011813151
 51
295.905265510823881
  0
ARC
  5
E792
  8
0
 10
4134.5218646988387263
 20
180.130712541684602
 30
0.0
 40
2.385029817737998
 50
270.5069930421653908
 51
277.5518681876206983
  0
ARC
  5
E793
  8
0
 10
4134.5135635296392138
 20
180.1323428116727996
 30
0.0
 40
2.3867478621055138
 50
270.0881250818899275
 51
270.7059155074903742
  0
ARC
  5
E794
  8
0
 10
4134.5159692205788815
 20
178.699893405794711
 30
0.0
 40
0.8513628134046616
 50
270.0851533045179167
 51
273.3376782873515936
  0
ARC
  5
E795
  8
0
 10
4134.5227859460510444
 20
178.7460743670403076
 30
0.0
 40
0.8971188027562474
 50
272.7313290768091747
 51
277.51389778292031
  0
ARC
  5
E796
  8
0
 10
4134.5563414696625841
 20
178.5018976127688859
 30
0.0
 40
0.6506521822349929
 50
277.3961447014697796
 51
283.908269057332916
  0
ARC
  5
E797
  8
0
 10
4134.6121757147739117
 20
178.2724214803075995
 30
0.0
 40
0.4144842183602039
 50
284.0411761997906979
 51
289.093023052937383
  0
ARC
  5
E798
  8
0
 10
4134.6558730835249662
 20
178.1453894047313895
 30
0.0
 40
0.2801469227555777
 50
289.145999884371804
 51
293.6026307057350095
  0
LINE
  5
E799
  8
0
 10
4133.7268827601792509
 20
177.8680493344965043
 30
0.0
 11
4133.7291249409790908
 21
177.9905945037965012
 31
0.0
  0
ARC
  5
E79A
  8
0
 10
4133.8214479699636286
 20
177.9884273026090113
 30
0.0
 40
0.0923484620452006
 50
152.4214123853134879
 51
178.6552793736275078
  0
ARC
  5
E79B
  8
0
 10
4133.8705627263343558
 20
177.9627740954643969
 30
0.0
 40
0.1477591679606261
 50
132.5841944182787131
 51
152.4214123853170975
  0
ARC
  5
E79C
  8
0
 10
4133.9729107972843849
 20
177.8514097620511905
 30
0.0
 40
0.2990110849191916
 50
121.7990652693293043
 51
132.5841944182787131
  0
ARC
  5
E79D
  8
0
 10
4134.041669295187603
 20
177.740509617840587
 30
0.0
 40
0.4294969961125736
 50
118.6833039164701944
 51
121.7990652693293043
  0
ARC
  5
E79E
  8
0
 10
4134.5159852865181165
 20
177.2101071863615118
 30
0.0
 40
0.8099676543117126
 50
90.4631226775468207
 51
93.0736720669260933
  0
ARC
  5
E79F
  8
0
 10
4134.508565368489144
 20
177.3041724493720892
 30
0.0
 40
0.7156437658099281
 50
92.884287989573366
 51
100.0867958295501978
  0
ARC
  5
E7A0
  8
0
 10
4134.4434591101571641
 20
177.6403698073524993
 30
0.0
 40
0.3732765982438451
 50
99.2857761616999284
 51
112.8452152568351039
  0
ARC
  5
E7A1
  8
0
 10
4134.349253011518158
 20
177.8639831217556946
 30
0.0
 40
0.1306293163731253
 50
112.8452152568351039
 51
139.1923527190105858
  0
LINE
  5
E7A2
  8
0
 10
4134.5094383766518149
 20
178.0200483811420042
 30
0.0
 11
4134.5075791364788529
 21
178.2799359882965007
 31
0.0
  0
ARC
  5
E7A3
  8
0
 10
4134.4876322106501902
 20
178.2797932876642903
 30
0.0
 40
0.0199474362640403
 50
0.4098879471535245
 51
36.8338800994465601
  0
ARC
  5
E7A4
  8
0
 10
4134.489114301916743
 20
178.2805866737608085
 30
0.0
 40
0.0182873290240065
 50
37.6281468068196574
 51
90.5795711219516591
  0
ARC
  5
E7A5
  8
0
 10
4134.5143836088436728
 20
176.1958664166224935
 30
0.0
 40
2.1031606912286551
 50
90.6934605037003649
 51
95.7528653805475614
  0
ARC
  5
E7A6
  8
0
 10
4134.4242068120947806
 20
176.9293257953320904
 30
0.0
 40
1.3644524509076701
 50
95.0724880549321227
 51
107.4089660412896023
  0
ARC
  5
E7A7
  8
0
 10
4134.1645142132183537
 20
177.7575516726255955
 30
0.0
 40
0.4964672265346375
 50
107.4089660412896023
 51
126.1837992601670067
  0
ARC
  5
E7A8
  8
0
 10
4133.9701873849580807
 20
178.0355266075085865
 30
0.0
 40
0.1575474256740353
 50
128.8263328841030955
 51
148.731558116981887
  0
ARC
  5
E7A9
  8
0
 10
4133.91521617341823
 20
178.0695426021243009
 30
0.0
 40
0.0929067007251719
 50
149.0659832511371121
 51
178.8318667974810978
  0
LINE
  5
E7AA
  8
0
 10
4133.8223287808787063
 20
178.0714366313964945
 30
0.0
 11
4133.8216722663873952
 21
177.9999023491265007
 31
0.0
  0
LINE
  5
E7AB
  8
0
 10
4133.8216722663873952
 20
177.9999023491265007
 30
0.0
 11
4133.8211760511803732
 21
177.9458248926964927
 31
0.0
  0
ARC
  5
E7AC
  8
0
 10
4134.5023988017392185
 20
178.1207815144917959
 30
0.0
 40
0.0069694024425839
 50
293.1831239174625239
 51
335.4555051925411249
  0
ARC
  5
E7AD
  8
0
 10
4134.4942881147107983
 20
178.1397205694030106
 30
0.0
 40
0.027572097533491
 50
280.3921301986366075
 51
293.1831239174625239
  0
ARC
  5
E7AE
  8
0
 10
4134.4903297350565481
 20
178.1613047809346142
 30
0.0
 40
0.0495162757344164
 50
271.1852487241462768
 51
280.3921301986366075
  0
ARC
  5
E7AF
  8
0
 10
4134.5088373924254483
 20
177.2667588775902914
 30
0.0
 40
0.8452210636961059
 50
91.1852487241462342
 51
94.2869430614677526
  0
ARC
  5
E7B0
  8
0
 10
4134.5029636859026141
 20
177.3451154940520951
 30
0.0
 40
0.7666446055700148
 50
94.2869430614677526
 51
101.651129069061696
  0
ARC
  5
E7B1
  8
0
 10
4134.4257027352477962
 20
177.7198036727664032
 30
0.0
 40
0.3840737157150298
 50
101.651129069061696
 51
115.5313302238210014
  0
ARC
  5
E7B2
  8
0
 10
4134.2993479648630455
 20
177.9843395950620106
 30
0.0
 40
0.0909103104548535
 50
115.5313302238210014
 51
143.5624083034612113
  0
ARC
  5
E7B3
  8
0
 10
4134.2481953050919401
 20
178.0221044171154006
 30
0.0
 40
0.0273274795460743
 50
143.5624083034693967
 51
171.6570819741916125
  0
ARC
  5
E7B4
  8
0
 10
4134.2430591956881472
 20
178.022857624012687
 30
0.0
 40
0.022136435291267
 50
171.6570819741882019
 51
214.3966799898203988
  0
ARC
  5
E7B5
  8
0
 10
4134.2772494363471196
 20
178.0527677296381057
 30
0.0
 40
0.0674588926286593
 50
218.9586414713537863
 51
237.9684291955614128
  0
ARC
  5
E7B6
  8
0
 10
4134.2304691632552931
 20
177.9793162703170992
 30
0.0
 40
0.019634148252867
 50
0.1254614934277321
 51
55.9235377762734487
  0
LINE
  5
E7B7
  8
0
 10
4134.2501032644368024
 20
177.9793592634941035
 30
0.0
 11
4134.2503786582510656
 21
177.9493522061023043
 31
0.0
  0
LINE
  5
E7B8
  8
0
 10
4134.2503786582510656
 20
177.9493522061023043
 30
0.0
 11
4134.2509235964789696
 21
177.8899754450964963
 31
0.0
  0
ARC
  5
E7B9
  8
0
 10
4134.2594488919176001
 20
177.8728534527222109
 30
0.0
 40
0.0172953812052577
 50
66.2026831630309402
 51
90.9769098608968534
  0
ARC
  5
E7BA
  8
0
 10
4134.2780790546121352
 20
176.7805240071324988
 30
0.0
 40
1.1097836880827909
 50
90.9771070491613756
 51
91.4021186689698624
  0
ARC
  5
E7BB
  8
0
 10
4134.2078821517261531
 20
179.6484576993188966
 30
0.0
 40
1.7590089617880531
 50
270.598481969841373
 51
271.4021186689698766
  0
ARC
  5
E7BC
  8
0
 10
4134.4753283883947006
 20
155.6154322643801038
 30
0.0
 40
22.2755049772095397
 50
90.6406643532212826
 51
91.359856613890031
  0
ARC
  5
E7BD
  8
0
 10
4133.9468115476820458
 20
177.8651932594524965
 30
0.0
 40
0.0194707316625731
 50
90.3525622561597572
 51
163.6753206529716067
  0
ARC
  5
E7BE
  8
0
 10
4133.890603790440764
 20
177.9778111919503942
 30
0.0
 40
0.0824767050056292
 50
146.423919018306492
 51
161.8902673116598123
  0
ARC
  5
E7BF
  8
0
 10
4133.8761328022528687
 20
177.9825437608701009
 30
0.0
 40
0.067251505246778
 50
161.8902673116562028
 51
192.5653614382343903
  0
ARC
  5
E7C0
  8
0
 10
4133.8781795270560906
 20
177.9870253510036946
 30
0.0
 40
0.0703340175648802
 50
195.7676679080350084
 51
215.8583110764647017
  0
ARC
  5
E7C1
  8
0
 10
4133.9949878788893329
 20
178.086879670498007
 30
0.0
 40
0.2238459331609392
 50
219.060617546305906
 51
245.1967334862061136
  0
ARC
  5
E7C2
  8
0
 10
4134.0876523323786387
 20
178.2366819807913885
 30
0.0
 40
0.399269765835017
 50
242.1424602586475885
 51
246.4502154450100022
  0
ARC
  5
E7C3
  8
0
 10
4134.3624039375317807
 20
178.930264109733713
 30
0.0
 40
1.1451399307574961
 50
247.7136408677446013
 51
264.8206289915132743
  0
ARC
  5
E7C4
  8
0
 10
4134.5178168494539932
 20
180.2342437785634104
 30
0.0
 40
2.458104582830027
 50
263.9567003252566906
 51
269.9864265308335121
  0
ARC
  5
E7C5
  8
0
 10
4134.2320354670810048
 20
177.9811896836214942
 30
0.0
 40
0.0172401328203411
 50
59.9159379444311995
 51
88.12099594128685
  0
ARC
  5
E7C6
  8
0
 10
8478.0120634203485679
 20
-263896.5218329399940558
 30
0.0
 40
264110.2433968234108761
 50
90.9423771255660256
 51
90.942444760111826
  0
ARC
  5
E7C7
  8
0
 10
4134.0073033002181546
 20
178.1545698250411931
 30
0.0
 40
0.1829757407151418
 50
213.9522736112618873
 51
241.8131939052231871
  0
ARC
  5
E7C8
  8
0
 10
4133.9132800253310052
 20
178.0889529510457123
 30
0.0
 40
0.0683628687702982
 50
157.7260041632858929
 51
212.3452339633560086
  0
ARC
  5
E7C9
  8
0
 10
4133.9612821098198765
 20
178.0646122550600126
 30
0.0
 40
0.1220859378579574
 50
128.5182138952569062
 51
155.6935210071920892
  0
ARC
  5
E7CA
  8
0
 10
4134.3914925079179739
 20
177.4680103080463027
 30
0.0
 40
0.8575048519718306
 50
119.6924970498276934
 51
126.1829304395006943
  0
ARC
  5
E7CB
  8
0
 10
4133.9246195464093034
 20
177.9700306082407053
 30
0.0
 40
0.0235615959496669
 50
99.1442822690342354
 51
176.335425773796203
  0
LINE
  5
E7CC
  8
0
 10
4133.9011061262053772
 20
177.9715365544392967
 30
0.0
 11
4133.90108365137894
 21
177.8836827269965113
 31
0.0
  0
ARC
  5
E7CD
  8
0
 10
4134.0310298846261503
 20
178.1929735115637925
 30
0.0
 40
0.2567382109918539
 50
224.8588658938191998
 51
239.5985626491419112
  0
ARC
  5
E7CE
  8
0
 10
4133.9181318253240534
 20
178.0806302800831133
 30
0.0
 40
0.0974680836804505
 50
198.7058877142630138
 51
224.8588658938191998
  0
ARC
  5
E7CF
  8
0
 10
4133.8914987644775465
 20
178.0716124358640968
 30
0.0
 40
0.0693497365679654
 50
183.651994990154094
 51
198.7058877142598874
  0
ARC
  5
E7D0
  8
0
 10
4133.9135763628828499
 20
177.9115548917905869
 30
0.0
 40
0.1074948613879154
 50
149.0690896865964135
 51
155.9731072622012107
  0
ARC
  5
E7D1
  8
0
 10
4133.8159246690847795
 20
177.9907213213512023
 30
0.0
 40
0.0867998207479644
 50
180.0837111548634084
 51
213.2508523840008934
  0
ARC
  5
E7D2
  8
0
 10
4133.928622518676093
 20
178.0759410458533978
 30
0.0
 40
0.2279699781392007
 50
215.6327707096507993
 51
242.4541692261909986
  0
ARC
  5
E7D3
  8
0
 10
4134.3172186351166602
 20
178.8909750591205068
 30
0.0
 40
1.1307856017201521
 50
244.0947344891760054
 51
264.0069099988186849
  0
ARC
  5
E7D4
  8
0
 10
4134.5126043416348693
 20
180.130712541684602
 30
0.0
 40
2.385029817737998
 50
262.448131812379188
 51
269.4930069578346092
  0
ARC
  5
E7D5
  8
0
 10
4134.5209055108352914
 20
180.1323428116727996
 30
0.0
 40
2.3867478621055138
 50
269.2940844925096258
 51
269.9118749181100725
  0
ARC
  5
E7D6
  8
0
 10
4134.5184998198938047
 20
178.699893405794711
 30
0.0
 40
0.8513628134046616
 50
266.6623217126484064
 51
269.9148466954820833
  0
ARC
  5
E7D7
  8
0
 10
4134.5116830944225512
 20
178.7460743670403076
 30
0.0
 40
0.8971188027562474
 50
262.48610221707969
 51
267.2686709231907116
  0
ARC
  5
E7D8
  8
0
 10
4134.4781275708128305
 20
178.5018976127688859
 30
0.0
 40
0.6506521822349929
 50
256.091730942667084
 51
262.6038552985302204
  0
ARC
  5
E7D9
  8
0
 10
4134.4222933257005934
 20
178.2724214803075995
 30
0.0
 40
0.4144842183602039
 50
250.9069769470625033
 51
255.9588238002093874
  0
ARC
  5
E7DA
  8
0
 10
4134.3785959569486295
 20
178.1453894047313895
 30
0.0
 40
0.2801469227555777
 50
246.3973692942649905
 51
250.854000115628196
  0
ARC
  5
E7DB
  8
0
 10
4134.2272277552947344
 20
178.2620671106965062
 30
0.0
 40
0.0196850394000661
 50
90.0000000000521254
 51
127.5122614873680931
  0
LINE
  5
E7DC
  8
0
 10
4134.2272277552947344
 20
178.2817521500965086
 30
0.0
 11
4134.2434488365406651
 21
178.2817521500965086
 31
0.0
  0
ARC
  5
E7DD
  8
0
 10
4133.9320606320434308
 20
175.6397720384204888
 30
0.0
 40
2.1741030133407619
 50
96.4921354409438266
 51
98.5800191466273645
  0
ARC
  5
E7DE
  8
0
 10
4133.6054609891716609
 20
180.7313983421746002
 30
0.0
 40
2.8353388737462031
 50
271.161627231008822
 51
272.4657471282727101
  0
LINE
  5
E7DF
  8
0
 10
4132.8097270716980347
 20
177.9238503251283987
 30
0.0
 11
4133.7279037380803857
 21
177.9238503251283987
 31
0.0
  0
LINE
  5
E7E0
  8
0
 10
4134.5078585306991954
 20
178.2408818110085065
 30
0.0
 11
4134.5266105143327877
 21
178.2408824480621092
 31
0.0
  0
LINE
  5
E7E1
  8
0
 10
4131.317383111536401
 20
176.0469601394864014
 30
0.0
 11
4131.3173054202743515
 21
172.6006893276284018
 31
0.0
  0
ARC
  5
E7E2
  8
0
 10
4131.3586962390027111
 20
172.5992347218241889
 30
0.0
 40
0.0414163705937799
 50
177.9872713148619994
 51
212.0967869047366037
  0
ARC
  5
E7E3
  8
0
 10
4132.1836703946592024
 20
173.2004602510158122
 30
0.0
 40
1.0621307417545911
 50
215.9285112381066085
 51
231.9665393874626886
  0
ARC
  5
E7E4
  8
0
 10
4131.658274060308031
 20
173.2029528209961029
 30
0.0
 40
1.066572194548286
 50
308.119435531984891
 51
323.9403761486319127
  0
ARC
  5
E7E5
  8
0
 10
4132.4877531590900617
 20
172.5989811551366131
 30
0.0
 40
0.0405033135860872
 50
323.9403761486319127
 51
358.1467029737275993
  0
LINE
  5
E7E6
  8
0
 10
4132.528235285773917
 20
172.5976712579283969
 30
0.0
 11
4132.5282358383738028
 21
175.5042169551836935
 31
0.0
  0
ARC
  5
E7E7
  8
0
 10
4131.9229715966766889
 20
161.7363387132618868
 30
0.0
 40
0.3937028336037604
 50
180.0001164147352881
 51
359.8003477071245015
  0
ARC
  5
E7E8
  8
0
 10
4131.9229715966766889
 20
161.7363387132618868
 30
0.0
 40
0.4351021209479278
 50
154.8033061415825955
 51
25.1974410037925516
  0
ARC
  5
E7E9
  8
0
 10
4131.922969550473681
 20
161.7363379133284127
 30
0.0
 40
0.7185039370000004
 50
123.2261593691807064
 51
56.7738406308192722
  0
ARC
  5
E7EA
  8
0
 10
4131.922969550473681
 20
161.7363379133284127
 30
0.0
 40
5.0019685038999988
 50
94.5143729166207862
 51
85.485607815519586
  0
CIRCLE
  5
E7EB
  8
0
 10
4127.2753317551741929
 20
161.7363379133284127
 30
0.0
 40
0.1653543306999978
  0
CIRCLE
  5
E7EC
  8
0
 10
4127.2753317551741929
 20
161.7363379133284127
 30
0.0
 40
0.1181102362000033
  0
CIRCLE
  5
E7ED
  8
0
 10
4129.5981664008741063
 20
165.7596055372285093
 30
0.0
 40
0.1653543306999978
  0
CIRCLE
  5
E7EE
  8
0
 10
4129.5981664008741063
 20
165.7596055372285093
 30
0.0
 40
0.1181102362000033
  0
CIRCLE
  5
E7EF
  8
0
 10
4134.2438356921729792
 20
165.7596055372285093
 30
0.0
 40
0.1653543306999978
  0
CIRCLE
  5
E7F0
  8
0
 10
4134.2438356921729792
 20
165.7596055372285093
 30
0.0
 40
0.1181102362000033
  0
CIRCLE
  5
E7F1
  8
0
 10
4136.5666703378728926
 20
161.7363379133284127
 30
0.0
 40
0.1653543306999978
  0
CIRCLE
  5
E7F2
  8
0
 10
4136.5666703378728926
 20
161.7363379133284127
 30
0.0
 40
0.1181102362000033
  0
CIRCLE
  5
E7F3
  8
0
 10
4134.2438356921729792
 20
157.7130702894284013
 30
0.0
 40
0.1653543306999978
  0
CIRCLE
  5
E7F4
  8
0
 10
4134.2438356921729792
 20
157.7130702894284013
 30
0.0
 40
0.1181102362000033
  0
CIRCLE
  5
E7F5
  8
0
 10
4129.5981664008741063
 20
157.7130702894284013
 30
0.0
 40
0.1653543306999978
  0
CIRCLE
  5
E7F6
  8
0
 10
4129.5981664008741063
 20
157.7130702894284013
 30
0.0
 40
0.1181102362000033
  0
ARC
  5
E7F7
  8
0
 10
4131.922969550473681
 20
161.7363379133284127
 30
0.0
 40
0.5039370078999998
 50
141.3751671229530871
 51
38.624832877046849
  0
ARC
  5
E7F8
  8
0
 10
4131.922969550473681
 20
161.7363379133284127
 30
0.0
 40
0.4960629920999997
 50
142.5280048208049948
 51
37.4719951791949413
  0
LINE
  5
E7F9
  8
0
 10
4128.197874158074228
 20
180.8203406524283992
 30
0.0
 11
4128.194816061542042
 21
180.5610060547734008
 31
0.0
  0
ARC
  5
E7FA
  8
0
 10
4128.2358323742209905
 20
180.5605223867835889
 30
0.0
 40
0.0410191643074256
 50
179.3243944101257057
 51
221.9901990291824916
  0
LINE
  5
E7FB
  8
0
 10
4128.2053444998737177
 20
180.5330804233284141
 30
0.0
 11
4128.2648886435727036
 21
180.4357588656284008
 31
0.0
  0
ARC
  5
E7FC
  8
0
 10
4128.2897088628769779
 20
180.451325928739692
 30
0.0
 40
0.029298067174456
 50
212.0956411898164049
 51
247.4233394355597113
  0
LINE
  5
E7FD
  8
0
 10
4129.7425531318740468
 20
180.8203406524283992
 30
0.0
 11
4129.7456112284053233
 21
180.5610060547734008
 31
0.0
  0
ARC
  5
E7FE
  8
0
 10
4129.7045949157272844
 20
180.5605223867835889
 30
0.0
 40
0.0410191643074256
 50
318.00980097081748
 51
0.6756055898742318
  0
LINE
  5
E7FF
  8
0
 10
4129.7350827900727381
 20
180.5330804233284141
 30
0.0
 11
4129.6755386463728428
 21
180.4357588656284008
 31
0.0
  0
ARC
  5
E800
  8
0
 10
4129.6507184270712969
 20
180.451325928739692
 30
0.0
 40
0.029298067174456
 50
292.5766605644403171
 51
327.9043588101835098
  0
ARC
  5
E801
  8
0
 10
4131.922969550473681
 20
161.7343694095285116
 30
0.0
 40
4.9350393700000001
 50
94.5757265740673461
 51
85.424253895101117
  0
LINE
  5
E802
  8
0
 10
4128.3302057709743167
 20
179.5778120696284077
 30
0.0
 11
4128.3302057709743167
 21
178.8219391919284078
 31
0.0
  0
LINE
  5
E803
  8
0
 10
4128.3302057709743167
 20
178.8219391919284078
 30
0.0
 11
4128.3498909211739374
 21
178.8022540381284102
 31
0.0
  0
LINE
  5
E804
  8
0
 10
4128.3498909211739374
 20
178.8022540381284102
 30
0.0
 11
4129.5900481797743851
 21
178.8022540381284102
 31
0.0
  0
LINE
  5
E805
  8
0
 10
4129.5900481797743851
 20
178.8022540381284102
 30
0.0
 11
4129.6097333299730963
 21
178.8219391919284078
 31
0.0
  0
LINE
  5
E806
  8
0
 10
4129.6097333299730963
 20
178.8219391919284078
 30
0.0
 11
4129.6097333299730963
 21
179.5778120696284077
 31
0.0
  0
LINE
  5
E807
  8
0
 10
4128.3302057709743167
 20
178.8219391919284078
 30
0.0
 11
4128.3600868887988327
 21
178.8219391919284078
 31
0.0
  0
LINE
  5
E808
  8
0
 10
4128.6777169687729838
 20
178.8219391919284078
 30
0.0
 11
4129.6097333299730963
 21
178.8219391919284078
 31
0.0
  0
LINE
  5
E809
  8
0
 10
4128.3968690029741992
 20
178.8022540381284102
 30
0.0
 11
4128.3600868887988327
 21
178.8219391919284078
 31
0.0
  0
LINE
  5
E80A
  8
0
 10
4128.3600868887988327
 20
178.8219391919284078
 30
0.0
 11
4128.3600868887988327
 21
179.2156398649283915
 31
0.0
  0
LINE
  5
E80B
  8
0
 10
4128.3600868887988327
 20
179.2156398649283915
 30
0.0
 11
4128.6777169687729838
 21
179.2156398649283915
 31
0.0
  0
LINE
  5
E80C
  8
0
 10
4128.6777169687729838
 20
179.2156398649283915
 30
0.0
 11
4128.6777169687729838
 21
178.8219391919284078
 31
0.0
  0
LINE
  5
E80D
  8
0
 10
4128.6777169687729838
 20
178.8219391919284078
 30
0.0
 11
4128.6409379434726361
 21
178.8022540381284102
 31
0.0
  0
ARC
  5
E80E
  8
0
 10
4128.4753523511126332
 20
179.0751409944583088
 30
0.0
 40
0.1817347866657278
 50
96.0838957788826917
 51
129.3670575344144993
  0
ARC
  5
E80F
  8
0
 10
4128.4819410980790053
 20
178.8570231497423038
 30
0.0
 40
0.399665901448958
 50
77.3799805193159642
 51
93.7083997750223006
  0
ARC
  5
E810
  8
0
 10
4128.4073276938970594
 20
178.4845612712350942
 30
0.0
 40
0.7794782037038583
 50
69.7030959912069363
 51
78.0096588842669263
  0
LINE
  5
E811
  8
0
 10
4128.3693396291728277
 20
178.7353249042284062
 30
0.0
 11
4131.4308435661741896
 21
178.7353249043283938
 31
0.0
  0
LINE
  5
E812
  8
0
 10
4131.4308435661741896
 20
180.420364257428389
 30
0.0
 11
4131.4308435661741896
 21
178.4715745724284091
 31
0.0
  0
LINE
  5
E813
  8
0
 10
4132.4150955346740375
 20
180.420364257428389
 30
0.0
 11
4132.4150955346740375
 21
178.4715745724284091
 31
0.0
  0
LINE
  5
E814
  8
0
 10
4131.4308435661741896
 20
178.4715745724284091
 30
0.0
 11
4132.4150955346740375
 21
178.4715745724284091
 31
0.0
  0
LINE
  5
E815
  8
0
 10
4131.6080089205743207
 20
178.4715745724284091
 30
0.0
 11
4131.6080089205743207
 21
178.0670336847265105
 31
0.0
  0
LINE
  5
E816
  8
0
 10
4132.2379301803739509
 20
178.4715745724284091
 30
0.0
 11
4132.2379301803739509
 21
178.0690123483294087
 31
0.0
  0
ARC
  5
E817
  8
0
 10
4131.5603822148741529
 20
178.067455217135489
 30
0.0
 40
0.0476285711032796
 50
311.9029811080370109
 51
359.4929022129967962
  0
ARC
  5
E818
  8
0
 10
4128.3693396291728277
 20
178.6959548255283892
 30
0.0
 40
0.0393700787000242
 50
90.0
 51
179.9999999999674003
  0
LINE
  5
E819
  8
0
 10
4128.3299695504729243
 20
178.6959548255283892
 30
0.0
 11
4128.3299695504729243
 21
178.2442147724387951
 31
0.0
  0
ARC
  5
E81A
  8
0
 10
4128.1319497606373261
 20
178.2442147724389088
 30
0.0
 40
0.1980197898369587
 50
270.904262029882716
 51
359.9999999999674856
  0
LINE
  5
E81B
  8
0
 10
4128.1350748484737778
 20
178.0462196437283922
 30
0.0
 11
4127.8053071710728545
 21
178.046154510628412
 31
0.0
  0
ARC
  5
E81C
  8
0
 10
4127.8053071717840794
 20
178.0067844300924946
 30
0.0
 40
0.0393700805359956
 50
90.000001032876412
 51
134.9999989439004935
  0
LINE
  5
E81D
  8
0
 10
4127.7774683213738172
 20
178.0346232815284111
 30
0.0
 11
4127.6825307777662601
 21
177.9396857414209023
 31
0.0
  0
ARC
  5
E81E
  8
0
 10
4127.7103689701880285
 20
177.9118473319084046
 30
0.0
 40
0.0393693027812295
 50
134.9997765957205047
 51
180.0006430863435867
  0
LINE
  5
E81F
  8
0
 10
4127.670999667408978
 20
177.9118468900284995
 30
0.0
 11
4127.670999667408978
 21
176.2584757911517102
 31
0.0
  0
ARC
  5
E820
  8
0
 10
4127.704455953696197
 20
176.2584763825900041
 30
0.0
 40
0.0334562862920361
 50
180.0010128715370001
 51
228.0026339820304031
  0
LINE
  5
E821
  8
0
 10
4127.682070471573752
 20
176.2336124874283882
 30
0.0
 11
4127.7776421771741298
 21
176.1350070914284061
 31
0.0
  0
ARC
  5
E822
  8
0
 10
4127.8055954944738914
 20
176.1625314044395907
 30
0.0
 40
0.0392290499798301
 50
224.8411718491842919
 51
270.1004336733511764
  0
LINE
  5
E823
  8
0
 10
4127.805664258973593
 20
176.1233024147284141
 30
0.0
 11
4131.2301023884738242
 21
176.1233151163283992
 31
0.0
  0
ARC
  5
E824
  8
0
 10
4131.2359605664260016
 20
176.0419363678529123
 30
0.0
 40
0.0815773812634058
 50
3.5306742601845751
 51
94.0159951136091792
  0
ARC
  5
E825
  8
0
 10
4131.3193427515825533
 20
177.3560163635752076
 30
0.0
 40
0.0353339454816068
 50
201.3640443406472968
 51
212.6227203628421876
  0
LINE
  5
E826
  8
0
 10
4131.289583135844623
 20
177.3369676635024064
 30
0.0
 11
4131.5291083997581154
 21
176.9562282753645093
 31
0.0
  0
ARC
  5
E827
  8
0
 10
4131.922969550473681
 20
177.4761545106285041
 30
0.0
 40
0.787401574799978
 50
113.5781784765910061
 51
239.9985259983031085
  0
LINE
  5
E828
  8
0
 10
4132.3289102814305807
 20
177.9768794029342018
 30
0.0
 11
4132.5516794539080365
 21
177.6227781599774005
 31
0.0
  0
LINE
  5
E829
  8
0
 10
4131.2395253201066225
 20
177.8671854863536055
 30
0.0
 11
4131.1309430987494125
 21
177.9293105436283895
 31
0.0
  0
LINE
  5
E82A
  8
0
 10
4131.1309430987494125
 20
177.9293105436283895
 30
0.0
 11
4128.9699695511735626
 21
177.9293105436283895
 31
0.0
  0
ARC
  5
E82B
  8
0
 10
4128.995778768980017
 20
178.4070785922349103
 30
0.0
 40
0.4784646528147169
 50
228.0988149973802024
 51
266.9078649551494209
  0
ARC
  5
E82C
  8
0
 10
4169.2887196410611068
 20
250.4974869100327055
 30
0.0
 40
83.0534359529382442
 50
240.4514161050256007
 51
240.7256365780430087
  0
LINE
  5
E82D
  8
0
 10
4127.8053071710728545
 20
178.046154510628412
 30
0.0
 11
4127.8053071710728545
 21
176.1233034140254858
 31
0.0
  0
LINE
  5
E82E
  8
0
 10
4127.8053071710728545
 20
176.8042675103284012
 30
0.0
 11
4131.5123978772835471
 21
176.8042675103284012
 31
0.0
  0
ARC
  5
E82F
  8
0
 10
4127.8198663431094246
 20
176.9100424059861894
 30
0.0
 40
0.1067721782197071
 50
246.4760637680871866
 51
262.1628834033746784
  0
LINE
  5
E830
  8
0
 10
4127.7772501339832161
 20
176.8121436993478994
 30
0.0
 11
4127.6820685522161511
 21
176.8470397587778962
 31
0.0
  0
ARC
  5
E831
  8
0
 10
4127.6938330901821246
 20
176.8687562966620987
 30
0.0
 40
0.0248229741990693
 50
203.0957786152847007
 51
241.7095090123920897
  0
LINE
  5
E832
  8
0
 10
4131.5292687630726505
 20
176.1729832525265067
 30
0.0
 11
4131.3055253561251448
 21
176.0847994807284067
 31
0.0
  0
LINE
  5
E833
  8
0
 10
4129.8363553772742307
 20
178.7550099436284086
 30
0.0
 11
4129.8363553772742307
 21
178.7353249043283938
 31
0.0
  0
LINE
  5
E834
  8
0
 10
4129.8363553772742307
 20
178.7550099436284086
 30
0.0
 11
4130.0725758496728304
 21
178.7550099436284086
 31
0.0
  0
LINE
  5
E835
  8
0
 10
4130.0725758496728304
 20
178.7550099436284086
 30
0.0
 11
4130.0725758496728304
 21
178.7353249043283938
 31
0.0
  0
LINE
  5
E836
  8
0
 10
4128.5487097079731029
 20
178.8022540381284102
 30
0.0
 11
4128.5487097079731029
 21
178.7353249043283938
 31
0.0
  0
LINE
  5
E837
  8
0
 10
4129.39122939297431
 20
178.8022540381284102
 30
0.0
 11
4129.39122939297431
 21
178.7353249043283938
 31
0.0
  0
LINE
  5
E838
  8
0
 10
4136.2343227243572983
 20
180.820386085528412
 30
0.0
 11
4133.5171282378569231
 21
180.820386085528412
 31
0.0
  0
LINE
  5
E839
  8
0
 10
4133.5171282378569231
 20
180.820386085528412
 30
0.0
 11
4133.5171287161556393
 21
180.5611287954284023
 31
0.0
  0
ARC
  5
E83A
  8
0
 10
4133.556546865313976
 20
180.561128868150405
 30
0.0
 40
0.0394181491573149
 50
180.000105704146506
 51
225.399967576220007
  0
LINE
  5
E83B
  8
0
 10
4133.5288692756557793
 20
180.5330621349284002
 30
0.0
 11
4133.6252981184115924
 21
180.4355862563674009
 31
0.0
  0
ARC
  5
E83C
  8
0
 10
4133.6528825134646468
 20
180.463558484679794
 30
0.0
 40
0.0392854223241483
 50
225.399967576220007
 51
269.9651366421948069
  0
LINE
  5
E83D
  8
0
 10
4133.652858609057148
 20
180.4242730696284127
 30
0.0
 11
4136.0985789979558831
 21
180.4242730696284127
 31
0.0
  0
ARC
  5
E83E
  8
0
 10
4136.0985797807152267
 20
180.4636272563373893
 30
0.0
 40
0.0393541867167825
 50
269.9988603821136053
 51
314.5965551230152073
  0
LINE
  5
E83F
  8
0
 10
4136.1262107582570025
 20
180.4356043890284127
 30
0.0
 11
4136.2226132957330265
 21
180.5330427874301051
 31
0.0
  0
ARC
  5
E840
  8
0
 10
4136.1950154947180636
 20
180.5610320076696098
 30
0.0
 40
0.0393069341268808
 50
314.5965551230141273
 51
0.1406827594002105
  0
LINE
  5
E841
  8
0
 10
4136.234322310357129
 20
180.5611285209284063
 30
0.0
 11
4136.2343227243572983
 21
180.820386085528412
 31
0.0
  0
ARC
  5
E842
  8
0
 10
4135.8326075364666394
 20
180.2272427293594035
 30
0.0
 40
0.1970303408914982
 50
90.0045546942375836
 51
178.9913297907845049
  0
LINE
  5
E843
  8
0
 10
4135.6356077268574154
 20
180.2307111937284105
 30
0.0
 11
4135.6244530693720662
 21
179.5971554852008865
 31
0.0
  0
ARC
  5
E844
  8
0
 10
4135.6047657437447924
 20
179.5975021088223968
 30
0.0
 40
0.0196903767929484
 50
270.3355148415186022
 51
358.9913297907845049
  0
LINE
  5
E845
  8
0
 10
4135.6048810467582371
 20
179.5778120696284077
 30
0.0
 11
4134.1472420584314023
 21
179.5778120696284077
 31
0.0
  0
ARC
  5
E846
  8
0
 10
4134.1466050141161759
 20
179.597522366468894
 30
0.0
 40
0.0197205889110937
 50
181.0715915408565024
 51
271.8511770544769206
  0
LINE
  5
E847
  8
0
 10
4134.1268878741839217
 20
179.5971535577284044
 30
0.0
 11
4134.1150374579501658
 21
180.2306968810532055
 31
0.0
  0
ARC
  5
E848
  8
0
 10
4133.9177704662779433
 20
180.2270070055951976
 30
0.0
 40
0.1973014981803828
 50
1.071591540856536
 51
88.9140997564197733
  0
LINE
  5
E849
  8
0
 10
4136.2226972900607507
 20
180.5331258564283985
 30
0.0
 11
4133.528793454258448
 21
180.5331258564283985
 31
0.0
  0
LINE
  5
E84A
  8
0
 10
4135.6480649427730896
 20
180.8203406524283992
 30
0.0
 11
4135.6511230393052756
 21
180.5610060547734008
 31
0.0
  0
ARC
  5
E84B
  8
0
 10
4135.6101067266272366
 20
180.5605223867835889
 30
0.0
 40
0.0410191643074256
 50
318.00980097081748
 51
0.6756055898742318
  0
LINE
  5
E84C
  8
0
 10
4135.6405946009735999
 20
180.5330804233284141
 30
0.0
 11
4135.5810504572737045
 21
180.4357588656284008
 31
0.0
  0
ARC
  5
E84D
  8
0
 10
4135.5562302379721586
 20
180.451325928739692
 30
0.0
 40
0.029298067174456
 50
292.5766605644403171
 51
327.9043588101835098
  0
LINE
  5
E84E
  8
0
 10
4134.1033859689741803
 20
180.8203406524283992
 30
0.0
 11
4134.1003278724419943
 21
180.5610060547734008
 31
0.0
  0
ARC
  5
E84F
  8
0
 10
4134.1413441851200332
 20
180.5605223867835889
 30
0.0
 40
0.0410191643074256
 50
179.3243944101257057
 51
221.9901990291824916
  0
LINE
  5
E850
  8
0
 10
4134.11085631077367
 20
180.5330804233284141
 30
0.0
 11
4134.1704004544735653
 21
180.4357588656284008
 31
0.0
  0
ARC
  5
E851
  8
0
 10
4134.1952206737769302
 20
180.451325928739692
 30
0.0
 40
0.029298067174456
 50
212.0956411898164049
 51
247.4233394355597113
  0
LINE
  5
E852
  8
0
 10
4135.5157333298730009
 20
179.5778120696284077
 30
0.0
 11
4135.5157333298730009
 21
178.8219391919284078
 31
0.0
  0
LINE
  5
E853
  8
0
 10
4135.5157333298730009
 20
178.8219391919284078
 30
0.0
 11
4135.4960481796742897
 21
178.8022540381284102
 31
0.0
  0
LINE
  5
E854
  8
0
 10
4135.4960481796742897
 20
178.8022540381284102
 30
0.0
 11
4134.255890921073842
 21
178.8022540381284102
 31
0.0
  0
LINE
  5
E855
  8
0
 10
4134.255890921073842
 20
178.8022540381284102
 30
0.0
 11
4134.2362057708742213
 21
178.8219391919284078
 31
0.0
  0
LINE
  5
E856
  8
0
 10
4134.2362057708742213
 20
178.8219391919284078
 30
0.0
 11
4134.2362057708742213
 21
179.5778120696284077
 31
0.0
  0
LINE
  5
E857
  8
0
 10
4135.5157333298730009
 20
178.8219391919284078
 30
0.0
 11
4135.5047355113738377
 21
178.8219391919284078
 31
0.0
  0
LINE
  5
E858
  8
0
 10
4135.4025784380737605
 20
178.8219410954783939
 30
0.0
 11
4134.2362057708742213
 21
178.8219391919284078
 31
0.0
  0
LINE
  5
E859
  8
0
 10
4135.5047355113738377
 20
179.2156394332762943
 30
0.0
 11
4135.4025784380737605
 21
179.215641768478406
 31
0.0
  0
LINE
  5
E85A
  8
0
 10
4135.4025784380737605
 20
179.215641768478406
 30
0.0
 11
4135.4025784380737605
 21
178.8219410954783939
 31
0.0
  0
LINE
  5
E85B
  8
0
 10
4135.2972293928742147
 20
178.8022540381284102
 30
0.0
 11
4135.2972293928742147
 21
178.7353249043283938
 31
0.0
  0
LINE
  5
E85C
  8
0
 10
4134.4547097078730076
 20
178.8022540381284102
 30
0.0
 11
4134.4547097078730076
 21
178.7353249043283938
 31
0.0
  0
ARC
  5
E85D
  8
0
 10
4135.7810291445239272
 20
178.5522017318538985
 30
0.0
 40
0.7637899537663991
 50
115.9896302380591067
 51
119.702103149043495
  0
ARC
  5
E85E
  8
0
 10
4135.5727860999759287
 20
178.9793594437801119
 30
0.0
 40
0.2885753954238149
 50
108.5374028663424042
 51
115.9896302380591067
  0
ARC
  5
E85F
  8
0
 10
4135.504378131429803
 20
179.183366630990804
 30
0.0
 40
0.0734043411568829
 50
89.5903021707748621
 51
108.5374028663424042
  0
ARC
  5
E860
  8
0
 10
4135.5048228425366688
 20
179.245557917984712
 30
0.0
 40
0.0112114641858377
 50
33.8415256084475331
 51
89.5903021707748621
  0
ARC
  5
E861
  8
0
 10
4135.4940683574786817
 20
179.2441006064071018
 30
0.0
 40
0.0214934795547261
 50
351.6013706446900073
 51
20.9953639710348305
  0
ARC
  5
E862
  8
0
 10
4135.4297975034833144
 20
179.2618755440632015
 30
0.0
 40
0.0880536373818828
 50
328.3260076218533072
 51
346.2599448252339016
  0
LINE
  5
E863
  8
0
 10
4135.5047355113738377
 20
179.2156394332762943
 30
0.0
 11
4135.5047355113738377
 21
178.8219382890283953
 31
0.0
  0
LINE
  5
E864
  8
0
 10
4135.4025784380737605
 20
178.8219391919284078
 30
0.0
 11
4135.4144102219743218
 21
178.8022540381284102
 31
0.0
  0
LINE
  5
E865
  8
0
 10
4135.5047355113738377
 20
178.8219391919284078
 30
0.0
 11
4135.4929067767743618
 21
178.8022540381284102
 31
0.0
  0
LINE
  5
E866
  8
0
 10
4132.4150955346740375
 20
178.7353249043283938
 30
0.0
 11
4135.4765994717754438
 21
178.7353249042284062
 31
0.0
  0
ARC
  5
E867
  8
0
 10
4135.4765994717736248
 20
178.6959548255283892
 30
0.0
 40
0.0393700787000029
 50
0.0
 51
89.9999999981240251
  0
LINE
  5
E868
  8
0
 10
4135.5159695504744377
 20
178.6959548255283892
 30
0.0
 11
4135.5159695504744377
 21
178.2461545182283942
 31
0.0
  0
ARC
  5
E869
  8
0
 10
4135.7159695580739935
 20
178.2461545182283942
 30
0.0
 40
0.2000000075999964
 50
180.0
 51
269.9999986821849234
  0
LINE
  5
E86A
  8
0
 10
4135.7159695534737693
 20
178.046154510628412
 30
0.0
 11
4136.1355694717740334
 21
178.0461545009775932
 31
0.0
  0
ARC
  5
E86B
  8
0
 10
4136.1355694708690862
 20
178.0067844213720889
 30
0.0
 40
0.0393700796055114
 50
0.0000152171838286
 51
89.9999986821849518
  0
LINE
  5
E86C
  8
0
 10
4136.1749395504739368
 20
178.0067844318284074
 30
0.0
 11
4136.1749396354289274
 21
177.6869111221689082
 31
0.0
  0
ARC
  5
E86D
  8
0
 10
4848.9279917078438302
 20
15851.9484305604801193
 30
0.0
 40
15690.4585753550200025
 50
267.3953615002699848
 51
267.401583562923804
  0
ARC
  5
E86E
  8
0
 10
1951.9426889614630909
 20
-47983.5550103439163649
 30
0.0
 40
48210.7466041879306431
 50
87.398491335955228
 51
87.4015835629238609
  0
ARC
  5
E86F
  8
0
 10
4140.181396260353722
 20
177.2192518245257133
 30
0.0
 40
0.2854347314772232
 50
267.5930655265585756
 51
87.398491335955228
  0
ARC
  5
E870
  8
0
 10
4153.285825730952638
 20
488.9796187784027097
 30
0.0
 40
312.3210937112900751
 50
267.2069344724586131
 51
267.5930655265585756
  0
ARC
  5
E871
  8
0
 10
4129.985663576368097
 20
11.3884988533329707
 30
0.0
 40
165.8380590691544114
 50
87.2069344724585562
 51
87.5930655265585898
  0
LINE
  5
E872
  8
0
 10
4137.3315852197738423
 20
176.2551515628260006
 30
0.0
 11
4137.3315852197738423
 21
177.0637814727789987
 31
0.0
  0
LINE
  5
E873
  8
0
 10
4137.0797308044775491
 20
176.1233024147284141
 30
0.0
 11
4137.1973835448243335
 21
176.1233073465284065
 31
0.0
  0
ARC
  5
E874
  8
0
 10
4137.1973819735731013
 20
176.1607910069247964
 30
0.0
 40
0.0374836604293433
 50
270.0024017402541858
 51
318.2016094700433086
  0
LINE
  5
E875
  8
0
 10
4137.2253258446089603
 20
176.1358077150937902
 30
0.0
 11
4137.3205147798726102
 21
176.2336130407283861
 31
0.0
  0
ARC
  5
E876
  8
0
 10
4137.2868049768158016
 20
176.2645535868174989
 30
0.0
 40
0.0457566193513089
 50
317.4527292700021803
 51
348.1424598229424987
  0
LINE
  5
E877
  8
0
 10
4137.048844794237084
 20
176.8123467918981078
 30
0.0
 11
4137.2258463559373922
 21
176.8123467918981078
 31
0.0
  0
LINE
  5
E878
  8
0
 10
4137.2258463559373922
 20
176.8123467918981078
 30
0.0
 11
4137.3315852197738423
 21
176.8532248644283982
 31
0.0
  0
ARC
  5
E879
  8
0
 10
4136.1749395504830318
 20
177.912493093319398
 30
0.0
 40
0.0787401574090438
 50
42.0773619932199878
 51
90.0000000064095502
  0
ARC
  5
E87A
  8
0
 10
4136.3210499185634035
 20
178.0444091174630898
 30
0.0
 40
0.1181102352407696
 50
222.0773619932199949
 51
266.2868005563166207
  0
ARC
  5
E87B
  8
0
 10
4136.2611321317735928
 20
177.1211545106284007
 30
0.0
 40
0.8070866142000179
 50
64.095078354106505
 51
86.2868003222151003
  0
ARC
  5
E87C
  8
0
 10
4139.6084216867839132
 20
176.0340882053828011
 30
0.0
 40
3.674220145731248
 50
149.1657402416371951
 51
149.3618966917960051
  0
ARC
  5
E87D
  8
0
 10
4136.515111776097001
 20
177.8805850637330934
 30
0.0
 40
0.0717047953174777
 50
136.4039191460923064
 51
149.1700347515455007
  0
ARC
  5
E87E
  8
0
 10
4137.5538575139662498
 20
176.7436499493462918
 30
0.0
 40
1.6115434904626911
 50
126.9116594910397993
 51
132.5932699028263073
  0
ARC
  5
E87F
  8
0
 10
4136.6282781267518658
 20
177.9787081670041005
 30
0.0
 40
0.0681712200145774
 50
98.7141802778548936
 51
128.3375546200485928
  0
LINE
  5
E880
  8
0
 10
4136.6185698229528498
 20
178.046154510628412
 30
0.0
 11
4137.1977600557083861
 21
178.046154510628412
 31
0.0
  0
ARC
  5
E881
  8
0
 10
4136.618928270606375
 20
178.0394457110083124
 30
0.0
 40
0.0067183686310985
 50
93.0583754666481866
 51
98.3742792095931833
  0
ARC
  5
E882
  8
0
 10
4137.1972691355103962
 20
178.0067744459715016
 30
0.0
 40
0.0393831244954374
 50
45.0015659126197818
 51
89.9876868027472483
  0
LINE
  5
E883
  8
0
 10
4137.2251164487979622
 20
178.0346232814532073
 30
0.0
 11
4137.3200565852366708
 21
177.9396883343628986
 31
0.0
  0
ARC
  5
E884
  8
0
 10
4137.2922265933257222
 20
177.9118568212045091
 30
0.0
 40
0.0393586277004542
 50
359.9855428272721269
 51
45.0015659126197818
  0
LINE
  5
E885
  8
0
 10
4137.3315852197738423
 20
177.9118468900283858
 30
0.0
 11
4137.3315152094437508
 21
177.6343862532444859
 31
0.0
  0
LINE
  5
E886
  8
0
 10
4136.6139159283738991
 20
177.6669773253530877
 30
0.0
 11
4136.6139159283738991
 21
177.9727946865151864
 31
0.0
  0
LINE
  5
E887
  8
0
 10
4137.1972775991725939
 20
178.0461575695574936
 30
0.0
 11
4137.1972775991725939
 21
177.6404810678974115
 31
0.0
  0
LINE
  5
E888
  8
0
 10
4137.1972775991725939
 20
177.0696820305738015
 30
0.0
 11
4137.1972775991725939
 21
176.1233073420874007
 31
0.0
  0
ARC
  5
E889
  8
0
 10
4137.2343380442271155
 20
177.2731764063784112
 30
0.0
 40
0.9812715463090858
 50
136.2241327766273002
 51
140.4107781909835921
  0
ARC
  5
E88A
  8
0
 10
4134.9996098220053682
 20
179.4143975961137016
 30
0.0
 40
2.1136983098550322
 50
316.2241327766273002
 51
317.8337042179962282
  0
ARC
  5
E88B
  8
0
 10
4136.6660660573161294
 20
177.9051326765853105
 30
0.0
 40
0.1346248389659086
 50
128.7543882132306123
 51
137.8337042179963134
  0
ARC
  5
E88C
  8
0
 10
4136.630032886778281
 20
177.9500220331690059
 30
0.0
 40
0.0770623189243427
 50
119.626639113910997
 51
128.754388213231806
  0
ARC
  5
E88D
  8
0
 10
4136.5971139659322944
 20
178.0079071324745996
 30
0.0
 40
0.0104714781787583
 50
1.0447087725545621
 51
119.6266391139620993
  0
ARC
  5
E88E
  8
0
 10
4136.4583152718259953
 20
177.9631047919986031
 30
0.0
 40
0.1559020794395466
 50
3.5634427860317719
 51
16.7741289068775501
  0
ARC
  5
E88F
  8
0
 10
4136.951192993931727
 20
177.6780104426482012
 30
0.0
 40
0.305199606383265
 50
91.2332291464129668
 51
105.4221990226479022
  0
ARC
  5
E890
  8
0
 10
4136.9818411651003771
 20
177.5669111073515012
 30
0.0
 40
0.4204487829502688
 50
105.4221990226479022
 51
111.1070891661266984
  0
ARC
  5
E891
  8
0
 10
4136.8443590731512813
 20
177.9230730619433984
 30
0.0
 40
0.0386731112456013
 50
111.1070891661266984
 51
165.1167474710514114
  0
ARC
  5
E892
  8
0
 10
4136.8988856829682845
 20
177.9276280752818877
 30
0.0
 40
0.092059517674208
 50
176.6508298356546049
 51
189.7998493924725096
  0
ARC
  5
E893
  8
0
 10
4136.9203738325977611
 20
177.9353833595355923
 30
0.0
 40
0.1146234040922026
 50
191.7920424174826906
 51
235.934458354429097
  0
ARC
  5
E894
  8
0
 10
4136.9439663460552765
 20
177.9654856342525022
 30
0.0
 40
0.1527987282388059
 50
234.9285495384727085
 51
270.2469018903439064
  0
ARC
  5
E895
  8
0
 10
4136.945560915988608
 20
177.9641337871005078
 30
0.0
 40
0.1514483555654473
 50
269.6458443499764144
 51
309.3420334170377259
  0
ARC
  5
E896
  8
0
 10
4136.9682438413874479
 20
177.9368071033252079
 30
0.0
 40
0.115934974066356
 50
309.233946776526011
 51
340.8929852320525242
  0
ARC
  5
E897
  8
0
 10
4136.9922912660786096
 20
177.9273263902292115
 30
0.0
 40
0.0901155486278842
 50
341.5840439830868718
 51
2.1582055440926018
  0
ARC
  5
E898
  8
0
 10
4136.9412169329698372
 20
177.7221786933274927
 30
0.0
 40
0.2609829123722411
 50
74.8248520684815475
 51
89.2518281583939483
  0
ARC
  5
E899
  8
0
 10
4136.9921503862933605
 20
177.8327490099337922
 30
0.0
 40
0.1423774399169481
 50
56.5040159733810299
 51
82.986721810510673
  0
ARC
  5
E89A
  8
0
 10
4137.0549406983273002
 20
177.9290313102044934
 30
0.0
 40
0.0274435547088449
 50
2.0253310041234291
 51
54.8883810799007392
  0
LINE
  5
E89B
  8
0
 10
4136.6139159283738991
 20
177.9278734089380976
 30
0.0
 11
4136.8068264921948867
 21
177.9278734089380976
 31
0.0
  0
LINE
  5
E89C
  8
0
 10
4137.0824051544359463
 20
177.9278734089380976
 30
0.0
 11
4137.1972775991725939
 21
177.9278734089380976
 31
0.0
  0
ARC
  5
E89D
  8
0
 10
4137.1909555836691652
 20
177.8662540732898094
 30
0.0
 40
0.0619427994667635
 50
56.361152411912208
 51
84.1420691461184873
  0
LINE
  5
E89E
  8
0
 10
4137.2252691788689845
 20
177.9178242932840135
 30
0.0
 11
4137.3204093780695985
 21
177.8363415250672119
 31
0.0
  0
ARC
  5
E89F
  8
0
 10
4137.3068618928346041
 20
177.815566951947801
 30
0.0
 40
0.0248015572996588
 50
5.197043313792701
 51
56.8908821692410811
  0
LINE
  5
E8A0
  8
0
 10
4136.9903473643726102
 20
175.7974570141296908
 30
0.0
 11
4136.9908825716738647
 21
175.3162568086939928
 31
0.0
  0
ARC
  5
E8A1
  8
0
 10
4136.707405968929379
 20
175.3798814063700888
 30
0.0
 40
0.2905289550677374
 50
325.2394913999457913
 51
347.349946348196795
  0
ARC
  5
E8A2
  8
0
 10
4136.5995822842241978
 20
175.4473087269446125
 30
0.0
 40
0.417598474274386
 50
308.1140572501129213
 51
326.0738522212517978
  0
ARC
  5
E8A3
  8
0
 10
4136.6294479689049695
 20
175.5908483672920966
 30
0.0
 40
0.524223946570748
 50
292.2102255250476901
 51
295.7671797819068047
  0
ARC
  5
E8A4
  8
0
 10
4136.7955359290781416
 20
175.3286372285637924
 30
0.0
 40
0.2254103257843514
 50
262.0005551138535225
 51
278.1799213302231806
  0
ARC
  5
E8A5
  8
0
 10
4136.9441169690517199
 20
175.5510563943433908
 30
0.0
 40
0.4805970528320688
 50
244.5197747284134948
 51
248.0109152318316035
  0
ARC
  5
E8A6
  8
0
 10
4136.9590845525881377
 20
175.4189148681782058
 30
0.0
 40
0.3744176695195067
 50
197.5870935779097124
 51
233.6886011802731105
  0
LINE
  5
E8A7
  8
0
 10
4136.6005689000739949
 20
175.5423922380390991
 30
0.0
 11
4136.6005689000739949
 21
175.316255217028413
 31
0.0
  0
ARC
  5
E8A8
  8
0
 10
4136.6356689055855895
 20
175.316255217028413
 30
0.0
 40
0.0351000055120299
 50
180.0
 51
197.3593754328859973
  0
ENDSEC
  0
EOF
