  0
SECTION
  2
HEADER
  9
$ACADVER
  1
AC1009
  9
$INSBASE
 10
4191.0579482474458928
 20
112.5100344823252954
 30
0.0
  9
$EXTMIN
 10
4166.887796849073311
 20
87.7986929526237532
 30
-0.0015258207003583
  9
$EXTMAX
 10
4191.1889884323991282
 20
146.6660903588330029
 30
0.0000000349246037
  9
$LIMMIN
 10
0.0
 20
0.0
  9
$LIMMAX
 10
11.6929133858000007
 20
8.2677165353999982
  9
$ORTHOMODE
 70
     0
  9
$REGENMODE
 70
     1
  9
$FILLMODE
 70
     1
  9
$QTEXTMODE
 70
     0
  9
$MIRRTEXT
 70
     0
  9
$DRAGMODE
 70
     2
  9
$LTSCALE
 40
0.6431102362
  9
$OSMODE
 70
  4095
  9
$ATTMODE
 70
     1
  9
$TEXTSIZE
 40
0.2
  9
$TRACEWID
 40
0.05
  9
$TEXTSTYLE
  7
STANDARD
  9
$CLAYER
  8
0
  9
$CELTYPE
  6
BYLAYER
  9
$CECOLOR
 62
   256
  9
$DIMSCALE
 40
1.0
  9
$DIMASZ
 40
0.1875
  9
$DIMEXO
 40
0.0625
  9
$DIMDLI
 40
0.4443307087
  9
$DIMRND
 40
0.0
  9
$DIMDLE
 40
0.0
  9
$DIMEXE
 40
0.125
  9
$DIMTP
 40
0.01
  9
$DIMTM
 40
0.01
  9
$DIMTXT
 40
2.0
  9
$DIMCEN
 40
0.1052362205
  9
$DIMTSZ
 40
0.0
  9
$DIMTOL
 70
     1
  9
$DIMLIM
 70
     0
  9
$DIMTIH
 70
     1
  9
$DIMTOH
 70
     1
  9
$DIMSE1
 70
     0
  9
$DIMSE2
 70
     0
  9
$DIMTAD
 70
     0
  9
$DIMZIN
 70
     0
  9
$DIMBLK
  1

  9
$DIMASO
 70
     1
  9
$DIMSHO
 70
     1
  9
$DIMPOST
  1
\X
  9
$DIMAPOST
  1

  9
$DIMALT
 70
     1
  9
$DIMALTD
 70
     2
  9
$DIMALTF
 40
25.3999999999999986
  9
$DIMLFAC
 40
1.0
  9
$DIMTOFL
 70
     0
  9
$DIMTVP
 40
0.0
  9
$DIMTIX
 70
     0
  9
$DIMSOXD
 70
     0
  9
$DIMSAH
 70
     0
  9
$DIMBLK1
  1

  9
$DIMBLK2
  1

  9
$DIMSTYLE
  2
STANDARD
  9
$DIMCLRD
 70
     0
  9
$DIMCLRE
 70
     0
  9
$DIMCLRT
 70
     0
  9
$DIMTFAC
 40
1.0
  9
$DIMGAP
 40
0.09
  9
$LUNITS
 70
     2
  9
$LUPREC
 70
     4
  9
$SKETCHINC
 40
0.1
  9
$FILLETRAD
 40
0.0
  9
$AUNITS
 70
     0
  9
$AUPREC
 70
     0
  9
$MENU
  1
.
  9
$ELEVATION
 40
0.0
  9
$PELEVATION
 40
0.0
  9
$THICKNESS
 40
0.0
  9
$LIMCHECK
 70
     0
  9
$BLIPMODE
 70
     0
  9
$CHAMFERA
 40
0.0
  9
$CHAMFERB
 40
0.0
  9
$SKPOLY
 70
     0
  9
$TDCREATE
 40
2458060.468368056230247
  9
$TDUPDATE
 40
2460180.9581481488421559
  9
$TDINDWG
 40
0.3260024306
  9
$TDUSRTIMER
 40
0.3260024306
  9
$USRTIMER
 70
     1
  9
$ANGBASE
 50
0.0
  9
$ANGDIR
 70
     0
  9
$PDMODE
 70
     0
  9
$PDSIZE
 40
0.3125
  9
$PLINEWID
 40
0.0
  9
$COORDS
 70
     1
  9
$SPLFRAME
 70
     0
  9
$SPLINETYPE
 70
     6
  9
$SPLINESEGS
 70
     8
  9
$ATTDIA
 70
     1
  9
$ATTREQ
 70
     1
  9
$HANDLING
 70
     1
  9
$HANDSEED
  5
EDBD
  9
$SURFTAB1
 70
     6
  9
$SURFTAB2
 70
     6
  9
$SURFTYPE
 70
     6
  9
$SURFU
 70
     6
  9
$SURFV
 70
     6
  9
$UCSNAME
  2

  9
$UCSORG
 10
0.0
 20
0.0
 30
0.0
  9
$UCSXDIR
 10
1.0
 20
0.0
 30
0.0
  9
$UCSYDIR
 10
0.0
 20
1.0
 30
0.0
  9
$PUCSNAME
  2

  9
$PUCSORG
 10
0.0
 20
0.0
 30
0.0
  9
$PUCSXDIR
 10
1.0
 20
0.0
 30
0.0
  9
$PUCSYDIR
 10
0.0
 20
1.0
 30
0.0
  9
$USERI1
 70
     0
  9
$USERI2
 70
     0
  9
$USERI3
 70
     0
  9
$USERI4
 70
     0
  9
$USERI5
 70
     0
  9
$USERR1
 40
0.0
  9
$USERR2
 40
0.0
  9
$USERR3
 40
0.0
  9
$USERR4
 40
0.0
  9
$USERR5
 40
0.0
  9
$WORLDVIEW
 70
     1
  9
$SHADEDGE
 70
     3
  9
$SHADEDIF
 70
    70
  9
$TILEMODE
 70
     1
  9
$MAXACTVP
 70
    64
  9
$PLIMCHECK
 70
     0
  9
$PEXTMIN
 10
1.0000000000000000E+20
 20
1.0000000000000000E+20
 30
1.0000000000000000E+20
  9
$PEXTMAX
 10
-1.0000000000000000E+20
 20
-1.0000000000000000E+20
 30
-1.0000000000000000E+20
  9
$PLIMMIN
 10
0.0
 20
0.0
  9
$PLIMMAX
 10
12.0
 20
9.0
  9
$UNITMODE
 70
     0
  9
$VISRETAIN
 70
     1
  9
$PLINEGEN
 70
     0
  9
$PSLTSCALE
 70
     1
  0
ENDSEC
  0
SECTION
  2
TABLES
  0
TABLE
  2
VPORT
 70
     1
  0
VPORT
  2
*ACTIVE
 70
     0
 10
0.0
 20
0.0
 11
1.0
 21
1.0
 12
-85.9679550155133256
 22
12.9283793571443901
 13
0.0
 23
0.0
 14
1.0
 24
1.0
 15
0.0
 25
0.0
 16
0.0
 26
0.0
 36
122.0237731519760018
 17
4265.00634765625
 27
104.3040122985839986
 37
0.0
 40
59.3465384474072692
 41
2.5251322751322749
 42
50.0
 43
0.0
 44
0.0
 50
0.0
 51
0.0
 71
     0
 72
   100
 73
     1
 74
     1
 75
     0
 76
     0
 77
     0
 78
     0
  0
ENDTAB
  0
TABLE
  2
LTYPE
 70
     2
  0
LTYPE
  2
CONTINUOUS
 70
     0
  3
Solid line
 72
    65
 73
     0
 40
0.0
  0
LTYPE
  2
PHANTOM2
 70
     0
  3
___ _ _ ___ _ _ ___ _ _ ___ _ _
 72
    65
 73
     6
 40
1.25
 49
0.625
 49
-0.125
 49
0.125
 49
-0.125
 49
0.125
 49
-0.125
  0
ENDTAB
  0
TABLE
  2
LAYER
 70
     2
  0
LAYER
  2
0
 70
     0
 62
   255
  6
CONTINUOUS
  0
LAYER
  2
DEFPOINTS
 70
     0
 62
     7
  6
CONTINUOUS
  0
ENDTAB
  0
TABLE
  2
STYLE
 70
     1
  0
STYLE
  2
STANDARD
 70
     0
 40
0.0
 41
0.8
 50
0.0
 71
     0
 42
0.2
  3
txt
  4

  0
ENDTAB
  0
TABLE
  2
VIEW
 70
     0
  0
ENDTAB
  0
TABLE
  2
UCS
 70
     0
  0
ENDTAB
  0
TABLE
  2
APPID
 70
     9
  0
APPID
  2
ACAD
 70
     0
  0
APPID
  2
ACAD_MLEADERVER
 70
     0
  0
APPID
  2
ACAD_EXEMPT_FROM_CAD_STANDARDS
 70
     0
  0
APPID
  2
ACAD_NAV_VCDISPLAY
 70
     0
  0
APPID
  2
ACAECLAYERSTANDARD
 70
     0
  0
APPID
  2
ACCMTRANSPARENCY
 70
     0
  0
APPID
  2
ACAD_DSTYLE_DIMJAG
 70
     0
  0
APPID
  2
ACAD_DSTYLE_DIMTALN
 70
     0
  0
APPID
  2
ACDBATTR
 70
     0
  0
ENDTAB
  0
TABLE
  2
DIMSTYLE
 70
     1
  0
DIMSTYLE
  2
STANDARD
 70
     0
  3

  4

  5

  6

  7

 40
1.0
 41
0.1875
 42
0.0625
 43
0.38
 44
0.125
 45
0.0
 46
0.0
 47
0.01
 48
0.01
140
0.15625
141
0.09
142
0.0
143
25.3999999999999986
144
1.0
145
0.0
146
1.0
147
0.09
 71
     1
 72
     0
 73
     1
 74
     1
 75
     0
 76
     0
 77
     0
 78
     4
170
     0
171
     2
172
     0
173
     0
174
     0
175
     0
176
     0
177
     0
178
     0
  0
ENDTAB
  0
ENDSEC
  0
SECTION
  2
BLOCKS
  0
BLOCK
  8
0
  2
$MODEL_SPACE
 70
     0
 10
0.0
 20
0.0
 30
0.0
  3
$MODEL_SPACE
  1

  0
ENDBLK
  5
21
  8
0
  0
BLOCK
 67
     1
  8
0
  2
$PAPER_SPACE
 70
     0
 10
0.0
 20
0.0
 30
0.0
  3
$PAPER_SPACE
  1

  0
ENDBLK
  5
1D
 67
     1
  8
0
  0
BLOCK
  8
0
  2
_FILLED
 70
     0
 10
0.0
 20
0.0
 30
0.0
  3
_FILLED
  1

  0
SOLID
  5
E675
  8
0
  6
BYBLOCK
 62
     0
 10
0.0
 20
0.0
 30
0.0
 11
-1.0
 21
0.1666666667
 31
0.0
 12
-1.0
 22
-0.1666666667
 32
0.0
 13
-1.0
 23
-0.1666666667
 33
0.0
  0
ENDBLK
  5
E676
  8
0
  6
BYBLOCK
 62
     0
  0
ENDSEC
  0
SECTION
  2
ENTITIES
  0
ATTDEF
  5
AE4F
  8
DEFPOINTS
 10
4191.0504109736430109
 20
112.5126605886885045
 30
0.0
 40
0.001
  1
K-EX27032T-4
  3

  2
MODELNUMBER
 70
     0
1001
ACDBATTR
1070
     0
1070
     1
  0
ATTDEF
  5
AE50
  8
DEFPOINTS
 10
4191.0504109736430109
 20
112.5109939220217967
 30
0.0
 40
0.001
  1
OCCASIONS
  3

  2
TRADENAME
 70
     0
1001
ACDBATTR
1070
     0
1070
     1
  0
ATTDEF
  5
AE51
  8
DEFPOINTS
 10
4191.0504109736430109
 20
112.5093272553552026
 30
0.0
 40
0.001
  1
SHOWER COLUMN
  3

  2
PRODUCT
 70
     0
1001
ACDBATTR
1070
     0
1070
     1
  0
LINE
  5
E955
  8
0
 10
4172.3617699798123795
 20
143.5120079608327899
 30
0.0
 11
4172.3617699798123795
 21
144.1458662283328067
 31
0.0
  0
ARC
  5
E956
  8
0
 10
4174.0726671190968773
 20
144.1685856396289864
 30
0.0
 40
1.7110479808778649
 50
94.5620325178664558
 51
180.7607996084703075
  0
LINE
  5
E957
  8
0
 10
4173.9365731282687193
 20
145.8742126851834087
 30
0.0
 11
4185.7475967515119919
 21
145.874212685082199
 31
0.0
  0
LINE
  5
E958
  8
0
 10
4171.5743684050130469
 20
143.5120079608327899
 30
0.0
 11
4171.5743684050121374
 21
144.1458662284327943
 31
0.0
  0
ARC
  5
E959
  8
0
 10
4174.0717935902330282
 20
144.1677563729581095
 30
0.0
 40
2.4975211178690762
 50
93.1036181358079489
 51
180.5021895286820097
  0
LINE
  5
E95A
  8
0
 10
4173.9365731294119541
 20
146.661614260083411
 30
0.0
 11
4185.7475967515119919
 21
146.6616142599822012
 31
0.0
  0
LINE
  5
E95B
  8
0
 10
4188.9752710820457651
 20
96.581566742467885
 30
0.0
 11
4188.9752710820457651
 21
95.3798815749328242
 31
0.0
  0
LINE
  5
E95C
  8
0
 10
4189.0422002159457406
 20
96.4041651676389506
 30
0.0
 11
4188.9752710820457651
 21
96.4041651676389506
 31
0.0
  0
LINE
  5
E95D
  8
0
 10
4188.9359010032458173
 20
96.6209368212389563
 30
0.0
 11
4188.9359010032458173
 21
95.3405114962328639
 31
0.0
  0
LINE
  5
E95E
  8
0
 10
4188.9752710820457651
 20
95.5577084747389449
 30
0.0
 11
4189.0422002159457406
 21
95.5577084747389449
 31
0.0
  0
LINE
  5
E95F
  8
0
 10
4189.8177582474472729
 20
96.6207006007389424
 30
0.0
 11
4189.0618851889466896
 21
96.6207006007389424
 31
0.0
  0
LINE
  5
E960
  8
0
 10
4189.0618851889466896
 20
96.6207006007389424
 30
0.0
 11
4189.0422002159457406
 21
96.6010156257389383
 31
0.0
  0
LINE
  5
E961
  8
0
 10
4189.0422002159457406
 20
96.6010156257389383
 30
0.0
 11
4189.0422002159457406
 21
95.3608580167389164
 31
0.0
  0
LINE
  5
E962
  8
0
 10
4189.0422002159457406
 20
95.3608580167389164
 30
0.0
 11
4189.0618851889466896
 21
95.3411730416389389
 31
0.0
  0
LINE
  5
E963
  8
0
 10
4189.0618851889466896
 20
95.3411730416389389
 30
0.0
 11
4189.8177582474472729
 21
95.3411730416389389
 31
0.0
  0
LINE
  5
E964
  8
0
 10
4189.8177582474472729
 20
95.2517817973679257
 30
0.0
 11
4189.8177582474472729
 21
96.7100929287678923
 31
0.0
  0
ARC
  5
E965
  8
0
 10
4189.837443286846792
 20
96.7100929287678923
 30
0.0
 40
0.0196850394000023
 50
91.0000000001320757
 51
180.0000000000023874
  0
LINE
  5
E966
  8
0
 10
4189.8370997355377767
 20
96.729774970041035
 30
0.0
 11
4190.4706573714847764
 21
96.740833759713567
 31
0.0
  0
ARC
  5
E967
  8
0
 10
4190.4672192474163239
 20
96.9378037556900836
 30
0.0
 40
0.1970000000307404
 50
271.0000000001321041
 51
359.9999999644592208
  0
LINE
  5
E968
  8
0
 10
4190.6642192474464537
 20
97.1264050171173494
 30
0.0
 11
4190.6642192474464537
 21
94.6960222216831653
 31
0.0
  0
ARC
  5
E969
  8
0
 10
4190.7035893262691388
 20
94.6960222216831653
 30
0.0
 40
0.0393700788225502
 50
179.9999999999992042
 51
224.9999999767838119
  0
LINE
  5
E96A
  8
0
 10
4190.6757504765464546
 20
94.6681833719831758
 30
0.0
 11
4190.770688018283181
 21
94.5732458301700945
 31
0.0
  0
ARC
  5
E96B
  8
0
 10
4190.8008069395109487
 20
94.6112517203162042
 30
0.0
 40
0.0484932686228742
 50
231.6038668721363933
 51
267.3050557789214281
  0
LINE
  5
E96C
  8
0
 10
4190.798526868045883
 20
94.5628120839029549
 30
0.0
 11
4191.0579482474458928
 21
94.5628120839029549
 31
0.0
  0
LINE
  5
E96D
  8
0
 10
4191.0579482474458928
 20
94.5628120839029549
 30
0.0
 11
4191.0579482474458928
 21
97.2667761866328107
 31
0.0
  0
LINE
  5
E96E
  8
0
 10
4191.0579482474458928
 20
97.2667761866328107
 30
0.0
 11
4190.7990791302509024
 21
97.2667761866328107
 31
0.0
  0
ARC
  5
E96F
  8
0
 10
4190.8035783087134405
 20
97.2156462707749824
 30
0.0
 40
0.0513274868122565
 50
95.0287909899604557
 51
130.1901033976936901
  0
LINE
  5
E970
  8
0
 10
4190.770455359846892
 20
97.2548557232173749
 30
0.0
 11
4190.6748940576471796
 21
97.153362563117355
 31
0.0
  0
ARC
  5
E971
  8
0
 10
4190.7042255097230736
 20
97.1261553872906802
 30
0.0
 40
0.0400070555948961
 50
137.1517119252370094
 51
179.6391773088500088
  0
ARC
  5
E972
  8
0
 10
4189.837443286846792
 20
95.2517817973679257
 30
0.0
 40
0.0196850394000023
 50
180.0
 51
268.9999999999200782
  0
LINE
  5
E973
  8
0
 10
4189.8370997355377767
 20
95.2320997560947262
 30
0.0
 11
4190.4706573714929618
 21
95.2210409664223221
 31
0.0
  0
ARC
  5
E974
  8
0
 10
4190.3100789819091005
 20
94.9052827730762232
 30
0.0
 40
0.3542437802792928
 50
358.6148455874026126
 51
63.0444508637479473
  0
LINE
  5
E975
  8
0
 10
4189.0618851889466896
 20
96.6207006007389424
 30
0.0
 11
4189.0618889959459921
 21
96.3438030776328702
 31
0.0
  0
LINE
  5
E976
  8
0
 10
4189.0618889959459921
 20
96.3438030776328702
 30
0.0
 11
4189.4555860426671643
 21
96.3438030776328702
 31
0.0
  0
ARC
  5
E977
  8
0
 10
4188.7747174636679119
 20
96.1030999842125198
 30
0.0
 40
0.7221634171355759
 50
340.5302979218786845
 51
19.4697020697846597
  0
LINE
  5
E978
  8
0
 10
4189.455586042631694
 20
95.862396890693276
 30
0.0
 11
4189.0618842861467783
 21
95.8623968907576227
 31
0.0
  0
LINE
  5
E979
  8
0
 10
4189.0618842861467783
 20
95.8623968907576227
 30
0.0
 11
4189.0618842861467783
 21
95.3409368212389268
 31
0.0
  0
ARC
  5
E97A
  8
0
 10
4189.868906771120237
 20
96.1730661742900566
 30
0.0
 40
0.8647547022030437
 50
197.0593818849609136
 51
201.0545802138761076
  0
LINE
  5
E97B
  8
0
 10
4189.4555860426471554
 20
96.3438030776907652
 30
0.0
 11
4189.4555860426471554
 21
95.862396890693276
 31
0.0
  0
ARC
  5
E97C
  8
0
 10
4188.3452784146038539
 20
119.3191455410274955
 30
0.0
 40
0.0394161909513393
 50
359.0335810586574894
 51
89.9417307991469812
  0
ARC
  5
E97D
  8
0
 10
4187.0869094379995659
 20
119.3191510114168068
 30
0.0
 40
0.0394107148441702
 50
90.049428827683144
 51
179.9755421229978083
  0
LINE
  5
E97E
  8
0
 10
4187.0474987267461984
 20
119.319167834687093
 30
0.0
 11
4187.0791114414078038
 21
117.5074636251368929
 31
0.0
  0
ARC
  5
E97F
  8
0
 10
4187.1215553623205778
 20
117.5110453484981008
 30
0.0
 40
0.0425947786075091
 50
184.8236017456837885
 51
265.8600751944799754
  0
LINE
  5
E980
  8
0
 10
4187.1184803403457408
 20
117.4685617115953988
 30
0.0
 11
4187.4307015485946977
 21
117.4684972413400033
 31
0.0
  0
LINE
  5
E981
  8
0
 10
4188.0025783292494452
 20
117.4684936223808052
 30
0.0
 11
4188.3137069902031726
 21
117.4685617115953988
 31
0.0
  0
ARC
  5
E982
  8
0
 10
4188.3112738264344443
 20
117.5104194215269047
 30
0.0
 40
0.0419283694727095
 50
273.3268257929158267
 51
355.5794054358808012
  0
LINE
  5
E983
  8
0
 10
4188.3530774636901697
 20
117.5071876915388032
 30
0.0
 11
4188.3846889986916722
 21
119.318480732072203
 31
0.0
  0
LINE
  5
E984
  8
0
 10
4188.3453185005573687
 20
119.3585617115953994
 30
0.0
 11
4188.1169688884601783
 21
119.3585617115953994
 31
0.0
  0
LINE
  5
E985
  8
0
 10
4187.3150150333003694
 20
119.3585617116497986
 30
0.0
 11
4187.0868754385455759
 21
119.3585617115953994
 31
0.0
  0
ARC
  5
E986
  8
0
 10
4187.2087501963733303
 20
119.315395361274696
 30
0.0
 40
0.0433413823579183
 50
95.1509964959451366
 51
175.6046636549889115
  0
ARC
  5
E987
  8
0
 10
4188.2174649845437671
 20
119.3096978092443976
 30
0.0
 40
0.0498153445845473
 50
10.1548770013619496
 51
78.7839241814344007
  0
LINE
  5
E988
  8
0
 10
4188.2664999600456213
 20
119.3184807320871954
 30
0.0
 11
4188.2477392012460768
 21
118.2436443845466982
 31
0.0
  0
ARC
  5
E989
  8
0
 10
4188.2091580930509735
 20
118.243661894362603
 30
0.0
 40
0.0385811121677542
 50
278.9524535905434277
 51
359.9739966134943074
  0
ARC
  5
E98A
  8
0
 10
4188.1851312446824522
 20
118.6909686006182056
 30
0.0
 40
0.4863458601079606
 50
271.4671699040205226
 51
273.5401230546472107
  0
LINE
  5
E98B
  8
0
 10
4187.4307668426572491
 20
118.1660422116451059
 30
0.0
 11
4187.1110575628463266
 21
118.1660422100467969
 31
0.0
  0
LINE
  5
E98C
  8
0
 10
4187.1110575628463266
 20
118.1660422100467969
 30
0.0
 11
4187.0922936221777491
 21
119.3184807232263012
 31
0.0
  0
ARC
  5
E98D
  8
0
 10
4187.1305801886137488
 20
119.3203018595802973
 30
0.0
 40
0.0383298539920005
 50
93.463301395080876
 51
182.7232747773479957
  0
LINE
  5
E98E
  8
0
 10
4187.1655362812998646
 20
119.3187169525871951
 30
0.0
 11
4187.1842970401003186
 21
118.2436443845466982
 31
0.0
  0
ARC
  5
E98F
  8
0
 10
4187.223972990056609
 20
118.2444654039078955
 30
0.0
 40
0.0396844437767257
 50
181.1854594955287041
 51
269.5499995332625076
  0
ARC
  5
E990
  8
0
 10
4187.2982417692855961
 20
117.8075410539933046
 30
0.0
 40
0.4044267622413461
 50
103.5507298362796007
 51
117.5704112669903054
  0
ARC
  5
E991
  8
0
 10
4187.2371151883553466
 20
118.0646079909783026
 30
0.0
 40
0.1401958244550764
 50
91.0408404780026785
 51
103.8806986165774049
  0
LINE
  5
E992
  8
0
 10
4188.0017212628690686
 20
118.1660422118468006
 30
0.0
 11
4188.3211361588473665
 21
118.1660422118468006
 31
0.0
  0
LINE
  5
E993
  8
0
 10
4188.3211361588473665
 20
118.1660422118468006
 30
0.0
 11
4188.3399000994286325
 21
119.318480722846104
 31
0.0
  0
ARC
  5
E994
  8
0
 10
4188.3013231609329523
 20
119.3201773531354064
 30
0.0
 40
0.0386142297368793
 50
357.4817299014089826
 51
83.7450768411346473
  0
ARC
  5
E995
  8
0
 10
4187.313337929039335
 20
119.3194095724934982
 30
0.0
 40
0.0391880425554267
 50
0.9965777143626176
 51
87.5472000969739952
  0
LINE
  5
E996
  8
0
 10
4187.352520043846198
 20
119.3200911577872034
 30
0.0
 11
4187.3712926521038753
 21
118.2443397347797003
 31
0.0
  0
ARC
  5
E997
  8
0
 10
4187.3315816864878798
 20
118.2444481519375046
 30
0.0
 40
0.0396992875802241
 50
272.3476180697392124
 51
359.8316239369661957
  0
ARC
  5
E998
  8
0
 10
4188.1007413818515488
 20
118.2445994123793014
 30
0.0
 40
0.0399869654078645
 50
180.3839025982269106
 51
264.7189464544770203
  0
LINE
  5
E999
  8
0
 10
4188.0607553140462187
 20
118.2443314871467948
 30
0.0
 11
4188.0795160728448536
 21
119.3214645258870945
 31
0.0
  0
ARC
  5
E99A
  8
0
 10
4188.1186773468543834
 20
119.3193823549431016
 30
0.0
 40
0.0392165885538144
 50
92.4968633155357338
 51
176.9564989300195919
  0
LINE
  5
E99B
  8
0
 10
4188.4050770661388015
 20
129.4864174092473945
 30
0.0
 11
4188.7115207501456098
 21
129.4864174081768908
 31
0.0
  0
LINE
  5
E99C
  8
0
 10
4188.7115207501456098
 20
129.6635827639327943
 30
0.0
 11
4188.7115207501456098
 21
128.6793307954328043
 31
0.0
  0
LINE
  5
E99D
  8
0
 10
4188.7115207501456098
 20
128.6793307954328043
 30
0.0
 11
4190.6603104352470837
 21
128.6793307954328043
 31
0.0
  0
LINE
  5
E99E
  8
0
 10
4191.0540404352459518
 20
127.7505795569328058
 30
0.0
 11
4191.0540404352459518
 21
130.4599701018327949
 31
0.0
  0
LINE
  5
E99F
  8
0
 10
4191.0540404352459518
 20
130.4599701018327949
 30
0.0
 11
4190.7900614335922
 21
130.4553624934625873
 31
0.0
  0
ARC
  5
E9A0
  8
0
 10
4190.7907484049756022
 20
130.4160045434369977
 30
0.0
 40
0.0393639449229987
 50
90.9999647963052922
 51
136.6763126495534948
  0
LINE
  5
E9A1
  8
0
 10
4190.7621115616348106
 20
130.4430129007249093
 30
0.0
 11
4190.6699365413423948
 21
130.3452801290532079
 31
0.0
  0
ARC
  5
E9A2
  8
0
 10
4190.7016504071152667
 20
130.3187568402618126
 30
0.0
 40
0.0413431267640347
 50
140.0932157223801937
 51
179.2921663115807007
  0
LINE
  5
E9A3
  8
0
 10
4190.6603104352470837
 20
130.319267581432797
 30
0.0
 11
4190.6603104353471281
 21
127.8848871775311977
 31
0.0
  0
ARC
  5
E9A4
  8
0
 10
4190.6996805140470315
 20
127.8848871775328035
 30
0.0
 40
0.0393700786999958
 50
180.0000000023572113
 51
224.9999998448674887
  0
LINE
  5
E9A5
  8
0
 10
4190.6718416643470846
 20
127.8570483279836054
 30
0.0
 11
4190.762164423043032
 21
127.766725568798293
 31
0.0
  0
ARC
  5
E9A6
  8
0
 10
4190.7900032721536263
 20
127.794564417758707
 30
0.0
 40
0.0393700778673784
 50
224.9999998448645897
 51
269.0000009927707083
  0
LINE
  5
E9A7
  8
0
 10
4190.7893161702359066
 20
127.7552003361330009
 30
0.0
 11
4191.0540404352459518
 21
127.7505795569328058
 31
0.0
  0
LINE
  5
E9A8
  8
0
 10
4188.7115207501456098
 20
128.8564961497328056
 30
0.0
 11
4188.4034393106530842
 21
128.8564961497328056
 31
0.0
  0
LINE
  5
E9A9
  8
0
 10
4188.7115207501456098
 20
129.6635827639327943
 30
0.0
 11
4190.660265002145934
 21
129.6635827639327943
 31
0.0
  0
LINE
  5
E9AA
  8
0
 10
4191.0540404352459518
 20
129.5384611586327992
 30
0.0
 11
4190.78939870884642
 21
129.5356199299328068
 31
0.0
  0
ARC
  5
E9AB
  8
0
 10
4190.7899731629513553
 20
129.482113316416303
 30
0.0
 40
0.053509697135426
 50
90.6151114608049113
 51
121.3847141079021981
  0
LINE
  5
E9AC
  8
0
 10
4190.7621062814641846
 20
129.5277939972752961
 30
0.0
 11
4190.6717141228291439
 21
129.4989571600916065
 31
0.0
  0
ARC
  5
E9AD
  8
0
 10
4190.6790337613920201
 20
129.4811173622260014
 30
0.0
 40
0.0192830364978149
 50
112.3082588854741033
 51
166.1615412007076884
  0
LINE
  5
E9AE
  8
0
 10
4191.0540404352459518
 20
127.8596274851328047
 30
0.0
 11
4190.7893161702459111
 21
127.8625169477328001
 31
0.0
  0
ARC
  5
E9AF
  8
0
 10
4190.7907146445695616
 20
127.9047440327325944
 30
0.0
 40
0.0422502359521094
 50
227.4882646515507929
 51
268.1031747394841886
  0
LINE
  5
E9B0
  8
0
 10
4190.7621645508115762
 20
127.8735996177532002
 30
0.0
 11
4190.6718416624471502
 21
127.9515729672328064
 31
0.0
  0
ARC
  5
E9B1
  8
0
 10
4190.6936669113838434
 20
127.976854932627802
 30
0.0
 40
0.0333993901948304
 50
182.9047894967474122
 51
229.196829057949401
  0
ARC
  5
E9B2
  8
0
 10
4189.857752012320816
 20
96.0369857199081167
 30
0.0
 40
0.8529565240005602
 50
158.9175864128642104
 51
162.969106184168993
  0
LINE
  5
E9B3
  8
0
 10
4190.7893161702459111
 20
130.4553494853005873
 30
0.0
 11
4190.7893161702459111
 21
127.7552003361328019
 31
0.0
  0
LINE
  5
E9B4
  8
0
 10
4190.7931785493474308
 20
97.2656914671392769
 30
0.0
 11
4190.7931785493474308
 21
94.5633622145217743
 31
0.0
  0
ARC
  5
E9B5
  8
0
 10
4188.9358993874666339
 20
95.3798854463359049
 30
0.0
 40
0.0393739501362084
 50
270.0023512313928791
 51
0.6132982701123493
  0
ARC
  5
E9B6
  8
0
 10
4188.9359010029920682
 20
96.5815667422134538
 30
0.0
 40
0.0393700790544713
 50
0.0000003703285204
 51
89.9999996296527343
  0
LINE
  5
E9B7
  8
0
 10
4188.9359010032458173
 20
96.6209368212678896
 30
0.0
 11
4188.6088721082669508
 21
96.620936822550604
 31
0.0
  0
LINE
  5
E9B8
  8
0
 10
4186.471633664453293
 20
96.4188652835807147
 30
0.0
 11
4184.1029783299336486
 21
96.4193480678168839
 31
0.0
  0
ARC
  5
E9B9
  8
0
 10
4184.1120937367741135
 20
94.7740853273638777
 30
0.0
 40
1.645287991740271
 50
90.3174380501588558
 51
161.715861950681898
  0
LINE
  5
E9BA
  8
0
 10
4182.5498724397702972
 20
95.2902608740051278
 30
0.0
 11
4182.4509036429735716
 21
94.963947759805464
 31
0.0
  0
ARC
  5
E9BB
  8
0
 10
4182.4884020848121509
 20
94.951793337013612
 30
0.0
 40
0.0394187836614514
 50
162.0457826380740016
 51
207.8919603758228902
  0
LINE
  5
E9BC
  8
0
 10
4182.4535625307789815
 20
94.9333530013284985
 30
0.0
 11
4182.4861138148053215
 21
94.8728802092135339
 31
0.0
  0
LINE
  5
E9BD
  8
0
 10
4182.4861188265331293
 20
94.8728772035076844
 30
0.0
 11
4183.5270840281336859
 21
94.5353158555077329
 31
0.0
  0
LINE
  5
E9BE
  8
0
 10
4183.5270840281336859
 20
94.5353158555077329
 30
0.0
 11
4183.5868810464417038
 21
94.5658272463172409
 31
0.0
  0
ARC
  5
E9BF
  8
0
 10
4183.5689875404550548
 20
94.6008954053486377
 30
0.0
 40
0.0393694467117342
 50
297.0329190250462261
 51
342.0336809756715866
  0
LINE
  5
E9C0
  8
0
 10
4183.6064372544306025
 20
94.588751589742742
 30
0.0
 11
4183.7055457075912273
 21
94.8943872601115572
 31
0.0
  0
ARC
  5
E9C1
  8
0
 10
4184.1242950426840252
 20
94.7673539209062028
 30
0.0
 40
0.4375939612349197
 50
92.792180298496092
 51
163.1241082526298101
  0
LINE
  5
E9C2
  8
0
 10
4184.1029783299336486
 20
95.2044283684168988
 30
0.0
 11
4185.7397515871871292
 21
95.2041323621915012
 31
0.0
  0
LINE
  5
E9C3
  8
0
 10
4186.3632509118542657
 20
95.9805115031448395
 30
0.0
 11
4184.1029783299336486
 21
95.9809816560389493
 31
0.0
  0
ARC
  5
E9C4
  8
0
 10
4184.1029783299336486
 20
94.7857570471018107
 30
0.0
 40
1.1952246089371421
 50
90.0
 51
161.9937697936956909
  0
LINE
  5
E9C5
  8
0
 10
4182.9662923455498458
 20
95.1552253660631635
 30
0.0
 11
4182.8671124169595714
 21
94.8289787844071839
 31
0.0
  0
LINE
  5
E9C6
  8
0
 10
4182.8671124169595714
 20
94.8289787844071839
 30
0.0
 11
4182.8620595209258681
 21
94.7509681835210245
 31
0.0
  0
ARC
  5
E9C7
  8
0
 10
4182.9226892244314513
 20
94.7980777015917369
 30
0.0
 40
0.1973325118824516
 50
180.8090285898963998
 51
203.8706987227411105
  0
LINE
  5
E9C8
  8
0
 10
4182.742236333033361
 20
94.7182223684457654
 30
0.0
 11
4183.2777742012776798
 21
94.544376177776968
 31
0.0
  0
ARC
  5
E9C9
  8
0
 10
4183.1758347807472092
 20
94.7175162548745107
 30
0.0
 40
0.2009207101202608
 50
300.4882357664019992
 51
323.167646725400175
  0
LINE
  5
E9CA
  8
0
 10
4183.4716963986866176
 20
94.5532768044708831
 30
0.0
 11
4183.5244967636335787
 21
94.5859007239077556
 31
0.0
  0
LINE
  5
E9CB
  8
0
 10
4183.5244967636335787
 20
94.5859007239077556
 30
0.0
 11
4183.5413621487332421
 21
94.6103368401577427
 31
0.0
  0
LINE
  5
E9CC
  8
0
 10
4183.5413621487332421
 20
94.6103368401577427
 30
0.0
 11
4183.6403309483839621
 21
94.9155349236400951
 31
0.0
  0
ARC
  5
E9CD
  8
0
 10
4184.1235783148431437
 20
94.7675796795751353
 30
0.0
 40
0.5053897223288183
 50
92.3360571333699482
 51
162.9770486578536008
  0
LINE
  5
E9CE
  8
0
 10
4184.1029783299336486
 20
95.2725493935752183
 30
0.0
 11
4185.8352979406936356
 21
95.273550851405318
 31
0.0
  0
LINE
  5
E9CF
  8
0
 10
4187.2239792940899861
 20
119.3585617116279991
 30
0.0
 11
4187.2239747042121962
 21
119.7628061816358951
 31
0.0
  0
LINE
  5
E9D0
  8
0
 10
4187.2636371105372746
 20
119.4797499560359029
 30
0.0
 11
4187.27572973619408
 21
119.3585617116404052
 31
0.0
  0
LINE
  5
E9D1
  8
0
 10
4188.1568967488092312
 20
119.3585617115953994
 30
0.0
 11
4188.1690947677134318
 21
119.4797499560359029
 31
0.0
  0
LINE
  5
E9D2
  8
0
 10
4188.1690947677134318
 20
119.4797499560359029
 30
0.0
 11
4187.2636371105372746
 21
119.4797499560359029
 31
0.0
  0
LINE
  5
E9D3
  8
0
 10
4187.2635170753701459
 20
119.500361942735907
 30
0.0
 11
4188.1689438220118973
 21
119.500361942735907
 31
0.0
  0
ARC
  5
E9D4
  8
0
 10
4188.1688049392141693
 20
119.5126108152379061
 30
0.0
 40
0.0122496598320506
 50
270.6496154802260889
 51
352.7808400811554179
  0
ARC
  5
E9D5
  8
0
 10
4191.9413050633102102
 20
119.2253745381374017
 30
0.0
 40
3.7711850370588929
 50
171.0452279610684911
 51
175.6552313867398993
  0
ARC
  5
E9D6
  8
0
 10
4185.2881069585473597
 20
120.2737546410194938
 30
0.0
 40
2.9641060376713071
 50
351.0452279610685764
 51
356.9081033948190225
  0
ARC
  5
E9D7
  8
0
 10
4189.2383671840680108
 20
120.1647171387408974
 30
0.0
 40
2.054095781685731
 50
181.4154490499331871
 51
191.283468582527604
  0
ARC
  5
E9D8
  8
0
 10
4184.3957171190313602
 20
119.3235565135733935
 30
0.0
 40
2.8621637337907151
 50
3.7581743127863212
 51
8.8279383357924921
  0
ARC
  5
E9D9
  8
0
 10
4187.2634015911717142
 20
119.5120727005868986
 30
0.0
 40
0.0117113272537165
 50
184.4774132670061988
 51
270.5649969691912133
  0
ARC
  5
E9DA
  8
0
 10
4187.3213690750926617
 20
119.4675552803774963
 30
0.0
 40
0.0330404173659676
 50
21.6591106359900891
 51
83.18051295656538
  0
ARC
  5
E9DB
  8
0
 10
4188.1114134763192851
 20
119.4674297000210004
 30
0.0
 40
0.0331592640017986
 50
96.7083632381347513
 51
158.1888859380566998
  0
LINE
  5
E9DC
  8
0
 10
4188.2082266727120441
 20
119.7593483409090993
 30
0.0
 11
4188.2082266727120441
 21
119.3585617115953994
 31
0.0
  0
LINE
  5
E9DD
  8
0
 10
4187.1848981776111032
 20
120.1139774120358936
 30
0.0
 11
4187.1851293231120508
 21
122.8220266305359019
 31
0.0
  0
ARC
  5
E9DE
  8
0
 10
4182.9099854040814535
 20
122.8223915353803051
 30
0.0
 40
4.2751439346040341
 50
359.9951095196198025
 51
1.5827597789597601
  0
ARC
  5
E9DF
  8
0
 10
4187.0741898396972829
 20
122.9374543268623938
 30
0.0
 40
0.1093501293870452
 50
1.582759778958946
 51
72.4875144672405867
  0
ARC
  5
E9E0
  8
0
 10
4187.0723451303829279
 20
122.9323782562167935
 30
0.0
 40
0.1147462634554628
 50
72.3717952026814402
 51
106.4709338704565056
  0
ARC
  5
E9E1
  8
0
 10
4187.0369143045481906
 20
123.0546158620055053
 30
0.0
 40
0.0127431835373434
 50
199.5881665698011034
 51
266.9654693526716187
  0
ARC
  5
E9E2
  8
0
 10
4187.0360870428903581
 20
123.0553349306347002
 30
0.0
 40
0.0134452505838041
 50
270.6505854364024799
 51
286.0806658986886077
  0
LINE
  5
E9E3
  8
0
 10
4188.2481535844417522
 20
122.8220266303553956
 30
0.0
 11
4188.2478981729591396
 21
120.1138779093358977
 31
0.0
  0
ARC
  5
E9E4
  8
0
 10
4185.7475967515138109
 20
144.2994095355842887
 30
0.0
 40
2.3622047243979871
 50
359.9999999999797069
 51
90.0000000000521254
  0
LINE
  5
E9E5
  8
0
 10
4188.1098014759127182
 20
144.2994095355834077
 30
0.0
 11
4188.1098014759090802
 21
130.3230315828051005
 31
0.0
  0
ARC
  5
E9E6
  8
0
 10
4185.7475967518212201
 20
144.2994095357915114
 30
0.0
 40
1.5748031492907151
 50
359.9999999924293093
 51
90.0000000112557927
  0
LINE
  5
E9E7
  8
0
 10
4187.3223999011115666
 20
144.2994095355834077
 30
0.0
 11
4187.3223998999928881
 21
130.3230315828051005
 31
0.0
  0
ARC
  5
E9E8
  8
0
 10
4185.4625140749785714
 20
127.898695469247798
 30
0.0
 40
0.0118099271749056
 50
107.8290119590420062
 51
197.9961927197826981
  0
ARC
  5
E9E9
  8
0
 10
4197.9542012865204015
 20
89.0592246165096952
 30
0.0
 40
40.810667086557487
 50
107.0523159411328038
 51
107.8290119590420062
  0
ARC
  5
E9EA
  8
0
 10
4186.5561293926366488
 20
126.2192495334726061
 30
0.0
 40
1.9418686136509089
 50
99.3706005867081643
 51
107.0523159411328038
  0
ARC
  5
E9EB
  8
0
 10
4186.3126919956393976
 20
127.5684792800806946
 30
0.0
 40
0.5730875457799001
 50
64.5141661820238426
 51
88.5778525199409188
  0
ARC
  5
E9EC
  8
0
 10
4186.3386713410145603
 20
127.361652920537793
 30
0.0
 40
0.7798259961753347
 50
90.8637837661505756
 51
97.2724572893408919
  0
ARC
  5
E9ED
  8
0
 10
4186.3691552075551954
 20
127.6699087751041048
 30
0.0
 40
0.4572912147575425
 50
35.3009269268262926
 51
65.4319811737946111
  0
ARC
  5
E9EE
  8
0
 10
4184.9472521753996261
 20
126.7435363761814955
 30
0.0
 40
2.1540702889661532
 50
18.1299966306454898
 51
33.5547722145190619
  0
ARC
  5
E9EF
  8
0
 10
4118.669288240388596
 20
103.6727773908766039
 30
0.0
 40
72.3322576673142663
 50
16.7761226586756287
 51
19.1609031861954016
  0
ARC
  5
E9F0
  8
0
 10
4185.0743506817443631
 20
123.6718642356070035
 30
0.0
 40
2.9810698235305071
 50
5.7717043228325133
 51
17.1366406553314512
  0
ARC
  5
E9F1
  8
0
 10
4187.0680714912587064
 20
123.8848631066287993
 30
0.0
 40
0.976102783905397
 50
347.1881951725758881
 51
5.1013157639363902
  0
ARC
  5
E9F2
  8
0
 10
4187.6407301703347912
 20
123.787703736095807
 30
0.0
 40
0.3974663832533639
 50
300.5691346797186156
 51
342.5347009896042891
  0
ARC
  5
E9F3
  8
0
 10
4186.6186320949873334
 20
125.5866670792569977
 30
0.0
 40
2.4664655705708358
 50
289.7802505875899897
 51
299.7590889385709829
  0
ARC
  5
E9F4
  8
0
 10
4188.3614640673667964
 20
121.0761685728925983
 30
0.0
 40
2.3704231418290478
 50
112.5268153804412066
 51
122.4615674979230988
  0
ARC
  5
E9F5
  8
0
 10
4177.1375046862440286
 20
137.5576595782297886
 30
0.0
 40
17.5712258665527692
 50
304.3018278675447164
 51
304.4969191289188757
  0
LINE
  5
E9F6
  8
0
 10
4187.024908708912335
 20
123.0503433188569034
 30
0.0
 11
4185.4513175604133721
 21
127.8949553369358938
 31
0.0
  0
ARC
  5
E9F7
  8
0
 10
4187.8528497296620117
 20
125.2268710414647046
 30
0.0
 40
0.1312120487052135
 50
199.1894635639935984
 51
285.8478921925762961
  0
LINE
  5
E9F8
  8
0
 10
4187.8886816994481705
 20
125.100646354232893
 30
0.0
 11
4187.9878474578981695
 21
125.1309542085056989
 31
0.0
  0
ARC
  5
E9F9
  8
0
 10
4187.9912996085977284
 20
125.119658946909297
 30
0.0
 40
0.0118110236213703
 50
17.9946312528756813
 51
106.9946310810240959
  0
LINE
  5
E9FA
  8
0
 10
4188.0025329015234092
 20
125.1233077013598063
 30
0.0
 11
4188.4822348893030721
 21
123.6464659410436013
 31
0.0
  0
ARC
  5
E9FB
  8
0
 10
4188.4710015954187838
 20
123.6428171862819028
 30
0.0
 40
0.0118110246289339
 50
289.1431291818893783
 51
17.9946312528993708
  0
ARC
  5
E9FC
  8
0
 10
4188.5562645462996443
 20
123.3519034377254968
 30
0.0
 40
0.2913548152833712
 50
106.2213744581408008
 51
131.8279168602597906
  0
ARC
  5
E9FD
  8
0
 10
4188.5893091930429364
 20
123.3389566134915043
 30
0.0
 40
0.3234349398124769
 50
134.6615010414301139
 51
163.6274141649199976
  0
ARC
  5
E9FE
  8
0
 10
4188.863195177344096
 20
123.2490511634497068
 30
0.0
 40
0.6116243757346834
 50
162.7790305169741885
 51
175.741559496348998
  0
ARC
  5
E9FF
  8
0
 10
4190.0206073346971607
 20
123.1573719506381934
 30
0.0
 40
1.772657368791869
 50
175.5643698909341879
 51
180.9238248700999065
  0
LINE
  5
EA00
  8
0
 10
4188.248180385512569
 20
123.1287912415358932
 30
0.0
 11
4188.2481535844417522
 21
122.8220266303553956
 31
0.0
  0
LINE
  5
EA01
  8
0
 10
4188.4571136919139462
 20
123.7238056943047013
 30
0.0
 11
4188.5277056130598794
 21
123.7467677501665975
 31
0.0
  0
ARC
  5
EA02
  8
0
 10
4188.5200976734986398
 20
123.7661323022329043
 30
0.0
 40
0.0208054469092863
 50
291.4488563442349118
 51
13.3669487444522392
  0
LINE
  5
EA03
  8
0
 10
4188.5403394883860528
 20
123.7709422451799952
 30
0.0
 11
4188.2345713244621948
 21
124.7126771545859043
 31
0.0
  0
ARC
  5
EA04
  8
0
 10
4188.2163247001954005
 20
124.7057467362677983
 30
0.0
 40
0.0195184526851012
 50
20.7977387335732509
 51
105.6114009536941012
  0
LINE
  5
EA05
  8
0
 10
4188.2110720607115582
 20
124.7245451344358997
 30
0.0
 11
4188.139391567849998
 21
124.7019657039468967
 31
0.0
  0
LINE
  5
EA06
  8
0
 10
4171.492006200312062
 20
143.3021969371328055
 30
0.0
 11
4172.4441321810118097
 21
143.3021969371328055
 31
0.0
  0
ARC
  5
EA07
  8
0
 10
4172.4441321810118097
 20
143.2821969335327879
 30
0.0
 40
0.0200000036000105
 50
0.0000103132696634
 51
90.0
  0
LINE
  5
EA08
  8
0
 10
4172.4641321846120263
 20
143.2821969371327953
 30
0.0
 11
4172.4641322040433806
 21
143.1742441812328082
 31
0.0
  0
LINE
  5
EA09
  8
0
 10
4172.4641322040433806
 20
143.1742441812328082
 30
0.0
 11
4172.4227936019133267
 21
143.13290559855011
 31
0.0
  0
LINE
  5
EA0A
  8
0
 10
4172.4227936019133267
 20
143.13290559855011
 30
0.0
 11
4172.4227914251468974
 21
142.6343017087328064
 31
0.0
  0
ARC
  5
EA0B
  8
0
 10
4172.2357664079027018
 20
142.7653784720021122
 30
0.0
 40
0.2283844892814416
 50
291.9135985873321033
 51
324.9752498300787238
  0
ARC
  5
EA0C
  8
0
 10
4172.3471243104431778
 20
142.4885523154848102
 30
0.0
 40
0.069999999926385
 50
111.9122122313551984
 51
230.6290105484789876
  0
ARC
  5
EA0D
  8
0
 10
4171.9680691890443995
 20
142.0266063831882093
 30
0.0
 40
0.5275590594359582
 50
35.3455732911661116
 51
50.6290103688145976
  0
LINE
  5
EA0E
  8
0
 10
4172.6570455704122651
 20
142.3317244962327948
 30
0.0
 11
4171.2790928145122962
 21
142.3317244962327948
 31
0.0
  0
LINE
  5
EA0F
  8
0
 10
4171.2790928145122962
 20
142.3317244962327948
 30
0.0
 11
4171.2790928145122962
 21
141.8592835513327941
 31
0.0
  0
LINE
  5
EA10
  8
0
 10
4171.2790928145122962
 20
141.8592835513327941
 30
0.0
 11
4171.2495683469123833
 21
141.8592835513327941
 31
0.0
  0
LINE
  5
EA11
  8
0
 10
4171.2495683469123833
 20
141.8592835513327941
 30
0.0
 11
4171.2495652554116532
 21
141.2647953623327908
 31
0.0
  0
LINE
  5
EA12
  8
0
 10
4172.6865731294119541
 20
141.2647953623327908
 30
0.0
 11
4172.6865731294119541
 21
141.8592835513327941
 31
0.0
  0
LINE
  5
EA13
  8
0
 10
4172.6865731294119541
 20
141.8592835513327941
 30
0.0
 11
4172.6570455704122651
 21
141.8592835513327941
 31
0.0
  0
LINE
  5
EA14
  8
0
 10
4172.6570455704122651
 20
141.8592835513327941
 30
0.0
 11
4172.6570455704122651
 21
142.3317244962327948
 31
0.0
  0
ARC
  5
EA15
  8
0
 10
4171.9682332799884534
 20
142.0264471073784875
 30
0.0
 40
0.5277862739822355
 50
129.3737916532444103
 51
144.6611414080020097
  0
ARC
  5
EA16
  8
0
 10
4171.5890101413433513
 20
142.4885517115434936
 30
0.0
 40
0.0700020280733381
 50
309.3737916532444956
 51
68.0849856609289787
  0
ARC
  5
EA17
  8
0
 10
4171.7004073490688825
 20
142.7654280684155026
 30
0.0
 40
0.2284437038560342
 50
215.0295316714880869
 51
248.0828131730094128
  0
LINE
  5
EA18
  8
0
 10
4171.5133447829903162
 20
142.6343017087328064
 30
0.0
 11
4171.5133447830112345
 21
143.13290559855011
 31
0.0
  0
LINE
  5
EA19
  8
0
 10
4171.5133447830112345
 20
143.13290559855011
 30
0.0
 11
4171.4720062003116254
 21
143.1742441812328082
 31
0.0
  0
LINE
  5
EA1A
  8
0
 10
4171.4720062003116254
 20
143.1742441812328082
 30
0.0
 11
4171.4720062003116254
 21
143.2821969371327953
 31
0.0
  0
ARC
  5
EA1B
  8
0
 10
4171.492006200312062
 20
143.2821969371327953
 30
0.0
 40
0.0199999999999925
 50
89.9999999999478888
 51
180.0000000000098055
  0
LINE
  5
EA1C
  8
0
 10
4171.6151370618654255
 20
142.5534952867328116
 30
0.0
 11
4172.3210013229263495
 21
142.5534952867328116
 31
0.0
  0
ARC
  5
EA1D
  8
0
 10
4190.6868433328118044
 20
95.5370863487224256
 30
0.0
 40
0.0227537612264318
 50
186.1199387285307125
 51
240.8224217933266971
  0
LINE
  5
EA1E
  8
0
 10
4190.6757504642464482
 20
95.5172197456678731
 30
0.0
 11
4190.7706270277458316
 21
95.4900063798679071
 31
0.0
  0
ARC
  5
EA1F
  8
0
 10
4190.7986530424823286
 20
95.5373584971537753
 30
0.0
 40
0.0550243248158717
 50
239.3802309465883127
 51
269.9214345642175772
  0
LINE
  5
EA20
  8
0
 10
4190.798577591745925
 20
95.4823342240678983
 30
0.0
 11
4191.0579482474458928
 21
95.4823635934803292
 31
0.0
  0
LINE
  5
EA21
  8
0
 10
4191.0579482474458928
 20
97.0793255867678653
 30
0.0
 11
4190.7985775817469403
 21
97.0793255868678955
 31
0.0
  0
ARC
  5
EA22
  8
0
 10
4190.7985775817296599
 20
97.0359335158541398
 30
0.0
 40
0.0433920710137592
 50
89.9999999779052757
 51
129.9959973327941896
  0
LINE
  5
EA23
  8
0
 10
4190.7706880183459361
 20
97.0691757191679017
 30
0.0
 11
4190.675759891436428
 21
96.9872283858333333
 31
0.0
  0
ARC
  5
EA24
  8
0
 10
4190.6897965511516304
 20
96.9655629140922315
 30
0.0
 40
0.025815121184386
 50
122.9384580942274994
 51
172.2168320640280967
  0
LINE
  5
EA25
  8
0
 10
4185.571432585781622
 20
127.5251574412018982
 30
0.0
 11
4185.560849011112623
 21
127.5133669542359058
 31
0.0
  0
ARC
  5
EA26
  8
0
 10
4185.566908834145579
 20
127.5079274342441948
 30
0.0
 40
0.0081430849766303
 50
138.0876837264625863
 51
192.5148055398414044
  0
ARC
  5
EA27
  8
0
 10
4227.2242059224527111
 20
140.954740216963387
 30
0.0
 40
43.7819256552899603
 50
197.8888784821162119
 51
198.0274763675849101
  0
ARC
  5
EA28
  8
0
 10
4185.6007166845220127
 20
127.4093543276341052
 30
0.0
 40
0.0099195637763887
 50
203.4015493098451941
 51
251.2287761567370978
  0
LINE
  5
EA29
  8
0
 10
4185.5975246660036646
 20
127.3999623755849058
 30
0.0
 11
4185.6131787999420339
 21
127.396633452601705
 31
0.0
  0
LINE
  5
EA2A
  8
0
 10
4185.6236855934430423
 20
127.364286207820598
 30
0.0
 11
4185.6131742038896846
 21
127.3527479006064027
 31
0.0
  0
ARC
  5
EA2B
  8
0
 10
4185.6189198156689599
 20
127.3475136524183
 30
0.0
 40
0.0077723489891641
 50
137.6665020949297968
 51
185.5592301742208861
  0
LINE
  5
EA2C
  8
0
 10
4185.6240301648940658
 20
127.3632253763646958
 30
0.0
 11
4185.6131740677055859
 21
127.3513106333364959
 31
0.0
  0
ARC
  5
EA2D
  8
0
 10
4185.6188945075537049
 20
127.3460984646146983
 30
0.0
 40
0.0077388716770057
 50
137.6618382672772043
 51
175.0909849563171861
  0
ARC
  5
EA2E
  8
0
 10
4185.6192573778826045
 20
127.3460672981383937
 30
0.0
 40
0.0081030779716245
 50
175.0909849563238083
 51
197.6618207477256135
  0
LINE
  5
EA2F
  8
0
 10
4185.611536247703043
 20
127.3436088389969996
 30
0.0
 11
4185.643999504994099
 21
127.2436692665650071
 31
0.0
  0
ARC
  5
EA30
  8
0
 10
4185.6514847327180178
 20
127.2460952547056934
 30
0.0
 40
0.0078685487017575
 50
197.9535975475635894
 51
258.0074371239987272
  0
LINE
  5
EA31
  8
0
 10
4185.6498497685051916
 20
127.2383984403848984
 30
0.0
 11
4185.6656668614887167
 21
127.2350385592796016
 31
0.0
  0
LINE
  5
EA32
  8
0
 10
4185.7245326218462651
 20
127.0538086569974041
 30
0.0
 11
4185.7135852502069611
 21
127.0417640972365945
 31
0.0
  0
ARC
  5
EA33
  8
0
 10
4185.7193662668341858
 20
127.0365096970152052
 30
0.0
 40
0.0078120979855571
 50
137.7321147341089045
 51
198.2571650829513032
  0
ARC
  5
EA34
  8
0
 10
4174.8226115226061665
 20
123.4417879375955067
 30
0.0
 40
11.4665632001954503
 50
17.7320971624288184
 51
18.257165082951321
  0
ARC
  5
EA35
  8
0
 10
4185.7518508645925976
 20
126.9365005026748037
 30
0.0
 40
0.0078120990077966
 50
197.73209716247149
 51
258.2571430820842124
  0
LINE
  5
EA36
  8
0
 10
4185.7502609486109577
 20
126.9288519042358985
 30
0.0
 11
4185.7662097218708368
 21
126.9255366289355038
 31
0.0
  0
ARC
  5
EA37
  8
0
 10
4185.7195217745183982
 20
127.0387228884853954
 30
0.0
 40
0.0079626100391711
 50
138.2040769201528008
 51
187.8989755050781127
  0
LINE
  5
EA38
  8
0
 10
4185.7135854622047191
 20
127.0440298042355067
 30
0.0
 11
4185.7239449502385469
 21
127.055617920431402
 31
0.0
  0
LINE
  5
EA39
  8
0
 10
4186.8631525082701046
 20
123.5483418201693979
 30
0.0
 11
4186.8526038363906991
 21
123.5364891285064033
 31
0.0
  0
ARC
  5
EA3A
  8
0
 10
4186.8587779921554102
 20
123.5309942464034947
 30
0.0
 40
0.008265224058026
 50
138.3315207949198964
 51
199.0616375425670128
  0
LINE
  5
EA3B
  8
0
 10
4186.8509659686033046
 20
123.5282949470969953
 30
0.0
 11
4186.8833835788709621
 21
123.4285523278615955
 31
0.0
  0
ARC
  5
EA3C
  8
0
 10
4186.8908876841196616
 20
123.4307313371757004
 30
0.0
 40
0.0078140691817038
 50
196.192009619849614
 51
258.1232043777239937
  0
LINE
  5
EA3D
  8
0
 10
4186.8892794871126171
 20
123.4230845483358934
 30
0.0
 11
4186.9049050557241571
 21
123.4197983332705064
 31
0.0
  0
LINE
  5
EA3E
  8
0
 10
4186.8528155248923213
 20
123.5801662708558979
 30
0.0
 11
4186.836878363012147
 21
123.5837201434872981
 31
0.0
  0
ARC
  5
EA3F
  8
0
 10
4186.8386158476841956
 20
123.5915118055283983
 30
0.0
 40
0.0079830351588147
 50
191.5143621711584103
 51
257.4291250365931774
  0
LINE
  5
EA40
  8
0
 10
4186.8307934735121307
 20
123.5899182834359067
 30
0.0
 11
4186.7986407175221757
 21
123.6889141872818954
 31
0.0
  0
ARC
  5
EA41
  8
0
 10
4186.8063670901010482
 20
123.6912960069883951
 30
0.0
 40
0.0080851653254331
 50
138.8548281515261067
 51
197.1330340958598981
  0
LINE
  5
EA42
  8
0
 10
4186.8002785977068925
 20
123.6966157963364026
 30
0.0
 11
4186.8110040770379783
 21
123.7088910942972007
 31
0.0
  0
LINE
  5
EA43
  8
0
 10
4186.7102697982836617
 20
124.0190215229985
 30
0.0
 11
4186.699867551389616
 21
124.0075995997063956
 31
0.0
  0
ARC
  5
EA44
  8
0
 10
4186.7056203867914519
 20
124.0023603407262982
 30
0.0
 40
0.0077810635396736
 50
137.6750477586901127
 51
188.3142134348790933
  0
LINE
  5
EA45
  8
0
 10
4186.7107895549697787
 20
124.0174213490989956
 30
0.0
 11
4186.6998673392909041
 21
124.0053338927064033
 31
0.0
  0
ARC
  5
EA46
  8
0
 10
4186.7057248001619882
 20
124.0000410958684967
 30
0.0
 40
0.0078945263461834
 50
137.8990587031144059
 51
171.300311678387402
  0
ARC
  5
EA47
  8
0
 10
4186.7057540062032785
 20
124.0000366268788952
 30
0.0
 40
0.0079240723213682
 50
171.3003116783708037
 51
202.3994808522683115
  0
LINE
  5
EA48
  8
0
 10
4186.6984278092068053
 20
123.9970170640386016
 30
0.0
 11
4186.7306920308092231
 21
123.8976908900994971
 31
0.0
  0
ARC
  5
EA49
  8
0
 10
4186.7381909324039952
 20
123.9001432555912032
 30
0.0
 40
0.0078954427588688
 50
195.8758271356286116
 51
257.9529491508317278
  0
LINE
  5
EA4A
  8
0
 10
4186.7365430361123799
 20
123.8924216978358999
 30
0.0
 11
4186.7524969429032353
 21
123.8890168947280017
 31
0.0
  0
LINE
  5
EA4B
  8
0
 10
4186.5705488577041251
 20
124.4491801118767995
 30
0.0
 11
4186.5595047333908951
 21
124.4371405227064002
 31
0.0
  0
ARC
  5
EA4C
  8
0
 10
4186.5652167460266355
 20
124.4319007942788033
 30
0.0
 40
0.0077512477929027
 50
137.4693001834820905
 51
198.5199613237628
  0
LINE
  5
EA4D
  8
0
 10
4186.5578669117030586
 20
124.429438726496997
 30
0.0
 11
4186.590261681116317
 21
124.3297023291409005
 31
0.0
  0
ARC
  5
EA4E
  8
0
 10
4186.5978338819340934
 20
124.3319529394331937
 30
0.0
 40
0.0078995897734782
 50
196.552155913588507
 51
257.9181821030687161
  0
LINE
  5
EA4F
  8
0
 10
4186.5961804325052071
 20
124.3242283278848959
 30
0.0
 11
4186.6122521787438018
 21
124.3207881782422959
 31
0.0
  0
LINE
  5
EA50
  8
0
 10
4186.4434489318946362
 20
124.8404824070511978
 30
0.0
 11
4186.4271424405642392
 21
124.8441619911305054
 31
0.0
  0
ARC
  5
EA51
  8
0
 10
4186.4288756456126066
 20
124.8518428845358983
 30
0.0
 40
0.0078740157000063
 50
197.9946311509542056
 51
257.284092449911725
  0
LINE
  5
EA52
  8
0
 10
4186.4213867837033831
 20
124.849410381596897
 30
0.0
 11
4186.3889243033518142
 21
124.9493514869845967
 31
0.0
  0
ARC
  5
EA53
  8
0
 10
4186.3964131652073775
 20
124.9517839899054934
 30
0.0
 40
0.007874015641456
 50
137.9946479874992065
 51
197.9946311509953887
  0
LINE
  5
EA54
  8
0
 10
4186.3905621234071077
 20
124.9570532813363002
 30
0.0
 11
4186.4016030674583817
 21
124.969313188764005
 31
0.0
  0
LINE
  5
EA55
  8
0
 10
4186.4007953445088788
 20
124.9717999238421982
 30
0.0
 11
4186.3905624357912529
 21
124.9603729660064033
 31
0.0
  0
ARC
  5
EA56
  8
0
 10
4186.3965829572571238
 20
124.9549815532178059
 30
0.0
 40
0.0080817083957966
 50
138.1553655789660979
 51
192.1571773254277105
  0
LINE
  5
EA57
  8
0
 10
4186.2177103043459283
 20
125.5354634820341033
 30
0.0
 11
4186.2067262396903971
 21
125.5229519343064055
 31
0.0
  0
ARC
  5
EA58
  8
0
 10
4186.2127759958411843
 20
125.5176407678418968
 30
0.0
 40
0.0080503440111888
 50
138.7196454100885035
 51
197.5357611365390937
  0
LINE
  5
EA59
  8
0
 10
4186.2050997587248276
 20
125.5152151911175054
 30
0.0
 11
4186.2376871374935945
 21
125.4149239017101962
 31
0.0
  0
ARC
  5
EA5A
  8
0
 10
4186.2450397620623335
 20
125.417741536837994
 30
0.0
 40
0.0078740177644976
 50
200.9675757385876125
 51
257.9946050680680969
  0
LINE
  5
EA5B
  8
0
 10
4186.2434019365109634
 20
125.4100397394359021
 30
0.0
 11
4186.2595660216629767
 21
125.4066023662780935
 31
0.0
  0
LINE
  5
EA5C
  8
0
 10
4186.2169252274934479
 20
125.5378804966198061
 30
0.0
 11
4186.2066936230330612
 21
125.5263749556781931
 31
0.0
  0
ARC
  5
EA5D
  8
0
 10
4186.2127524957732021
 20
125.5209869439667045
 30
0.0
 40
0.0081080582801611
 50
138.354064496547096
 51
193.3194134889616009
  0
LINE
  5
EA5E
  8
0
 10
4186.0339567898508903
 20
126.1011850708580937
 30
0.0
 11
4186.0228903658080526
 21
126.0889907309366009
 31
0.0
  0
ARC
  5
EA5F
  8
0
 10
4186.0286837781013674
 20
126.0837331805057033
 30
0.0
 40
0.0078233920100219
 50
137.7761014377763047
 51
198.3723957483043989
  0
LINE
  5
EA60
  8
0
 10
4186.0212591602121392
 20
126.0812673111359032
 30
0.0
 11
4186.0537134000132937
 21
125.9813528381359049
 31
0.0
  0
ARC
  5
EA61
  8
0
 10
4186.0612038881126864
 20
125.9837803341359006
 30
0.0
 40
0.0078740156999892
 50
197.9946311509380052
 51
257.9946319455298749
  0
LINE
  5
EA62
  8
0
 10
4186.0595660666040203
 20
125.976078537984904
 30
0.0
 11
4186.0757079363911544
 21
125.9726458969494018
 31
0.0
  0
LINE
  5
EA63
  8
0
 10
4185.9066847857284301
 20
126.493017143200305
 30
0.0
 11
4185.8906234965033946
 21
126.4964003867848987
 31
0.0
  0
ARC
  5
EA64
  8
0
 10
4185.8922411244229806
 20
126.5040797599079951
 30
0.0
 40
0.0078478972754338
 50
197.8844779701973948
 51
258.1047851262713948
  0
LINE
  5
EA65
  8
0
 10
4185.8847724561028372
 20
126.501669679996894
 30
0.0
 11
4185.8523364423117528
 21
126.6015268138359033
 31
0.0
  0
ARC
  5
EA66
  8
0
 10
4185.8598060474487283
 20
126.6040405204908978
 30
0.0
 40
0.00788122592293
 50
138.0147716311354884
 51
198.5993578089916127
  0
LINE
  5
EA67
  8
0
 10
4185.8539477957829149
 20
126.6093125798098953
 30
0.0
 11
4185.8649423254582871
 21
126.6215295747059031
 31
0.0
  0
LINE
  5
EA68
  8
0
 10
4185.8642083023223677
 20
126.6237894103117014
 30
0.0
 11
4185.8539480698900661
 21
126.6122231761063972
 31
0.0
  0
ARC
  5
EA69
  8
0
 10
4185.8597958628988636
 20
126.607035686867107
 30
0.0
 40
0.0078170792294653
 50
138.4242499860276894
 51
189.9788278855610884
  0
LINE
  5
EA6A
  8
0
 10
4171.5743684050130469
 20
143.5120079608327899
 30
0.0
 11
4172.3617699798123795
 21
143.5120079608327899
 31
0.0
  0
LINE
  5
EA6B
  8
0
 10
4172.3322424206471624
 20
143.5120079608327899
 30
0.0
 11
4172.3322424206471624
 21
143.3938977340328051
 31
0.0
  0
LINE
  5
EA6C
  8
0
 10
4172.3322424206471624
 20
143.3938977340328051
 30
0.0
 11
4172.3814550564466117
 21
143.3446850995327964
 31
0.0
  0
LINE
  5
EA6D
  8
0
 10
4172.3814550564466117
 20
143.3446850995327964
 30
0.0
 11
4172.3814550564466117
 21
143.3021969371328055
 31
0.0
  0
LINE
  5
EA6E
  8
0
 10
4172.3814550564466117
 20
143.3446850995327964
 30
0.0
 11
4171.5546833655471346
 21
143.3446850995327964
 31
0.0
  0
LINE
  5
EA6F
  8
0
 10
4171.6038959639472523
 20
143.3938977340328051
 30
0.0
 11
4172.3322424206471624
 21
143.3938977340328051
 31
0.0
  0
LINE
  5
EA70
  8
0
 10
4171.5546833655471346
 20
143.3021969371328055
 30
0.0
 11
4171.5546833655471346
 21
143.3446850995327964
 31
0.0
  0
LINE
  5
EA71
  8
0
 10
4171.5546833655471346
 20
143.3446850995327964
 30
0.0
 11
4171.6038959639472523
 21
143.3938977340328051
 31
0.0
  0
LINE
  5
EA72
  8
0
 10
4171.6038959639472523
 20
143.3938977340328051
 30
0.0
 11
4171.6038959639472523
 21
143.5120079608327899
 31
0.0
  0
LINE
  5
EA73
  8
0
 10
4187.2239747041467126
 20
117.4685617115953988
 30
0.0
 11
4187.2239747041467126
 21
99.2797244962328591
 31
0.0
  0
LINE
  5
EA74
  8
0
 10
4187.2239747041467126
 20
99.2285433938328509
 30
0.0
 11
4187.2239747041467126
 21
98.6301181970328571
 31
0.0
  0
LINE
  5
EA75
  8
0
 10
4187.2239747041467126
 20
98.6301181970328571
 30
0.0
 11
4187.2941478381326306
 21
98.6301181970328571
 31
0.0
  0
LINE
  5
EA76
  8
0
 10
4187.8652110972980154
 20
98.6301181970328571
 30
0.0
 11
4188.208226672645651
 21
98.6301181970328571
 31
0.0
  0
LINE
  5
EA77
  8
0
 10
4188.208226672645651
 20
98.6301181970328571
 30
0.0
 11
4188.208226672645651
 21
99.2285433938328509
 31
0.0
  0
LINE
  5
EA78
  8
0
 10
4188.208226672645651
 20
99.2797244962328591
 30
0.0
 11
4188.208226672645651
 21
117.4685617115953988
 31
0.0
  0
LINE
  5
EA79
  8
0
 10
4187.3672531472029732
 20
118.4760390897327937
 30
0.0
 11
4188.0647920466108189
 21
118.4760390897327937
 31
0.0
  0
LINE
  5
EA7A
  8
0
 10
4188.002307447446583
 20
118.4760390897327937
 30
0.0
 11
4188.002307447446583
 21
110.2580440249019063
 31
0.0
  0
LINE
  5
EA7B
  8
0
 10
4187.4314413056472404
 20
118.4760390897327937
 30
0.0
 11
4187.4314413056472404
 21
106.405155647371501
 31
0.0
  0
ARC
  5
EA7C
  8
0
 10
3832.5741298525831553
 20
107.7215921870615034
 30
0.0
 40
355.4073821847044883
 50
358.5341893793250847
 51
358.8926203627810878
  0
ARC
  5
EA7D
  8
0
 10
3827.8801036937989011
 20
107.8123269038334939
 30
0.0
 40
360.1022852048077993
 50
358.8926203627810878
 51
359.4770924133403014
  0
ARC
  5
EA7E
  8
0
 10
3308.6119548611700338
 20
112.551537991548301
 30
0.0
 40
879.392060295555666
 50
359.4770924133403014
 51
359.6765902061889051
  0
ARC
  5
EA7F
  8
0
 10
2901.4536433001771911
 20
114.8497942541796988
 30
0.0
 40
1286.5568582030450671
 50
359.6765902061889051
 51
359.795509646096491
  0
ARC
  5
EA80
  8
0
 10
4331.8086351182328144
 20
102.7322163113766038
 30
0.0
 40
144.4239058347440903
 50
178.5427162316134115
 51
179.5732234681111095
  0
ARC
  5
EA81
  8
0
 10
3960.7995939908441869
 20
105.4957860124869029
 30
0.0
 40
226.5954277797696932
 50
358.4679791642694795
 51
359.5732234681102
  0
ARC
  5
EA82
  8
0
 10
4449.4221939091239619
 20
92.4274856275837067
 30
0.0
 40
262.2018979349386996
 50
178.4679791642695079
 51
178.682181885925587
  0
ARC
  5
EA83
  8
0
 10
3913.3321417546958401
 20
104.892021569266106
 30
0.0
 40
274.0330555840038187
 50
358.3043107456759913
 51
358.6545592478742037
  0
ARC
  5
EA84
  8
0
 10
3154.2066784348107831
 20
119.6789808608489949
 30
0.0
 40
1033.2922136633549144
 50
358.6219946812814214
 51
358.7303254670648016
  0
ARC
  5
EA85
  8
0
 10
4273.1267528864163978
 20
92.7610227660519087
 30
0.0
 40
85.951597810820445
 50
178.6207127495931104
 51
179.9754351226708877
  0
ARC
  5
EA86
  8
0
 10
4307.7263238215728052
 20
92.7461886146546846
 30
0.0
 40
120.5511719259600056
 50
179.9754351226708877
 51
181.5097423325547936
  0
ARC
  5
EA87
  8
0
 10
4204.4278027444443069
 20
90.0236450765087426
 30
0.0
 40
17.2167792967902606
 50
181.5097423325541115
 51
185.4620799426529061
  0
ARC
  5
EA88
  8
0
 10
4189.6644539018871001
 20
88.6119570572838882
 30
0.0
 40
2.3860904351543661
 50
185.4620799426529061
 51
194.0196505239308919
  0
ARC
  5
EA89
  8
0
 10
4187.6500692713398166
 20
88.108980684164564
 30
0.0
 40
0.3098605173223261
 50
194.0196505239300961
 51
230.5252958571601027
  0
ARC
  5
EA8A
  8
0
 10
4187.6661765554235899
 20
88.1673446796807951
 30
0.0
 40
0.3659844755149977
 50
234.390514759063592
 51
266.9050919463900868
  0
ARC
  5
EA8B
  8
0
 10
4187.5835457523144214
 20
88.2847282059572649
 30
0.0
 40
0.4869103255730638
 50
277.4189112272877082
 51
302.4400314926191982
  0
LINE
  5
EA8C
  8
0
 10
4188.1196439954455855
 20
92.9253933860328232
 30
0.0
 11
4188.1196446831472713
 21
92.2167319694328285
 31
0.0
  0
ARC
  5
EA8D
  8
0
 10
4104.3330578885579598
 20
92.2166506611607133
 30
0.0
 40
83.7865867946281355
 50
358.4275498691299049
 51
0.0000556010332742
  0
ARC
  5
EA8E
  8
0
 10
4161.8089091695319439
 20
90.6388624146086954
 30
0.0
 40
26.2890834034058294
 50
354.8531444412452061
 51
358.4275498691299049
  0
ARC
  5
EA8F
  8
0
 10
4186.8186224109085742
 20
88.38618801749287
 30
0.0
 40
1.1781236775153421
 50
340.9506546879031816
 51
354.8531444412452061
  0
ARC
  5
EA90
  8
0
 10
4187.6553004417328339
 20
88.0972904167650768
 30
0.0
 40
0.2929728706070325
 50
310.2846736988083762
 51
340.9506546879031816
  0
ARC
  5
EA91
  8
0
 10
7826.3558962297838661
 20
1.7462236138370451
 30
0.0
 40
3639.7803443100078766
 50
178.4747173040667008
 51
178.5120598857731977
  0
ARC
  5
EA92
  8
0
 10
4383.0783418842256651
 20
91.1863693198435357
 30
0.0
 40
195.341368812859514
 50
178.5120598857731977
 51
179.0303534891706079
  0
ARC
  5
EA93
  8
0
 10
4331.7962608933676165
 20
92.054325722361412
 30
0.0
 40
144.0519432061161922
 50
179.0303534891706079
 51
179.8439385720309929
  0
ARC
  5
EA94
  8
0
 10
4275.1337703107501511
 20
92.20866258863974
 30
0.0
 40
87.3892424330901889
 50
179.8439385720309929
 51
180.6893345195188942
  0
ARC
  5
EA95
  8
0
 10
4260.1368813250728635
 20
92.0282239563703683
 30
0.0
 40
72.3912679915619606
 50
180.6893345195188942
 51
181.6625173632340875
  0
ARC
  5
EA96
  8
0
 10
4218.1051422062728307
 20
90.8082717237692663
 30
0.0
 40
30.3418283187125191
 50
181.6625173632340875
 51
184.3565907310874934
  0
ARC
  5
EA97
  8
0
 10
4189.3233156050473553
 20
88.6155648055364651
 30
0.0
 40
1.476598263638248
 50
184.3565907310874934
 51
201.8260963431658865
  0
LINE
  5
EA98
  8
0
 10
4187.2239747041467126
 20
99.2797244962328591
 30
0.0
 11
4187.3103153481943082
 21
99.2797244962328591
 31
0.0
  0
LINE
  5
EA99
  8
0
 10
4187.8812395214936259
 20
99.2797244962328591
 30
0.0
 11
4188.208226672645651
 21
99.2797244962328591
 31
0.0
  0
ARC
  5
EA9A
  8
0
 10
4188.1885416332470413
 20
99.2285433938328083
 30
0.0
 40
0.0196850394000094
 50
0.0000000000154702
 51
90.0
  0
LINE
  5
EA9B
  8
0
 10
4188.1885416332470413
 20
99.2482284332328248
 30
0.0
 11
4187.8804897985892239
 21
99.2482284332329669
 31
0.0
  0
LINE
  5
EA9C
  8
0
 10
4187.3095757850642258
 20
99.2482284332331517
 30
0.0
 11
4187.2436597438472745
 21
99.2482284332331943
 31
0.0
  0
ARC
  5
EA9D
  8
0
 10
4187.2436597438472745
 20
99.2285433935331866
 30
0.0
 40
0.0196850396999953
 50
89.9999999999478888
 51
179.99999912781999
  0
LINE
  5
EA9E
  8
0
 10
4188.0310613182473389
 20
99.2797244962328591
 30
0.0
 11
4188.0310613182473389
 21
99.2482284332329101
 31
0.0
  0
LINE
  5
EA9F
  8
0
 10
4188.1286006883456139
 20
98.6301181970328571
 30
0.0
 11
4188.1286006883456139
 21
98.5513780395328354
 31
0.0
  0
LINE
  5
EAA0
  8
0
 10
4187.9098379066472262
 20
98.6301181970328571
 30
0.0
 11
4187.9098379066472262
 21
98.5513780395328354
 31
0.0
  0
LINE
  5
EAA1
  8
0
 10
4188.4838172237468825
 20
98.5513780395328354
 30
0.0
 11
4187.8631152967100206
 21
98.5513780395328354
 31
0.0
  0
ARC
  5
EAA2
  8
0
 10
4188.4838172185463918
 20
98.5316929949320155
 30
0.0
 40
0.0196850446008188
 50
0.0000151376286398
 51
89.999984862349379
  0
LINE
  5
EAA3
  8
0
 10
4188.5035022631464017
 20
98.5316930001328615
 30
0.0
 11
4188.5035024108501602
 21
97.9726378820328847
 31
0.0
  0
ARC
  5
EAA4
  8
0
 10
4188.4838173766502223
 20
97.9726378768320387
 30
0.0
 40
0.0196850341997965
 50
269.9995549553748901
 51
0.0000151376204976
  0
LINE
  5
EAA5
  8
0
 10
4188.4838172237468825
 20
97.9529528426328397
 30
0.0
 11
4187.8472429383609779
 21
97.9529528426330245
 31
0.0
  0
LINE
  5
EAA6
  8
0
 10
4188.5035022631464017
 20
97.9287796143328251
 30
0.0
 11
4187.8466038482620206
 21
97.9287796143328251
 31
0.0
  0
LINE
  5
EAA7
  8
0
 10
4187.2767825227128924
 20
97.9287796143328251
 30
0.0
 11
4186.9286991135459175
 21
97.9287796143328251
 31
0.0
  0
LINE
  5
EAA8
  8
0
 10
4188.5035022631464017
 20
97.899252055332866
 30
0.0
 11
4187.845823418800137
 21
97.899252055332866
 31
0.0
  0
LINE
  5
EAA9
  8
0
 10
4187.2760231794909487
 20
97.899252055332866
 30
0.0
 11
4185.8996644986464162
 21
97.899252055332866
 31
0.0
  0
LINE
  5
EAAA
  8
0
 10
4188.5025348688468512
 20
97.3092520553328058
 30
0.0
 11
4185.8955768231053298
 21
97.3092520553328058
 31
0.0
  0
LINE
  5
EAAB
  8
0
 10
4188.5025348688468512
 20
97.2797244962328733
 30
0.0
 11
4186.9286991135459175
 21
97.2797244962328733
 31
0.0
  0
LINE
  5
EAAC
  8
0
 10
4188.5025348688468512
 20
97.3092520553328058
 30
0.0
 11
4188.5025348688468512
 21
97.2797244962328733
 31
0.0
  0
ARC
  5
EAAD
  8
0
 10
4188.4839156489470042
 20
97.2600394568328284
 30
0.0
 40
0.0196850393999952
 50
359.9999999999894271
 51
90.0
  0
LINE
  5
EAAE
  8
0
 10
4188.5036006883456139
 20
97.2600394568328284
 30
0.0
 11
4188.5036006883456139
 21
96.7455114962328366
 31
0.0
  0
ARC
  5
EAAF
  8
0
 10
4188.6299451472468718
 20
96.7455114962328366
 30
0.0
 40
0.1263444589004479
 50
179.9999999999901945
 51
261.6339748142407871
  0
ARC
  5
EAB0
  8
0
 10
4188.473600688346778
 20
97.3392520553328495
 30
0.0
 40
0.0300000000000011
 50
270.0
 51
0.0
  0
LINE
  5
EAB1
  8
0
 10
4188.5036006883456139
 20
97.3392520553328495
 30
0.0
 11
4188.5036006883456139
 21
97.8692520553328222
 31
0.0
  0
ARC
  5
EAB2
  8
0
 10
4188.473600688346778
 20
97.8692520553328222
 30
0.0
 40
0.0300000000000011
 50
0.0
 51
90.0
  0
LINE
  5
EAB3
  8
0
 10
4188.5035022631464017
 20
97.899252055332866
 30
0.0
 11
4188.5035022631464017
 21
97.9287796143328251
 31
0.0
  0
LINE
  5
EAB4
  8
0
 10
4188.432636121446194
 20
97.9529528426328397
 30
0.0
 11
4188.432636121446194
 21
97.9287796143328251
 31
0.0
  0
LINE
  5
EAB5
  8
0
 10
4186.9286991135459175
 20
97.899252055332866
 30
0.0
 11
4186.9286991135459175
 21
97.9287796143328251
 31
0.0
  0
ARC
  5
EAB6
  8
0
 10
4185.8995386444512405
 20
97.8797551645645285
 30
0.0
 40
0.0194631007682998
 50
89.6639839100180467
 51
135.1789163178860065
  0
ARC
  5
EAB7
  8
0
 10
4178.263246351851194
 20
105.4685043877612003
 30
0.0
 40
10.7463194880914994
 50
314.8210836903829204
 51
315.1789163178856938
  0
ARC
  5
EAB8
  8
0
 10
4185.8520478466170971
 20
97.8321594983167415
 30
0.0
 40
0.0195372542916807
 50
134.8210836903828067
 51
180.1796342692838948
  0
LINE
  5
EAB9
  8
0
 10
4185.8325106883467015
 20
97.8320982450328529
 30
0.0
 11
4185.8325106883467015
 21
97.3764058655328313
 31
0.0
  0
ARC
  5
EABA
  8
0
 10
4185.8521957277471301
 20
97.3764058655328313
 30
0.0
 40
0.0196850394000023
 50
180.0000000000414957
 51
224.9992823267390918
  0
LINE
  5
EABB
  8
0
 10
4185.8382761285483866
 20
97.3624866150376533
 30
0.0
 11
4185.8857327561081547
 21
97.3150287986019435
 31
0.0
  0
ARC
  5
EABC
  8
0
 10
4185.9017471910947279
 20
97.3310428324076611
 30
0.0
 40
0.0226475474759025
 50
224.9992823267413939
 51
254.1897768635122077
  0
LINE
  5
EABD
  8
0
 10
4185.8996644986464162
 20
97.899252055332866
 30
0.0
 11
4185.8996644986464162
 21
97.309252055042009
 31
0.0
  0
ARC
  5
EABE
  8
0
 10
4186.9482857277471339
 20
97.2600394568328284
 30
0.0
 40
0.0196850394000023
 50
90.0
 51
179.9999999999893987
  0
LINE
  5
EABF
  8
0
 10
4186.9286006883467053
 20
97.2600394568328284
 30
0.0
 11
4186.9286006883467053
 21
96.9068490763327191
 31
0.0
  0
LINE
  5
EAC0
  8
0
 10
4186.9286991135459175
 20
97.2797244962328733
 30
0.0
 11
4186.9286991135459175
 21
97.3092520553328058
 31
0.0
  0
LINE
  5
EAC1
  8
0
 10
4187.2773276549269212
 20
97.9529528426330245
 30
0.0
 11
4186.9483841529472556
 21
97.9529528426330245
 31
0.0
  0
ARC
  5
EAC2
  8
0
 10
4186.9483841531173312
 20
97.9726378822034576
 30
0.0
 40
0.0196850395704473
 50
180.0000004965874894
 51
269.9999995039107716
  0
LINE
  5
EAC3
  8
0
 10
4186.9286991135459175
 20
97.9726378820328136
 30
0.0
 11
4186.9286991107073845
 21
98.531693000132833
 31
0.0
  0
ARC
  5
EAC4
  8
0
 10
4186.9483841500068593
 20
98.531693000232849
 30
0.0
 40
0.0196850393000006
 50
89.999991442305344
 51
180.000000291088412
  0
LINE
  5
EAC5
  8
0
 10
4186.9483841529472556
 20
98.5513780395328354
 30
0.0
 11
4187.2918194329131438
 21
98.5513779882374052
 31
0.0
  0
LINE
  5
EAC6
  8
0
 10
4186.9995652552470347
 20
97.9529528427328273
 30
0.0
 11
4186.9995652552470347
 21
97.9287796143328251
 31
0.0
  0
ARC
  5
EAC7
  8
0
 10
4186.9815182084876142
 20
97.8699686833244868
 30
0.0
 40
0.0292839134136326
 50
90.3439365171904853
 51
181.4014989157290927
  0
ARC
  5
EAC8
  8
0
 10
4177.5906011836650578
 20
97.1926251742287945
 30
0.0
 40
9.3860621668952486
 50
2.5135193966365619
 51
4.1339534097935067
  0
ARC
  5
EAC9
  8
0
 10
4177.5901510306803175
 20
98.0159077568008144
 30
0.0
 40
9.3865131509456248
 50
355.8660715764780207
 51
357.4864253226299979
  0
ARC
  5
EACA
  8
0
 10
4186.9840740300869584
 20
97.3396235145707465
 30
0.0
 40
0.0318331892793839
 50
180.6685955790283913
 51
252.5696080130151984
  0
LINE
  5
EACB
  8
0
 10
4186.9676330335505554
 20
97.6042520526930275
 30
0.0
 11
4185.8325106883467015
 21
97.6042520526930275
 31
0.0
  0
LINE
  5
EACC
  8
0
 10
4188.9359010033458617
 20
95.3405114962328355
 30
0.0
 11
4188.5695828655861987
 21
95.3405114962328355
 31
0.0
  0
ARC
  5
EACD
  8
0
 10
4188.5832047149469872
 20
95.1826550832758471
 30
0.0
 40
0.1584430556751191
 50
94.9319873987893175
 51
179.8639962744859133
  0
LINE
  5
EACE
  8
0
 10
4188.424762105645641
 20
95.1830311812328347
 30
0.0
 11
4188.4247621057456854
 21
94.8190941734382591
 31
0.0
  0
ARC
  5
EACF
  8
0
 10
4188.4050770664171068
 20
94.8190941732621155
 30
0.0
 40
0.0196850392293016
 50
269.9999997942168193
 51
0.0000004968561763
  0
LINE
  5
EAD0
  8
0
 10
4188.4050770663470757
 20
94.799409134032814
 30
0.0
 11
4187.7703893759717175
 21
94.7994091363123061
 31
0.0
  0
ARC
  5
EAD1
  8
0
 10
4187.1720580332676036
 20
95.3916396904415365
 30
0.0
 40
1.543698443892723
 50
87.1206257263671233
 51
93.9771639028507195
  0
ARC
  5
EAD2
  8
0
 10
4187.0684638319971782
 20
96.8816397003751604
 30
0.0
 40
0.0501015142832103
 50
93.9771639028507195
 51
122.3695869078903939
  0
ARC
  5
EAD3
  8
0
 10
4187.877476803362697
 20
95.6053422895596157
 30
0.0
 40
1.5612060999057591
 50
122.3695869078903939
 51
165.630417228359903
  0
ARC
  5
EAD4
  8
0
 10
4186.4130621556159895
 20
95.9805114967138167
 30
0.0
 40
0.0494977303678256
 50
165.6304172283552134
 51
194.3695396056334914
  0
ARC
  5
EAD5
  8
0
 10
4187.8853243506318904
 20
96.357689989404065
 30
0.0
 40
1.569306792790591
 50
194.3695396056334914
 51
228.2475255850181952
  0
ARC
  5
EAD6
  8
0
 10
4187.7824882358418108
 20
96.2424818728258202
 30
0.0
 40
1.414878244165193
 50
228.2475255850181952
 51
238.4251321716645009
  0
ARC
  5
EAD7
  8
0
 10
4187.0690445332638774
 20
95.0816550742441109
 30
0.0
 40
0.052336218004323
 50
238.4251321716662062
 51
265.5748261367248801
  0
ARC
  5
EAD8
  8
0
 10
4187.1399545690146624
 20
95.7652857839887588
 30
0.0
 40
0.7396180913317704
 50
264.1840311117451847
 51
269.6077074007628767
  0
ARC
  5
EAD9
  8
0
 10
4186.5171836088520649
 20
111.1410338753330933
 30
0.0
 40
16.1271829643693714
 50
272.1950927624246788
 51
272.4437259861276743
  0
ARC
  5
EADA
  8
0
 10
4187.1719768947650664
 20
96.536689620035645
 30
0.0
 40
1.4045263265215009
 50
266.9036344155657048
 51
271.440917660651678
  0
ARC
  5
EADB
  8
0
 10
4187.098105903493888
 20
95.1710967154802461
 30
0.0
 40
0.036936876312396
 50
237.0963759405584028
 51
266.9036344155657048
  0
ARC
  5
EADC
  8
0
 10
4187.8530900826608558
 20
96.3379627310417845
 30
0.0
 40
1.426748881248485
 50
194.9036267994667071
 51
237.0963759405584028
  0
ARC
  5
EADD
  8
0
 10
4186.5100317194910531
 20
95.9805114962579182
 30
0.0
 40
0.0369369687467043
 50
165.0964074384231139
 51
194.9036267994667071
  0
ARC
  5
EADE
  8
0
 10
4187.8530910578310795
 20
95.623060861348236
 30
0.0
 40
1.426749669329803
 50
122.9038967711927057
 51
165.0964074384243077
  0
ARC
  5
EADF
  8
0
 10
4187.0980788712622598
 20
96.7899579859723644
 30
0.0
 40
0.0368963312669544
 50
93.0539931070936746
 51
122.9038967711925068
  0
ARC
  5
EAE0
  8
0
 10
4187.1713617004061234
 20
95.4164055645224494
 30
0.0
 40
1.412402284550436
 50
86.9510614157323829
 51
93.0539931070936746
  0
ARC
  5
EAE1
  8
0
 10
4187.1727839481445699
 20
95.4009319050182967
 30
0.0
 40
1.534406010591072
 50
49.9722073415883585
 51
65.1843382309204458
  0
ARC
  5
EAE2
  8
0
 10
4188.1269293577306598
 20
96.5369185938758534
 30
0.0
 40
0.0508766984787366
 50
22.0278846212576305
 51
49.9722073415883585
  0
ARC
  5
EAE3
  8
0
 10
4186.7515651604680897
 20
95.9804566103298242
 30
0.0
 40
1.5345466800607701
 50
337.9721153787423873
 51
22.0278846212576305
  0
ARC
  5
EAE4
  8
0
 10
4188.1275921076312443
 20
95.4237264831718761
 30
0.0
 40
0.0501617590229295
 50
309.7258813133115041
 51
337.9721153787423873
  0
ARC
  5
EAE5
  8
0
 10
4187.1423939411433821
 20
96.6093133137663926
 30
0.0
 40
1.5916647788479501
 50
293.5045204063201822
 51
309.7258813133115041
  0
ARC
  5
EAE6
  8
0
 10
4187.1744549437917158
 20
96.5575840804320933
 30
0.0
 40
1.4249377598664621
 50
295.1309869297876958
 51
309.0893633356340047
  0
ARC
  5
EAE7
  8
0
 10
4188.0496445444960045
 20
95.4802549431358187
 30
0.0
 40
0.0369194216417795
 50
309.0893633356340047
 51
338.911054107298412
  0
ARC
  5
EAE8
  8
0
 10
4186.7725379442172198
 20
95.9805125611281937
 30
0.0
 40
1.4085088586228369
 50
338.6170530225637094
 51
21.3826378653439306
  0
ARC
  5
EAE9
  8
0
 10
4188.0313510525629681
 20
96.4674761301523631
 30
0.0
 40
0.0590579843617454
 50
26.7383701038679611
 51
45.2573491196446298
  0
ARC
  5
EAEA
  8
0
 10
4187.1727838676188185
 20
95.400931775688889
 30
0.0
 40
1.42793739030842
 50
50.9220262261337098
 51
63.3294512364174835
  0
LINE
  5
EAEB
  8
0
 10
4188.1680894474193337
 20
96.5668231999591171
 30
0.0
 11
4188.0791312623150588
 21
96.5021877574977651
 31
0.0
  0
LINE
  5
EAEC
  8
0
 10
4188.0795130630785934
 20
95.4585543603787983
 30
0.0
 11
4188.1680959770246773
 21
95.3941352913693095
 31
0.0
  0
LINE
  5
EAED
  8
0
 10
4187.086691784170398
 20
95.1359676575402062
 30
0.0
 11
4187.0517550360573296
 21
95.0318350168378174
 31
0.0
  0
LINE
  5
EAEE
  8
0
 10
4186.3635644252481143
 20
95.9805114967138167
 30
0.0
 11
4186.473094750744167
 21
95.9805114852218253
 31
0.0
  0
LINE
  5
EAEF
  8
0
 10
4187.0507899369031293
 20
96.9285203484686804
 30
0.0
 11
4187.0866901737008448
 21
96.8250526697408418
 31
0.0
  0
ARC
  5
EAF0
  8
0
 10
4186.7949728136918566
 20
96.9087908102728335
 30
0.0
 40
0.1336419814855301
 50
314.4993661985027984
 51
359.167499066189805
  0
ARC
  5
EAF1
  8
0
 10
4186.3710236841861843
 20
95.7442596204307961
 30
0.0
 40
0.065977023201769
 50
308.3885226588880073
 51
10.2496987960318702
  0
LINE
  5
EAF2
  8
0
 10
4186.4119948073121122
 20
95.6925456507476611
 30
0.0
 11
4185.3651275938473191
 21
94.9319520990328556
 31
0.0
  0
ARC
  5
EAF3
  8
0
 10
4185.3836405152460429
 20
94.9064712488328155
 30
0.0
 40
0.0314960630000435
 50
126.0000000000134008
 51
170.999999949473704
  0
LINE
  5
EAF4
  8
0
 10
4185.3525322210516606
 20
94.9113983186265244
 30
0.0
 11
4185.3435612664488872
 21
94.8547579407426582
 31
0.0
  0
ARC
  5
EAF5
  8
0
 10
4185.3746695604613706
 20
94.8498308709781099
 30
0.0
 40
0.0314960628138697
 50
170.9999999494710039
 51
212.6138832456969965
  0
LINE
  5
EAF6
  8
0
 10
4185.3481397393943553
 20
94.8328552835958476
 30
0.0
 11
4185.6452028477606291
 21
94.4239424439553545
 31
0.0
  0
ARC
  5
EAF7
  8
0
 10
4185.6719955393746204
 20
94.4409114852550857
 30
0.0
 40
0.0317142978244563
 50
212.3479572594065985
 51
260.921585857467619
  0
LINE
  5
EAF8
  8
0
 10
4185.6669914654803506
 20
94.4095944622330734
 30
0.0
 11
4185.7236195128471081
 21
94.4005459989322304
 31
0.0
  0
ARC
  5
EAF9
  8
0
 10
4185.7285434532450381
 20
94.431361522055667
 30
0.0
 40
0.0312064361055973
 50
260.921585857467619
 51
306.4225691867857222
  0
LINE
  5
EAFA
  8
0
 10
4185.7470718344702618
 20
94.4062509517004145
 30
0.0
 11
4186.7939275244470991
 21
95.166845963232845
 31
0.0
  0
ARC
  5
EAFB
  8
0
 10
4186.8292425001727679
 20
95.1180589231893237
 30
0.0
 40
0.0602193207347179
 50
59.8802326625392283
 51
125.8911997846612962
  0
ARC
  5
EAFC
  8
0
 10
4186.4670028291411654
 20
96.5650551410934952
 30
0.0
 40
0.1462503174053842
 50
271.8145033183225792
 51
318.0673836165320836
  0
LINE
  5
EAFD
  8
0
 10
4188.2968093497456721
 20
94.799409134032814
 30
0.0
 11
4188.2968093497456721
 21
94.4332674017328344
 31
0.0
  0
LINE
  5
EAFE
  8
0
 10
4188.2968093497456721
 20
94.4332674017328344
 30
0.0
 11
4187.7639625087876993
 21
94.4332674017328344
 31
0.0
  0
LINE
  5
EAFF
  8
0
 10
4187.7624953715767333
 20
94.3427162205403675
 30
0.0
 11
4188.2787578914458209
 21
94.3427162205403675
 31
0.0
  0
ARC
  5
EB00
  8
0
 10
4188.278757891598616
 20
94.3348421984702838
 30
0.0
 40
0.0078740220700781
 50
357.6141046949505267
 51
90.0000011116149636
  0
LINE
  5
EB01
  8
0
 10
4188.2866250877468701
 20
94.3345144053328255
 30
0.0
 11
4188.2286989697358877
 21
92.9442588767009141
 31
0.0
  0
ARC
  5
EB02
  8
0
 10
4188.209031064518058
 20
92.9450783558363725
 30
0.0
 40
0.0196849699440137
 50
269.996325988496892
 51
357.614105161145801
  0
LINE
  5
EB03
  8
0
 10
4188.2090298022467323
 20
92.9253933859328356
 30
0.0
 11
4187.7466427003600984
 21
92.9254230358571647
 31
0.0
  0
ARC
  5
EB04
  8
0
 10
4188.2141321844455888
 20
94.4135823623328179
 30
0.0
 40
0.0196850394000023
 50
90.0
 51
179.9999999999893987
  0
LINE
  5
EB05
  8
0
 10
4188.1944471450469791
 20
94.4135823623328179
 30
0.0
 11
4188.1944471450469791
 21
94.3742122836328434
 31
0.0
  0
ARC
  5
EB06
  8
0
 10
4188.2141321844455888
 20
94.3742122836328434
 30
0.0
 40
0.0196850394000023
 50
179.9999999999689919
 51
270.0
  0
LINE
  5
EB07
  8
0
 10
4188.2467306096468747
 20
94.3427162205403675
 30
0.0
 11
4188.2467306096468747
 21
94.3545272442328269
 31
0.0
  0
LINE
  5
EB08
  8
0
 10
4188.2467306096468747
 20
94.3545272442328269
 30
0.0
 11
4187.762683508032751
 21
94.3545272442328269
 31
0.0
  0
ARC
  5
EB09
  8
0
 10
4187.0831969619912343
 20
94.8601514247161504
 30
0.0
 40
0.1680045898651074
 50
44.2232069772399399
 51
81.6529270971067547
  0
LINE
  5
EB0A
  8
0
 10
4186.6139513981206619
 20
95.4377255196969259
 30
0.0
 11
4185.4979422089127183
 21
94.6266494254119266
 31
0.0
  0
LINE
  5
EB0B
  8
0
 10
4187.086179428946707
 20
130.3230315828051005
 30
0.0
 11
4188.3460219477456121
 21
130.3230315828051005
 31
0.0
  0
ARC
  5
EB0C
  8
0
 10
4188.3460219477456121
 20
130.3033465429051034
 30
0.0
 40
0.0196850398999971
 50
0.0000014553021316
 51
90.0
  0
LINE
  5
EB0D
  8
0
 10
4188.3657069876471724
 20
130.3033465434050981
 30
0.0
 11
4188.3657069986466013
 21
129.8702749539135084
 31
0.0
  0
ARC
  5
EB0E
  8
0
 10
4188.3460219597473042
 20
129.8702749534135137
 30
0.0
 40
0.0196850389000005
 50
269.9999665280500949
 51
0.0000014552817761
  0
LINE
  5
EB0F
  8
0
 10
4188.3460219482458342
 20
129.8505899145135061
 30
0.0
 11
4187.0860091947279216
 21
129.8505906506078986
 31
0.0
  0
ARC
  5
EB10
  8
0
 10
4187.0861794285456199
 20
130.3033465434050981
 30
0.0
 40
0.0196850394000041
 50
89.9999988357537291
 51
179.9999999999893987
  0
LINE
  5
EB11
  8
0
 10
4187.0664943891470102
 20
130.3033465434050981
 30
0.0
 11
4187.0664943891470102
 21
129.8702749539135084
 31
0.0
  0
ARC
  5
EB12
  8
0
 10
4187.0861794285456199
 20
129.8702749539135084
 30
0.0
 40
0.0196850393999952
 50
269.174534842706521
 51
269.5045069130422917
  0
ARC
  5
EB13
  8
0
 10
4187.0861794285474389
 20
129.8702749539137926
 30
0.0
 40
0.0196850394003363
 50
180.0000000009509904
 51
270.0000011635167994
  0
LINE
  5
EB14
  8
0
 10
4187.1649195859472457
 20
129.8505899145135061
 30
0.0
 11
4187.1649195859472457
 21
129.7915355198313136
 31
0.0
  0
LINE
  5
EB15
  8
0
 10
4187.0861794285456199
 20
129.7915355199313012
 30
0.0
 11
4188.3460219482458342
 21
129.7915355199313012
 31
0.0
  0
ARC
  5
EB16
  8
0
 10
4188.3460219482458342
 20
129.7718504805312989
 30
0.0
 40
0.0196850394000023
 50
0.0000000000048853
 51
90.0
  0
LINE
  5
EB17
  8
0
 10
4188.3657069876471724
 20
129.7718504805312989
 30
0.0
 11
4188.3657069876471724
 21
129.5257874883209865
 31
0.0
  0
ARC
  5
EB18
  8
0
 10
4188.4050770669146004
 20
129.5257874885151068
 30
0.0
 40
0.0393700792676839
 50
180.0000002825057095
 51
269.9999988723350839
  0
ARC
  5
EB19
  8
0
 10
4187.0861794285456199
 20
129.7718504805312989
 30
0.0
 40
0.0196850394000148
 50
90.0000000000521254
 51
179.9999999999585043
  0
LINE
  5
EB1A
  8
0
 10
4187.0664943891470102
 20
129.7718504805312989
 30
0.0
 11
4187.0664943891461007
 21
128.5710630789045865
 31
0.0
  0
ARC
  5
EB1B
  8
0
 10
4187.0861794285456199
 20
128.5710630789045865
 30
0.0
 40
0.0196850393999881
 50
179.9999999999535873
 51
270.0000000025534064
  0
LINE
  5
EB1C
  8
0
 10
4187.0861794285456199
 20
128.5513780395046126
 30
0.0
 11
4188.3460219482458342
 21
128.5513780395610013
 31
0.0
  0
ARC
  5
EB1D
  8
0
 10
4188.3460219482458342
 20
128.5710630788618971
 30
0.0
 40
0.0196850393008887
 50
270.0000000025534064
 51
0.0000001243512405
  0
LINE
  5
EB1E
  8
0
 10
4188.3657069875471279
 20
128.5710630789045865
 30
0.0
 11
4188.3657069870132545
 21
128.8171260710452088
 31
0.0
  0
ARC
  5
EB1F
  8
0
 10
4188.405112608633317
 20
128.8171260711307013
 30
0.0
 40
0.0394056216200411
 50
92.4337072631550853
 51
180.0000001243560916
  0
LINE
  5
EB20
  8
0
 10
4188.208226672645651
 20
128.5513780395046126
 30
0.0
 11
4188.208226672645651
 21
124.7236538312666028
 31
0.0
  0
LINE
  5
EB21
  8
0
 10
4187.2239747041467126
 20
128.5513780395046126
 30
0.0
 11
4187.2239747041467126
 21
126.7424644955283952
 31
0.0
  0
ARC
  5
EB22
  8
0
 10
4189.34144200650735
 20
128.61134952237731
 30
0.0
 40
0.1319752659220492
 50
54.6484785271839826
 51
125.3515183964267976
  0
ARC
  5
EB23
  8
0
 10
4189.3414420121343937
 20
128.8209181810188113
 30
0.0
 40
0.1273577007405115
 50
233.1609595793019025
 51
306.839037344309304
  0
ARC
  5
EB24
  8
0
 10
4189.1531670452050093
 20
129.130998229592592
 30
0.0
 40
0.8808813207294744
 50
153.3733261346737038
 51
177.3675001308897947
  0
ARC
  5
EB25
  8
0
 10
4189.0827540744394355
 20
129.1935352919626894
 30
0.0
 40
0.8098397535443581
 50
181.5622378631260858
 51
207.6969358475392937
  0
ARC
  5
EB26
  8
0
 10
4187.8269533647680873
 20
130.3007732572237103
 30
0.0
 40
0.0286729413995785
 50
5.1490036233036438
 51
50.9215263144567416
  0
LINE
  5
EB27
  8
0
 10
4187.8555106014473495
 20
130.3033465434050981
 30
0.0
 11
4187.8555106014473495
 21
129.8702749539135084
 31
0.0
  0
ARC
  5
EB28
  8
0
 10
4187.8273358048918453
 20
129.8698986541519105
 30
0.0
 40
0.0281773093533606
 50
316.7440629796798248
 51
0.7651911979868996
  0
ARC
  5
EB29
  8
0
 10
4188.2031771193678651
 20
130.3007732572237103
 30
0.0
 40
0.0286729413995785
 50
5.1490036233036438
 51
50.9215263144567416
  0
LINE
  5
EB2A
  8
0
 10
4188.2317343560471272
 20
130.3033465434050981
 30
0.0
 11
4188.2317343560471272
 21
129.8702749539135084
 31
0.0
  0
ARC
  5
EB2B
  8
0
 10
4188.2035595594916231
 20
129.8698986541519105
 30
0.0
 40
0.0281773093533606
 50
316.7440629796798248
 51
0.7651911979868996
  0
LINE
  5
EB2C
  8
0
 10
4188.267281790745983
 20
129.8505899605131901
 30
0.0
 11
4188.267281790745983
 21
129.7915355198313136
 31
0.0
  0
LINE
  5
EB2D
  8
0
 10
4187.3332078566909331
 20
118.2047821840953929
 30
0.0
 11
4187.2236613120467155
 21
118.2047821840953929
 31
0.0
  0
LINE
  5
EB2E
  8
0
 10
4166.9680691922458209
 20
141.2647953623327908
 30
0.0
 11
4176.9680691922467304
 21
141.2647953623327908
 31
0.0
  0
LINE
  5
EB2F
  8
0
 10
4166.9979904520459968
 20
140.8435355198328125
 30
0.0
 11
4176.9390674833275625
 21
140.8435355198328125
 31
0.0
  0
ARC
  5
EB30
  8
0
 10
4166.9979904520459968
 20
140.8734567796327894
 30
0.0
 40
0.0299212598000054
 50
180.0
 51
270.0
  0
LINE
  5
EB31
  8
0
 10
4166.9680691922458209
 20
140.8734567796327894
 30
0.0
 11
4166.9680691922458209
 21
141.2647953623327908
 31
0.0
  0
LINE
  5
EB32
  8
0
 10
4176.9680278946470935
 20
141.2647953623327908
 30
0.0
 11
4176.9680691922467304
 21
140.8734567796327894
 31
0.0
  0
ARC
  5
EB33
  8
0
 10
4176.9381366133584379
 20
140.8734536208752957
 30
0.0
 40
0.0299325790551601
 50
271.7821224589358735
 51
0.0060463707899448
  0
LINE
  5
EB34
  8
0
 10
4167.653544734346724
 20
140.8435355198328125
 30
0.0
 11
4167.6584111371794279
 21
140.7931983621737118
 31
0.0
  0
ARC
  5
EB35
  8
0
 10
4167.6662486125505893
 20
140.7939560591539987
 30
0.0
 40
0.0078740158059688
 50
185.5219749968325118
 51
267.9999992659937789
  0
LINE
  5
EB36
  8
0
 10
4167.6659738132620987
 20
140.7860868399891956
 30
0.0
 11
4167.757978562610333
 21
140.7828739621650129
 31
0.0
  0
ARC
  5
EB37
  8
0
 10
4167.758253361752395
 20
140.7907431770933897
 30
0.0
 40
0.007874011566988
 50
267.9999992659937789
 51
309.8822942584504858
  0
LINE
  5
EB38
  8
0
 10
4167.7181698983831666
 20
140.8435355198328125
 30
0.0
 11
4167.7230661451467313
 21
140.7931695903270111
 31
0.0
  0
ARC
  5
EB39
  8
0
 10
4167.730882986222241
 20
140.7939294925704132
 30
0.0
 40
0.0078536905855321
 50
185.5524742488206016
 51
273.1009319641104867
  0
ARC
  5
EB3A
  8
0
 10
4167.9087583164346142
 20
144.511436950419494
 30
0.0
 40
3.7295735254335241
 50
267.2728775221253841
 51
268.6664936892078117
  0
ARC
  5
EB3B
  8
0
 10
4167.8218748725075784
 20
140.7920426670494862
 30
0.0
 40
0.009169596108519
 50
270.5555188050807942
 51
343.6986969634119191
  0
LINE
  5
EB3C
  8
0
 10
4167.8306758408471069
 20
140.7894688665327863
 30
0.0
 11
4167.8397154962458444
 21
140.8435355198328125
 31
0.0
  0
LINE
  5
EB3D
  8
0
 10
4167.9100816852487696
 20
140.8435355198328125
 30
0.0
 11
4167.9150667492467619
 21
140.7930841635327965
 31
0.0
  0
ARC
  5
EB3E
  8
0
 10
4167.92292741604615
 20
140.7938608706409127
 30
0.0
 40
0.007898946541044
 50
185.6430394824674011
 51
267.9014325605381259
  0
ARC
  5
EB3F
  8
0
 10
4168.0337207206275707
 20
142.7749156025797106
 30
0.0
 40
1.9920479399360249
 50
266.803357761065115
 51
269.4513496349568982
  0
ARC
  5
EB40
  8
0
 10
4168.0148729482580165
 20
140.7908654305358027
 30
0.0
 40
0.0079097046931907
 50
268.3532748354866726
 51
350.5836344767873811
  0
LINE
  5
EB41
  8
0
 10
4168.0226760733976334
 20
140.7895713415286991
 30
0.0
 11
4168.0316256222849916
 21
140.8435355198328125
 31
0.0
  0
ARC
  5
EB42
  8
0
 10
4167.9255145397200977
 20
139.7416866642334128
 30
0.0
 40
1.0442169822588461
 50
86.2273177070043744
 51
89.0194202114195292
  0
ARC
  5
EB43
  8
0
 10
4167.999517137118346
 20
141.5247166588837047
 30
0.0
 40
0.7410947959591
 50
265.6561137122579908
 51
269.5906242061205944
  0
LINE
  5
EB44
  8
0
 10
4168.2234486578208816
 20
140.8435355198328125
 30
0.0
 11
4168.2285789692468825
 21
140.7929447325327885
 31
0.0
  0
ARC
  5
EB45
  8
0
 10
4168.2364615550559392
 20
140.793744089929703
 30
0.0
 40
0.0079230127652789
 50
185.790456645534988
 51
260.8902750468010936
  0
ARC
  5
EB46
  8
0
 10
4168.3226090733196543
 20
142.1091770958780955
 30
0.0
 40
1.326139421609754
 50
266.221065151109201
 51
270.240366111552305
  0
ARC
  5
EB47
  8
0
 10
4168.3272715061284543
 20
140.7922857628462907
 30
0.0
 40
0.009280255098631
 50
275.5711562158904258
 51
344.0206705662117201
  0
LINE
  5
EB48
  8
0
 10
4168.3361931821436883
 20
140.7897309963713042
 30
0.0
 11
4168.3449776971456231
 21
140.8435355198328125
 31
0.0
  0
ARC
  5
EB49
  8
0
 10
4168.265603081908921
 20
140.4869786155616112
 30
0.0
 40
0.2997091250167576
 50
81.9132535849872596
 51
91.5593739689956436
  0
ARC
  5
EB4A
  8
0
 10
4168.3571626038137765
 20
142.0926167689289912
 30
0.0
 40
1.30984110201674
 50
265.6339680950206912
 51
267.838659459005612
  0
LINE
  5
EB4B
  8
0
 10
4168.3824495283952274
 20
140.8435355198328125
 30
0.0
 11
4168.388697779645554
 21
140.7922496816327964
 31
0.0
  0
ARC
  5
EB4C
  8
0
 10
4168.3965677960850371
 20
140.7932085007101932
 30
0.0
 40
0.007928208672754
 50
186.9462212056781141
 51
268.2075616340306965
  0
ARC
  5
EB4D
  8
0
 10
4168.2224002281882349
 20
128.251961259805995
 30
0.0
 40
12.5345295574200097
 50
88.7856530488089959
 51
89.2049819033107525
  0
ARC
  5
EB4E
  8
0
 10
4168.488072374902913
 20
140.7918098470566974
 30
0.0
 40
0.008134241723715
 50
269.7830733181019127
 51
349.8423119945483108
  0
LINE
  5
EB4F
  8
0
 10
4168.4960791214471101
 20
140.7903753094327897
 30
0.0
 11
4168.5041279719471277
 21
140.8435355198328125
 31
0.0
  0
LINE
  5
EB50
  8
0
 10
4168.536500145064565
 20
140.8435355198328125
 30
0.0
 11
4168.5424976898693785
 21
140.792203490343212
 31
0.0
  0
ARC
  5
EB51
  8
0
 10
4168.550309921130065
 20
140.7931162578194062
 30
0.0
 40
0.0078653735919127
 50
186.6641241815923138
 51
266.3202427810733184
  0
ARC
  5
EB52
  8
0
 10
4168.6635515775305976
 20
144.7979612735447006
 30
0.0
 40
4.014306015682978
 50
268.3762911609683783
 51
269.6959918497565241
  0
ARC
  5
EB53
  8
0
 10
4168.6419971972445637
 20
140.7920417393108892
 30
0.0
 40
0.0083338701981979
 50
271.752040229649424
 51
348.7510601690278236
  0
LINE
  5
EB54
  8
0
 10
4168.6501709645472147
 20
140.7904160331328001
 30
0.0
 11
4168.6524723075017391
 21
140.8056665042425948
 31
0.0
  0
LINE
  5
EB55
  8
0
 10
4168.6477610610400006
 20
140.8435355198328125
 30
0.0
 11
4168.6540780613077004
 21
140.7927594495143921
 31
0.0
  0
ARC
  5
EB56
  8
0
 10
4168.6622324620520885
 20
140.7937739303785065
 30
0.0
 40
0.0082172637121832
 50
187.0916732239764997
 51
263.9703720623717231
  0
ARC
  5
EB57
  8
0
 10
4168.7384343425455882
 20
141.9352488365200884
 30
0.0
 40
1.1522267909868269
 50
266.1649906753361279
 51
270.7800017570781961
  0
ARC
  5
EB58
  8
0
 10
4168.7536992385530539
 20
140.7912224163241888
 30
0.0
 40
0.0081045211766919
 50
272.974620370008779
 51
350.7829525499279271
  0
LINE
  5
EB59
  8
0
 10
4168.7616991194308866
 20
140.7899242755578086
 30
0.0
 11
4168.7702656151468545
 21
140.8435355198328125
 31
0.0
  0
LINE
  5
EB5A
  8
0
 10
4168.8378685241495987
 20
140.8435355198328125
 30
0.0
 11
4168.8439529481702266
 21
140.7921232749515923
 31
0.0
  0
ARC
  5
EB5B
  8
0
 10
4168.851785692338126
 20
140.7930502474436025
 30
0.0
 40
0.007887405098959
 50
186.7493228142332953
 51
268.9841298514555774
  0
ARC
  5
EB5C
  8
0
 10
4168.9400324445932711
 20
143.5588794357506117
 30
0.0
 40
2.775123250002657
 50
268.1748431561334769
 51
270.075952120289287
  0
ARC
  5
EB5D
  8
0
 10
4168.9438124042253548
 20
140.7916663159265909
 30
0.0
 40
0.0079083396323484
 50
269.2666654249043745
 51
351.486192240197397
  0
LINE
  5
EB5E
  8
0
 10
4168.9516335956459443
 20
140.7904955040328048
 30
0.0
 11
4168.9595735472466913
 21
140.8435355198328125
 31
0.0
  0
ARC
  5
EB5F
  8
0
 10
4168.8911714806054079
 20
140.5813572415011095
 30
0.0
 40
0.2057454125232466
 50
80.7072111032527744
 51
95.0526625617127934
  0
ARC
  5
EB60
  8
0
 10
4168.9210833702800301
 20
141.3893722228193894
 30
0.0
 40
0.604978826654231
 50
265.4462211204016739
 51
270.3136525446125233
  0
LINE
  5
EB61
  8
0
 10
4169.0725081685832265
 20
140.8435355198328125
 30
0.0
 11
4169.0795687097406699
 21
140.7912997042328129
 31
0.0
  0
ARC
  5
EB62
  8
0
 10
4169.0873717671038321
 20
140.7923544174987001
 30
0.0
 40
0.0078740157659048
 50
187.6978260274021864
 51
269.9999995808776134
  0
LINE
  5
EB63
  8
0
 10
4169.0873717670456244
 20
140.7844804017327931
 30
0.0
 11
4169.1969196225336418
 21
140.7844804009314998
 31
0.0
  0
ARC
  5
EB64
  8
0
 10
4169.196405148310987
 20
140.8404946307705075
 30
0.0
 40
0.0560165637766475
 50
257.1585810644754133
 51
270.5257668979270989
  0
ARC
  5
EB65
  8
0
 10
4169.1864506753818205
 20
140.7932766943638114
 30
0.0
 40
0.0078071379420895
 50
184.9495424281570877
 51
251.3594360473830136
  0
LINE
  5
EB66
  8
0
 10
4169.1786726497457494
 20
140.7926031069198984
 30
0.0
 11
4169.172969952166568
 21
140.8435355198328125
 31
0.0
  0
ARC
  5
EB67
  8
0
 10
4169.1537653177110769
 20
134.0977611960049103
 30
0.0
 40
6.6868584782482401
 50
88.9329736131888353
 51
89.6302373161686745
  0
ARC
  5
EB68
  8
0
 10
4169.2784357554237431
 20
140.7913764518725088
 30
0.0
 40
0.0079176876606697
 50
268.9329736131887785
 51
351.2301721921442095
  0
LINE
  5
EB69
  8
0
 10
4169.2862608758723582
 20
140.7901692783771068
 30
0.0
 11
4169.2944936324984155
 21
140.8435355198328125
 31
0.0
  0
LINE
  5
EB6A
  8
0
 10
4169.3950534372470429
 20
140.8435355198328125
 30
0.0
 11
4169.3872779574903689
 21
140.7906166595035131
 31
0.0
  0
ARC
  5
EB6B
  8
0
 10
4169.3793783272476503
 20
140.7917773688355965
 30
0.0
 40
0.0079844476396133
 50
268.6300599045608237
 51
351.6412205229418078
  0
ARC
  5
EB6C
  8
0
 10
4169.3635825748842763
 20
143.0583743643092873
 30
0.0
 40
2.2746326892575541
 50
268.0780923179019055
 51
270.3930743586258814
  0
ARC
  5
EB6D
  8
0
 10
4169.2873181497916448
 20
140.7924764879846009
 30
0.0
 40
0.0074552825317789
 50
243.8986332858042942
 51
269.8411067719679863
  0
ARC
  5
EB6E
  8
0
 10
4169.3241567075110652
 20
140.4377723253712986
 30
0.0
 40
0.3481837148226274
 50
85.1285719142669564
 51
92.5073517773178366
  0
ARC
  5
EB6F
  8
0
 10
4169.3467428967878732
 20
141.5324148697924045
 30
0.0
 40
0.7477491442376524
 50
267.1009547574341809
 51
270.5349680803981869
  0
LINE
  5
EB70
  8
0
 10
4169.4522786775405621
 20
140.8435355198328125
 30
0.0
 11
4169.4593392186479832
 21
140.7912997041840981
 31
0.0
  0
ARC
  5
EB71
  8
0
 10
4169.4671422759465713
 20
140.7923544174327901
 30
0.0
 40
0.0078740156999998
 50
187.6978259660579056
 51
270.0
  0
LINE
  5
EB72
  8
0
 10
4169.4671422759465713
 20
140.7844804017327931
 30
0.0
 11
4169.5592303468456521
 21
140.7844804017327931
 31
0.0
  0
ARC
  5
EB73
  8
0
 10
4169.5592303468456521
 20
140.792372103438197
 30
0.0
 40
0.0078917017053897
 50
270.0
 51
352.1899425905075987
  0
LINE
  5
EB74
  8
0
 10
4169.5670488451460187
 20
140.7912997041879066
 30
0.0
 11
4169.5742136033122733
 21
140.8435355198328125
 31
0.0
  0
LINE
  5
EB75
  8
0
 10
4169.7804482445289977
 20
140.8435355198328125
 30
0.0
 11
4169.7863139504470382
 21
140.7922528520327887
 31
0.0
  0
ARC
  5
EB76
  8
0
 10
4169.7943697062710271
 20
140.7932362602815033
 30
0.0
 40
0.0081155587408458
 50
186.9599585448303003
 51
258.1619750197943972
  0
ARC
  5
EB77
  8
0
 10
4169.8527354500411093
 20
141.5639954535928098
 30
0.0
 40
0.7810126163311149
 50
265.5917528896644058
 51
272.4435513141631873
  0
ARC
  5
EB78
  8
0
 10
4169.8842827940952702
 20
140.7937545667415975
 30
0.0
 40
0.0102128230145051
 50
279.8733291840063089
 51
341.1076502176379108
  0
LINE
  5
EB79
  8
0
 10
4169.893945438038827
 20
140.7904477456193035
 30
0.0
 11
4169.9019396163457714
 21
140.8435355198328125
 31
0.0
  0
ARC
  5
EB7A
  8
0
 10
4169.8310624388268479
 20
140.4868663167688965
 30
0.0
 40
0.2991652282975051
 50
83.3696177320034764
 51
93.2524244286427688
  0
ARC
  5
EB7B
  8
0
 10
4169.8489888281837921
 20
141.0948128788764961
 30
0.0
 40
0.3112261390342768
 50
263.561560121793093
 51
273.0604820388782059
  0
ARC
  5
EB7C
  8
0
 10
4169.9179866363692781
 20
141.2246296793580029
 30
0.0
 40
0.440799960090032
 50
266.2486276592192098
 51
271.5859681075709204
  0
ARC
  5
EB7D
  8
0
 10
4169.9299585148719416
 20
140.7922357934994011
 30
0.0
 40
0.0082403706659575
 50
271.5859681075709204
 51
353.4772360778295024
  0
LINE
  5
EB7E
  8
0
 10
4169.9381455439788624
 20
140.7912997042328982
 30
0.0
 11
4169.9456762521458586
 21
140.8435355198328125
 31
0.0
  0
LINE
  5
EB7F
  8
0
 10
4170.0245873715666676
 20
140.8435355198328125
 30
0.0
 11
4170.017526830451061
 21
140.7912997042328982
 31
0.0
  0
ARC
  5
EB80
  8
0
 10
4170.0097237730160487
 20
140.7923544175019117
 30
0.0
 40
0.0078740158376197
 50
269.9924413202630831
 51
352.3021740196937799
  0
LINE
  5
EB81
  8
0
 10
4170.00972273424577
 20
140.7844804017327931
 30
0.0
 11
4169.9327718695094518
 21
140.7844905533870872
 31
0.0
  0
ARC
  5
EB82
  8
0
 10
4170.1381495078412627
 20
143.9588425053634921
 30
0.0
 40
3.182831464433693
 50
265.5375944857033801
 51
265.8847711701754974
  0
ARC
  5
EB83
  8
0
 10
4169.9404251375653985
 20
141.6978456569569005
 30
0.0
 40
0.9141435660350005
 50
266.8203214486657089
 51
268.0764733689359218
  0
LINE
  5
EB84
  8
0
 10
4170.0659974676409547
 20
140.8435355198328125
 30
0.0
 11
4170.0730580087492854
 21
140.7912997041840981
 31
0.0
  0
ARC
  5
EB85
  8
0
 10
4170.0808610829199097
 20
140.7923544197136039
 30
0.0
 40
0.0078740327272283
 50
187.6978259660587014
 51
270.1108875796147117
  0
LINE
  5
EB86
  8
0
 10
4170.0808763219456523
 20
140.7844804017327931
 30
0.0
 11
4170.1729645778459599
 21
140.7844804017327931
 31
0.0
  0
ARC
  5
EB87
  8
0
 10
4170.1729645778414124
 20
140.7923544174367976
 30
0.0
 40
0.0078740157059179
 50
269.9987451051101743
 51
352.3021740295314999
  0
LINE
  5
EB88
  8
0
 10
4170.180767635146367
 20
140.7912997041867982
 30
0.0
 11
4170.1878281762574261
 21
140.8435355198326988
 31
0.0
  0
LINE
  5
EB89
  8
0
 10
4170.4524601541597804
 20
140.8435355198328125
 30
0.0
 11
4170.4586492907455977
 21
140.7919547881328128
 31
0.0
  0
ARC
  5
EB8A
  8
0
 10
4170.4666268740384112
 20
140.7929120128754903
 30
0.0
 40
0.0080348064304398
 50
186.8421698134185931
 51
253.9647436091111103
  0
ARC
  5
EB8B
  8
0
 10
4170.5232266154353056
 20
141.535044504117991
 30
0.0
 40
0.7521580523906345
 50
265.5148582404331137
 51
272.7102519889303949
  0
ARC
  5
EB8C
  8
0
 10
4170.556145993955397
 20
140.794140719597209
 30
0.0
 40
0.0107439879750336
 50
284.2603666202500108
 51
341.1469669537917184
  0
LINE
  5
EB8D
  8
0
 10
4170.5663135730455906
 20
140.7906688882328012
 30
0.0
 11
4170.5739415028474468
 21
140.8435355198328125
 31
0.0
  0
LINE
  5
EB8E
  8
0
 10
4170.6624282109678461
 20
140.8435355198328125
 30
0.0
 11
4170.6553676698522395
 21
140.7912997042328982
 31
0.0
  0
ARC
  5
EB8F
  8
0
 10
4170.6475646124963532
 20
140.7923544174917083
 30
0.0
 40
0.0078740157589429
 50
270.0000003748288009
 51
352.3021740168920246
  0
LINE
  5
EB90
  8
0
 10
4170.6475646125472849
 20
140.7844804017327931
 30
0.0
 11
4170.5744544711060371
 21
140.7844804012545126
 31
0.0
  0
ARC
  5
EB91
  8
0
 10
4170.5516147433199876
 20
141.5772538459648047
 30
0.0
 40
0.7935585155070976
 50
270.5182521544552969
 51
270.9857174341987047
  0
ARC
  5
EB92
  8
0
 10
4170.5619323577266186
 20
140.9775916959137021
 30
0.0
 40
0.193807611071728
 50
270.9857174341987047
 51
272.9364190420687919
  0
ARC
  5
EB93
  8
0
 10
4170.5712856916888995
 20
140.7952480760401954
 30
0.0
 40
0.0112242586959508
 50
272.9364190420687919
 51
286.398443513554696
  0
ARC
  5
EB94
  8
0
 10
4170.5722768139548862
 20
140.7918801936876037
 30
0.0
 40
0.0077135671850723
 50
286.3984435135038211
 51
352.8928233197938766
  0
LINE
  5
EB95
  8
0
 10
4170.5799311135469907
 20
140.7909258266329005
 30
0.0
 11
4170.5873055826514246
 21
140.8435355198328125
 31
0.0
  0
LINE
  5
EB96
  8
0
 10
4170.6116386466210315
 20
140.8435355198328125
 30
0.0
 11
4170.6046011707521757
 21
140.7912997042328982
 31
0.0
  0
ARC
  5
EB97
  8
0
 10
4170.5967301007922288
 20
140.792360134978793
 30
0.0
 40
0.0079421820478636
 50
277.1897470546114164
 51
352.3270210682691754
  0
LINE
  5
EB98
  8
0
 10
4170.6797162577477138
 20
140.8435355198328125
 30
0.0
 11
4170.6863159276490478
 21
140.7947093554573996
 31
0.0
  0
ARC
  5
EB99
  8
0
 10
4170.6980205137242592
 20
140.7962914253456006
 30
0.0
 40
0.0118110236790291
 50
187.6978259554294084
 51
270.006065850408902
  0
LINE
  5
EB9A
  8
0
 10
4170.6980217641457784
 20
140.7844804017327931
 30
0.0
 11
4170.7832427099692723
 21
140.7844894239943869
 31
0.0
  0
ARC
  5
EB9B
  8
0
 10
4170.7832414592467103
 20
140.7963032812066047
 30
0.0
 40
0.0118138572784277
 50
270.006065850408902
 51
352.2460053635019221
  0
LINE
  5
EB9C
  8
0
 10
4170.7949472964419328
 20
140.7947093554327864
 30
0.0
 11
4170.801595713003735
 21
140.8435355198328125
 31
0.0
  0
LINE
  5
EB9D
  8
0
 10
4171.4152657564518449
 20
140.8435355198328125
 30
0.0
 11
4171.4082052153516997
 21
140.7912997042328129
 31
0.0
  0
ARC
  5
EB9E
  8
0
 10
4171.400402157996723
 20
140.7923544174890935
 30
0.0
 40
0.0078740157562617
 50
270.0000003577886787
 51
352.3021740339427765
  0
LINE
  5
EB9F
  8
0
 10
4171.4004021580467452
 20
140.7844804017327931
 30
0.0
 11
4171.3082986462468398
 21
140.7844804011577082
 31
0.0
  0
ARC
  5
EBA0
  8
0
 10
4171.3082986461977271
 20
140.7923544084571859
 30
0.0
 40
0.0078740072995132
 50
249.0614767282266087
 51
270.0000003577886787
  0
ARC
  5
EBA1
  8
0
 10
4171.3020188697482808
 20
140.7962914289626042
 30
0.0
 40
0.0118110283961921
 50
287.0642493713145882
 51
334.9990984180615214
  0
ARC
  5
EBA2
  8
0
 10
4171.3020188845266603
 20
140.7962914220707944
 30
0.0
 40
0.0118110120892752
 50
334.9990984180881242
 51
352.3021823553767717
  0
LINE
  5
EBA3
  8
0
 10
4171.3137234593468747
 20
140.7947093554327864
 30
0.0
 11
4171.3203231220377347
 21
140.8435355198328125
 31
0.0
  0
LINE
  5
EBA4
  8
0
 10
4171.1686757625293467
 20
140.8435355198328125
 30
0.0
 11
4171.1752126907467755
 21
140.7916375397327897
 31
0.0
  0
ARC
  5
EBA5
  8
0
 10
4171.1830939705569108
 20
140.7926302442714928
 30
0.0
 40
0.0079435529684514
 50
187.1790140482249001
 51
269.3998710248193902
  0
ARC
  5
EBA6
  8
0
 10
4171.2324169874218569
 20
141.4607564027859041
 30
0.0
 40
0.6778721413185345
 50
265.8203327235947881
 51
273.6040380916346066
  0
ARC
  5
EBA7
  8
0
 10
4171.2750252139258009
 20
140.7921717940548092
 30
0.0
 40
0.0079469059866006
 50
270.0244997903943158
 51
351.4086355473319259
  0
LINE
  5
EBA8
  8
0
 10
4171.2828829469472112
 20
140.7909846350327996
 30
0.0
 11
4171.2907755675823864
 21
140.8435355198328125
 31
0.0
  0
ARC
  5
EBA9
  8
0
 10
4171.3020331313637143
 20
140.7961791159150096
 30
0.0
 40
0.0116987228708201
 50
269.9301697805317986
 51
287.1540874107843138
  0
LINE
  5
EBAA
  8
0
 10
4171.3020188733471514
 20
140.7844804017327931
 30
0.0
 11
4171.2771374066587668
 21
140.7845107264645037
 31
0.0
  0
ARC
  5
EBAB
  8
0
 10
4171.2262926039284139
 20
140.6501847308994968
 30
0.0
 40
0.1370898124499647
 50
78.0856084396660037
 51
99.8389312349912217
  0
ARC
  5
EBAC
  8
0
 10
4171.2330167517484369
 20
141.0214018127711881
 30
0.0
 40
0.2380605175250288
 50
262.7240564143606889
 51
275.2004832602743818
  0
LINE
  5
EBAD
  8
0
 10
4176.2865306579469689
 20
140.8435355198328125
 30
0.0
 11
4176.281664255114265
 21
140.7931983621737118
 31
0.0
  0
ARC
  5
EBAE
  8
0
 10
4176.273826779742194
 20
140.7939560591539987
 30
0.0
 40
0.0078740158059688
 50
272.0000007340062211
 51
354.4780250031665787
  0
LINE
  5
EBAF
  8
0
 10
4176.2741015790306847
 20
140.7860868399891956
 30
0.0
 11
4176.1820968296833598
 21
140.7828739621650129
 31
0.0
  0
ARC
  5
EBB0
  8
0
 10
4176.1818220305422074
 20
140.7907431770933897
 30
0.0
 40
0.007874011566988
 50
230.1177057415497131
 51
272.0000007340062211
  0
LINE
  5
EBB1
  8
0
 10
4176.2219054939114358
 20
140.8435355198328125
 30
0.0
 11
4176.2170092471460521
 21
140.7931695903270111
 31
0.0
  0
ARC
  5
EBB2
  8
0
 10
4176.2091924060714518
 20
140.7939294925704132
 30
0.0
 40
0.0078536905855321
 50
266.8990680358895133
 51
354.4475257511793984
  0
ARC
  5
EBB3
  8
0
 10
4176.0313170758590786
 20
144.511436950419494
 30
0.0
 40
3.7295735254335241
 50
271.333506310792302
 51
272.7271224778746159
  0
ARC
  5
EBB4
  8
0
 10
4176.118200519785205
 20
140.7920426670494862
 30
0.0
 40
0.009169596108519
 50
196.3013030365881093
 51
269.4444811949192058
  0
LINE
  5
EBB5
  8
0
 10
4176.1093995514456765
 20
140.7894688665327863
 30
0.0
 11
4176.100359896046939
 21
140.8435355198328125
 31
0.0
  0
LINE
  5
EBB6
  8
0
 10
4176.0299937070440137
 20
140.8435355198328125
 30
0.0
 11
4176.025008643046931
 21
140.7930841635327965
 31
0.0
  0
ARC
  5
EBB7
  8
0
 10
4176.0171479762484523
 20
140.7938608706409127
 30
0.0
 40
0.007898946541044
 50
272.0985674394618741
 51
354.3569605175326274
  0
ARC
  5
EBB8
  8
0
 10
4175.9063546716661222
 20
142.7749156025797106
 30
0.0
 40
1.9920479399360249
 50
270.5486503650429881
 51
273.1966422389348281
  0
ARC
  5
EBB9
  8
0
 10
4175.9252024440356763
 20
140.7908654305358027
 30
0.0
 40
0.0079097046931907
 50
189.4163655232125905
 51
271.6467251645133274
  0
LINE
  5
EBBA
  8
0
 10
4175.9173993188951499
 20
140.7895713415286991
 30
0.0
 11
4175.9084497700077918
 21
140.8435355198328125
 31
0.0
  0
ARC
  5
EBBB
  8
0
 10
4176.0145608525735952
 20
139.7416866642334128
 30
0.0
 40
1.0442169822588461
 50
90.980579788580485
 51
93.7726822929956541
  0
ARC
  5
EBBC
  8
0
 10
4175.9405582551762564
 20
141.5247166588837047
 30
0.0
 40
0.7410947959591
 50
270.4093757938794056
 51
274.343886287689827
  0
LINE
  5
EBBD
  8
0
 10
4175.7166267344719017
 20
140.8435355198328125
 30
0.0
 11
4175.7114964230468104
 21
140.7929447325327885
 31
0.0
  0
ARC
  5
EBBE
  8
0
 10
4175.7036138372377536
 20
140.793744089929703
 30
0.0
 40
0.0079230127652789
 50
279.1097249531989064
 51
354.2095433544649836
  0
ARC
  5
EBBF
  8
0
 10
4175.6174663189731291
 20
142.1091770958780955
 30
0.0
 40
1.326139421609754
 50
269.7596338884478087
 51
273.7789348488906853
  0
ARC
  5
EBC0
  8
0
 10
4175.612803886166148
 20
140.7922857628462907
 30
0.0
 40
0.009280255098631
 50
195.9793294337873988
 51
264.4288437841095174
  0
LINE
  5
EBC1
  8
0
 10
4175.603882210149095
 20
140.7897309963713042
 30
0.0
 11
4175.5950976951471603
 21
140.8435355198328125
 31
0.0
  0
ARC
  5
EBC2
  8
0
 10
4175.6744723103838624
 20
140.4869786155616112
 30
0.0
 40
0.2997091250167576
 50
88.4406260310043848
 51
98.0867464150127546
  0
ARC
  5
EBC3
  8
0
 10
4175.5829127884799163
 20
142.0926167689289912
 30
0.0
 40
1.30984110201674
 50
272.161340540994388
 51
274.3660319049793088
  0
LINE
  5
EBC4
  8
0
 10
4175.557625863897556
 20
140.8435355198328125
 30
0.0
 11
4175.5513776126472294
 21
140.7922496816327964
 31
0.0
  0
ARC
  5
EBC5
  8
0
 10
4175.5435075962077462
 20
140.7932085007101932
 30
0.0
 40
0.007928208672754
 50
271.7924383659694172
 51
353.0537787943217722
  0
ARC
  5
EBC6
  8
0
 10
4175.7176751641045485
 20
128.251961259805995
 30
0.0
 40
12.5345295574200097
 50
90.7950180966892617
 51
91.2143469511910183
  0
ARC
  5
EBC7
  8
0
 10
4175.4520030173898704
 20
140.7918098470566974
 30
0.0
 40
0.008134241723715
 50
190.1576880054516039
 51
270.2169266818980873
  0
LINE
  5
EBC8
  8
0
 10
4175.4439962708456733
 20
140.7903753094327897
 30
0.0
 11
4175.4359474203456557
 21
140.8435355198328125
 31
0.0
  0
LINE
  5
EBC9
  8
0
 10
4175.4035752472282184
 20
140.8435355198328125
 30
0.0
 11
4175.3975777024243143
 21
140.792203490343212
 31
0.0
  0
ARC
  5
EBCA
  8
0
 10
4175.3897654711627183
 20
140.7931162578194062
 30
0.0
 40
0.0078653735919127
 50
273.6797572189266248
 51
353.3358758184069188
  0
ARC
  5
EBCB
  8
0
 10
4175.2765238147621858
 20
144.7979612735447006
 30
0.0
 40
4.014306015682978
 50
270.3040081502434759
 51
271.6237088390316217
  0
ARC
  5
EBCC
  8
0
 10
4175.2980781950482196
 20
140.7920417393108892
 30
0.0
 40
0.0083338701981979
 50
191.2489398309720912
 51
268.247959770350576
  0
LINE
  5
EBCD
  8
0
 10
4175.2899044277455687
 20
140.7904160331328001
 30
0.0
 11
4175.2876030847901347
 21
140.8056665042425948
 31
0.0
  0
LINE
  5
EBCE
  8
0
 10
4175.2923143312536922
 20
140.8435355198328125
 30
0.0
 11
4175.285997330985083
 21
140.7927594495143921
 31
0.0
  0
ARC
  5
EBCF
  8
0
 10
4175.2778429302406948
 20
140.7937739303785065
 30
0.0
 40
0.0082172637121832
 50
276.0296279376282769
 51
352.9083267760225908
  0
ARC
  5
EBD0
  8
0
 10
4175.2016410497471952
 20
141.9352488365200884
 30
0.0
 40
1.1522267909868269
 50
269.2199982429216902
 51
273.8350093246638721
  0
ARC
  5
EBD1
  8
0
 10
4175.1863761537397295
 20
140.7912224163241888
 30
0.0
 40
0.0081045211766919
 50
189.2170474500721014
 51
267.025379629991221
  0
LINE
  5
EBD2
  8
0
 10
4175.1783762728618967
 20
140.7899242755578086
 30
0.0
 11
4175.1698097771468383
 21
140.8435355198328125
 31
0.0
  0
LINE
  5
EBD3
  8
0
 10
4175.1022068681422752
 20
140.8435355198328125
 30
0.0
 11
4175.0961224441225568
 21
140.7921232749515923
 31
0.0
  0
ARC
  5
EBD4
  8
0
 10
4175.0882896999555669
 20
140.7930502474436025
 30
0.0
 40
0.007887405098959
 50
271.0158701485444226
 51
353.2506771857666763
  0
ARC
  5
EBD5
  8
0
 10
4175.0000429477004218
 20
143.5588794357506117
 30
0.0
 40
2.775123250002657
 50
269.9240478797105993
 51
271.8251568438665231
  0
ARC
  5
EBD6
  8
0
 10
4174.996262988068338
 20
140.7916663159265909
 30
0.0
 40
0.0079083396323484
 50
188.513807759802603
 51
270.7333345750956255
  0
LINE
  5
EBD7
  8
0
 10
4174.9884417966468391
 20
140.7904955040328048
 30
0.0
 11
4174.9805018450460921
 21
140.8435355198328125
 31
0.0
  0
ARC
  5
EBD8
  8
0
 10
4175.0489039116891945
 20
140.5813572415011095
 30
0.0
 40
0.2057454125232466
 50
84.947337438287235
 51
99.2927888967472256
  0
ARC
  5
EBD9
  8
0
 10
4175.0189920220127533
 20
141.3893722228193894
 30
0.0
 40
0.604978826654231
 50
269.6863474553874767
 51
274.5537788795983261
  0
LINE
  5
EBDA
  8
0
 10
4174.8675672237095569
 20
140.8435355198328125
 30
0.0
 11
4174.860506682551204
 21
140.7912997042328129
 31
0.0
  0
ARC
  5
EBDB
  8
0
 10
4174.8527036251889513
 20
140.7923544174987001
 30
0.0
 40
0.0078740157659048
 50
270.0000004191223866
 51
352.3021739725978136
  0
LINE
  5
EBDC
  8
0
 10
4174.8527036252471589
 20
140.7844804017327931
 30
0.0
 11
4174.743155769760051
 21
140.7844804009314998
 31
0.0
  0
ARC
  5
EBDD
  8
0
 10
4174.7436702439817964
 20
140.8404946307705075
 30
0.0
 40
0.0560165637766475
 50
269.4742331020729011
 51
282.8414189355245867
  0
ARC
  5
EBDE
  8
0
 10
4174.7536247169118724
 20
140.7932766943638114
 30
0.0
 40
0.0078071379420895
 50
288.6405639526170148
 51
355.0504575718427986
  0
LINE
  5
EBDF
  8
0
 10
4174.761402742547034
 20
140.7926031069198984
 30
0.0
 11
4174.7671054401262154
 21
140.8435355198328125
 31
0.0
  0
ARC
  5
EBE0
  8
0
 10
4174.7863100745826159
 20
134.0977611960049103
 30
0.0
 40
6.6868584782482401
 50
90.3697626838313255
 51
91.0670263868111505
  0
ARC
  5
EBE1
  8
0
 10
4174.6616396368699498
 20
140.7913764518725088
 30
0.0
 40
0.0079176876606697
 50
188.7698278078557053
 51
271.0670263868112215
  0
LINE
  5
EBE2
  8
0
 10
4174.6538145164213347
 20
140.7901692783771068
 30
0.0
 11
4174.6455817597952773
 21
140.8435355198328125
 31
0.0
  0
LINE
  5
EBE3
  8
0
 10
4174.5450219550457405
 20
140.8435355198328125
 30
0.0
 11
4174.552797434803324
 21
140.7906166595035131
 31
0.0
  0
ARC
  5
EBE4
  8
0
 10
4174.5606970650451331
 20
140.7917773688355965
 30
0.0
 40
0.0079844476396133
 50
188.3587794770581922
 51
271.3699400954391763
  0
ARC
  5
EBE5
  8
0
 10
4174.5764928174075976
 20
143.0583743643092873
 30
0.0
 40
2.2746326892575541
 50
269.6069256413741186
 51
271.9219076820980945
  0
ARC
  5
EBE6
  8
0
 10
4174.652757242500229
 20
140.7924764879846009
 30
0.0
 40
0.0074552825317789
 50
270.1588932280320137
 51
296.1013667141957058
  0
ARC
  5
EBE7
  8
0
 10
4174.6159186847817182
 20
140.4377723253712986
 30
0.0
 40
0.3481837148226274
 50
87.4926482226821918
 51
94.8714280857330579
  0
ARC
  5
EBE8
  8
0
 10
4174.5933324955040007
 20
141.5324148697924045
 30
0.0
 40
0.7477491442376524
 50
269.4650319196016994
 51
272.8990452425658191
  0
LINE
  5
EBE9
  8
0
 10
4174.4877967147522213
 20
140.8435355198328125
 30
0.0
 11
4174.4807361736448001
 21
140.7912997041840981
 31
0.0
  0
ARC
  5
EBEA
  8
0
 10
4174.4729331163471215
 20
140.7923544174327901
 30
0.0
 40
0.0078740156999998
 50
270.0
 51
352.3021740339419807
  0
LINE
  5
EBEB
  8
0
 10
4174.4729331163471215
 20
140.7844804017327931
 30
0.0
 11
4174.3808450454471313
 21
140.7844804017327931
 31
0.0
  0
ARC
  5
EBEC
  8
0
 10
4174.3808450454471313
 20
140.792372103438197
 30
0.0
 40
0.0078917017053897
 50
187.8100574094924013
 51
270.0
  0
LINE
  5
EBED
  8
0
 10
4174.3730265471467646
 20
140.7912997041879066
 30
0.0
 11
4174.3658617889814195
 21
140.8435355198328125
 31
0.0
  0
LINE
  5
EBEE
  8
0
 10
4174.1596271477646951
 20
140.8435355198328125
 30
0.0
 11
4174.1537614418457451
 21
140.7922528520327887
 31
0.0
  0
ARC
  5
EBEF
  8
0
 10
4174.1457056860217563
 20
140.7932362602815033
 30
0.0
 40
0.0081155587408458
 50
281.8380249802056028
 51
353.0400414551697281
  0
ARC
  5
EBF0
  8
0
 10
4174.0873399422516741
 20
141.5639954535928098
 30
0.0
 40
0.7810126163311149
 50
267.5564486858368127
 51
274.4082471103355942
  0
ARC
  5
EBF1
  8
0
 10
4174.0557925981984226
 20
140.7937545667415975
 30
0.0
 40
0.0102128230145051
 50
198.8923497823620892
 51
260.1266708159936911
  0
LINE
  5
EBF2
  8
0
 10
4174.0461299542539564
 20
140.7904477456193035
 30
0.0
 11
4174.038135775947012
 21
140.8435355198328125
 31
0.0
  0
ARC
  5
EBF3
  8
0
 10
4174.1090129534659354
 20
140.4868663167688965
 30
0.0
 40
0.2991652282975051
 50
86.7475755713572312
 51
96.6303822679965236
  0
ARC
  5
EBF4
  8
0
 10
4174.0910865641089913
 20
141.0948128788764961
 30
0.0
 40
0.3112261390342768
 50
266.9395179611217941
 51
276.4384398782067933
  0
ARC
  5
EBF5
  8
0
 10
4174.0220887559244147
 20
141.2246296793580029
 30
0.0
 40
0.440799960090032
 50
268.4140318924291932
 51
273.7513723407806765
  0
ARC
  5
EBF6
  8
0
 10
4174.0101168774208418
 20
140.7922357934994011
 30
0.0
 40
0.0082403706659575
 50
186.5227639221704976
 51
268.4140318924291932
  0
LINE
  5
EBF7
  8
0
 10
4174.0019298483148305
 20
140.7912997042328982
 30
0.0
 11
4173.9943991401469248
 21
140.8435355198328125
 31
0.0
  0
LINE
  5
EBF8
  8
0
 10
4173.9154880207270253
 20
140.8435355198328125
 30
0.0
 11
4173.9225485618417224
 21
140.7912997042328982
 31
0.0
  0
ARC
  5
EBF9
  8
0
 10
4173.9303516192767347
 20
140.7923544175019117
 30
0.0
 40
0.0078740158376197
 50
187.6978259803053106
 51
270.0075586797369169
  0
LINE
  5
EBFA
  8
0
 10
4173.9303526580470134
 20
140.7844804017327931
 30
0.0
 11
4174.0073035227842411
 21
140.7844905533870872
 31
0.0
  0
ARC
  5
EBFB
  8
0
 10
4173.8019258844524302
 20
143.9588425053634921
 30
0.0
 40
3.182831464433693
 50
274.1152288298243889
 51
274.4624055142966199
  0
ARC
  5
EBFC
  8
0
 10
4173.9996502547282944
 20
141.6978456569569005
 30
0.0
 40
0.9141435660350005
 50
271.9235266310640213
 51
273.1796785513342911
  0
LINE
  5
EBFD
  8
0
 10
4173.8740779246527381
 20
140.8435355198328125
 30
0.0
 11
4173.867017383545317
 21
140.7912997041840981
 31
0.0
  0
ARC
  5
EBFE
  8
0
 10
4173.8592143093728737
 20
140.7923544197136039
 30
0.0
 40
0.0078740327272283
 50
269.8891124203854019
 51
352.3021740339410144
  0
LINE
  5
EBFF
  8
0
 10
4173.8591990703471311
 20
140.7844804017327931
 30
0.0
 11
4173.7671108144468235
 21
140.7844804017327931
 31
0.0
  0
ARC
  5
EC00
  8
0
 10
4173.7671108144522805
 20
140.7923544174367976
 30
0.0
 40
0.0078740157059179
 50
187.6978259704683865
 51
270.0012548948898257
  0
LINE
  5
EC01
  8
0
 10
4173.7593077571482354
 20
140.7912997041867982
 30
0.0
 11
4173.7522472160362668
 21
140.8435355198326988
 31
0.0
  0
LINE
  5
EC02
  8
0
 10
4173.487615238133003
 20
140.8435355198328125
 30
0.0
 11
4173.4814261015471857
 21
140.7919547881328128
 31
0.0
  0
ARC
  5
EC03
  8
0
 10
4173.4734485182552817
 20
140.7929120128754903
 30
0.0
 40
0.0080348064304398
 50
286.0352563908890033
 51
353.1578301865806111
  0
ARC
  5
EC04
  8
0
 10
4173.4168487768592968
 20
141.535044504117991
 30
0.0
 40
0.7521580523906345
 50
267.2897480110696051
 51
274.4851417595668863
  0
ARC
  5
EC05
  8
0
 10
4173.3839293983392054
 20
140.794140719597209
 30
0.0
 40
0.0107439879750336
 50
198.85303304620831
 51
255.7396333797499892
  0
LINE
  5
EC06
  8
0
 10
4173.3737618192471928
 20
140.7906688882328012
 30
0.0
 11
4173.3661338894471555
 21
140.8435355198328125
 31
0.0
  0
LINE
  5
EC07
  8
0
 10
4173.2776471813249373
 20
140.8435355198328125
 30
0.0
 11
4173.2847077224414534
 21
140.7912997042328982
 31
0.0
  0
ARC
  5
EC08
  8
0
 10
4173.2925107797982491
 20
140.7923544174917083
 30
0.0
 40
0.0078740157589429
 50
187.697825983107208
 51
269.9999996251713128
  0
LINE
  5
EC09
  8
0
 10
4173.2925107797464079
 20
140.7844804017327931
 30
0.0
 11
4173.3656209211876558
 21
140.7844804012545126
 31
0.0
  0
ARC
  5
EC0A
  8
0
 10
4173.3884606489727958
 20
141.5772538459648047
 30
0.0
 40
0.7935585155070976
 50
269.014282565801409
 51
269.4817478455445894
  0
ARC
  5
EC0B
  8
0
 10
4173.3781430345661647
 20
140.9775916959137021
 30
0.0
 40
0.193807611071728
 50
267.0635809579310944
 51
269.014282565801409
  0
ARC
  5
EC0C
  8
0
 10
4173.3687897006038838
 20
140.7952480760401954
 30
0.0
 40
0.0112242586959508
 50
253.601556486445304
 51
267.0635809579310944
  0
ARC
  5
EC0D
  8
0
 10
4173.3677985783388067
 20
140.7918801936876037
 30
0.0
 40
0.0077135671850723
 50
187.1071766802060097
 51
253.6015564864960936
  0
LINE
  5
EC0E
  8
0
 10
4173.3601442787457927
 20
140.7909258266329005
 30
0.0
 11
4173.3527698096431777
 21
140.8435355198328125
 31
0.0
  0
LINE
  5
EC0F
  8
0
 10
4173.3284367456726613
 20
140.8435355198328125
 30
0.0
 11
4173.3354742215406077
 21
140.7912997042328982
 31
0.0
  0
ARC
  5
EC10
  8
0
 10
4173.3433452915023736
 20
140.792360134978793
 30
0.0
 40
0.0079421820478636
 50
187.6729789317307961
 51
262.8102529453885836
  0
LINE
  5
EC11
  8
0
 10
4173.2603591345450695
 20
140.8435355198328125
 30
0.0
 11
4173.2537594646437356
 21
140.7947093554573996
 31
0.0
  0
ARC
  5
EC12
  8
0
 10
4173.2420548785676147
 20
140.7962914253456006
 30
0.0
 40
0.0118110236790291
 50
269.9939341495909844
 51
352.3021740445705063
  0
LINE
  5
EC13
  8
0
 10
4173.2420536281470049
 20
140.7844804017327931
 30
0.0
 11
4173.1568326823244206
 21
140.7844894239943869
 31
0.0
  0
ARC
  5
EC14
  8
0
 10
4173.1568339330451636
 20
140.7963032812066047
 30
0.0
 40
0.0118138572784277
 50
187.7539946364981063
 51
269.9939341495909844
  0
LINE
  5
EC15
  8
0
 10
4173.14512809585176
 20
140.7947093554327864
 30
0.0
 11
4173.1384796792899579
 21
140.8435355198328125
 31
0.0
  0
LINE
  5
EC16
  8
0
 10
4172.5248096358409384
 20
140.8435355198328125
 30
0.0
 11
4172.5318701769419931
 21
140.7912997042328129
 31
0.0
  0
ARC
  5
EC17
  8
0
 10
4172.5396732342960604
 20
140.7923544174890935
 30
0.0
 40
0.0078740157562617
 50
187.6978259660571098
 51
269.9999996422113213
  0
LINE
  5
EC18
  8
0
 10
4172.5396732342460382
 20
140.7844804017327931
 30
0.0
 11
4172.6317767460468531
 21
140.7844804011577082
 31
0.0
  0
ARC
  5
EC19
  8
0
 10
4172.6317767460959658
 20
140.7923544084571859
 30
0.0
 40
0.0078740072995132
 50
269.9999996422113213
 51
290.9385232717734198
  0
ARC
  5
EC1A
  8
0
 10
4172.6380565225463215
 20
140.7962914289626042
 30
0.0
 40
0.0118110283961921
 50
205.000901581938507
 51
252.9357506286854118
  0
ARC
  5
EC1B
  8
0
 10
4172.6380565077670326
 20
140.7962914220707944
 30
0.0
 40
0.0118110120892752
 50
187.6978176446222903
 51
205.00090158191
  0
LINE
  5
EC1C
  8
0
 10
4172.6263519329459086
 20
140.7947093554327864
 30
0.0
 11
4172.6197522702559581
 21
140.8435355198328125
 31
0.0
  0
LINE
  5
EC1D
  8
0
 10
4172.7713996297652557
 20
140.8435355198328125
 30
0.0
 11
4172.7648627015469174
 21
140.7916375397327897
 31
0.0
  0
ARC
  5
EC1E
  8
0
 10
4172.7569814217358726
 20
140.7926302442714928
 30
0.0
 40
0.0079435529684514
 50
270.6001289751807235
 51
352.8209859517751283
  0
ARC
  5
EC1F
  8
0
 10
4172.7076584048727455
 20
141.4607564027859041
 30
0.0
 40
0.6778721413185345
 50
266.3959619083653934
 51
274.1796672764052119
  0
ARC
  5
EC20
  8
0
 10
4172.6650501783669824
 20
140.7921717940548092
 30
0.0
 40
0.0079469059866006
 50
188.5913644526673068
 51
269.9755002096057979
  0
LINE
  5
EC21
  8
0
 10
4172.6571924453455722
 20
140.7909846350327996
 30
0.0
 11
4172.6492998247113064
 21
140.8435355198328125
 31
0.0
  0
ARC
  5
EC22
  8
0
 10
4172.6380422609299785
 20
140.7961791159150096
 30
0.0
 40
0.0116987228708201
 50
252.8459125892156862
 51
270.0698302194682014
  0
LINE
  5
EC23
  8
0
 10
4172.638056518945632
 20
140.7844804017327931
 30
0.0
 11
4172.6629379856340165
 21
140.7845107264645037
 31
0.0
  0
ARC
  5
EC24
  8
0
 10
4172.713782788365279
 20
140.6501847308994968
 30
0.0
 40
0.1370898124499647
 50
80.1610687650087641
 51
101.9143915603339963
  0
ARC
  5
EC25
  8
0
 10
4172.7070586405461654
 20
141.0214018127711881
 30
0.0
 40
0.2380605175250288
 50
264.7995167397256182
 51
277.2759435856393111
  0
LINE
  5
EC26
  8
0
 10
4171.9071538379230333
 20
140.8435355198328125
 30
0.0
 11
4171.9142143789458714
 21
140.7912997042328982
 31
0.0
  0
ARC
  5
EC27
  8
0
 10
4171.9221662273621405
 20
140.7923745290690078
 30
0.0
 40
0.0080241598713232
 50
187.6978258826983108
 51
269.9223382799285105
  0
ARC
  5
EC28
  8
0
 10
4171.9674446194367192
 20
141.4743920834652045
 30
0.0
 40
0.6915263372369828
 50
266.2449116233580071
 51
273.8666347675983275
  0
ARC
  5
EC29
  8
0
 10
4172.0140511767012867
 20
140.7923232408759873
 30
0.0
 40
0.0078834281459747
 50
270.1892081109924106
 51
353.2070649471000934
  0
LINE
  5
EC2A
  8
0
 10
4172.0218792639752792
 20
140.7913907769473099
 30
0.0
 11
4172.0280906269963452
 21
140.8435355198328125
 31
0.0
  0
ARC
  5
EC2B
  8
0
 10
4171.9702819917638408
 20
140.3281700950387005
 30
0.0
 40
0.4572008958143434
 50
86.9357008791324262
 51
93.4826215713072202
  0
ARC
  5
EC2C
  8
0
 10
4171.9674217764240893
 20
141.1116687528540012
 30
0.0
 40
0.328089309085753
 50
265.6451661862407718
 51
274.7731562657240829
  0
LINE
  5
EC2D
  8
0
 10
4188.0970609288478954
 20
118.2047821840953929
 30
0.0
 11
4188.1975837156378475
 21
118.2047821840953929
 31
0.0
  0
ENDSEC
  0
EOF
