  0
SECTION
  2
HEADER
  9
$ACADVER
  1
AC1009
  9
$INSBASE
 10
4149.385430879937303
 20
174.9039877361244919
 30
0.0
  9
$EXTMIN
 10
4143.1177167602527334
 20
150.8098015943245116
 30
0.0
  9
$EXTMAX
 10
4157.6563896452898916
 20
174.9090601688021138
 30
0.0
  9
$LIMMIN
 10
0.0
 20
0.0
  9
$LIMMAX
 10
11.6929133858000007
 20
8.2677165353999982
  9
$ORTHOMODE
 70
     1
  9
$REGENMODE
 70
     1
  9
$FILLMODE
 70
     1
  9
$QTEXTMODE
 70
     0
  9
$MIRRTEXT
 70
     0
  9
$DRAGMODE
 70
     2
  9
$LTSCALE
 40
0.6431102362
  9
$OSMODE
 70
     7
  9
$ATTMODE
 70
     1
  9
$TEXTSIZE
 40
0.2
  9
$TRACEWID
 40
0.05
  9
$TEXTSTYLE
  7
STANDARD
  9
$CLAYER
  8
0
  9
$CELTYPE
  6
BYLAYER
  9
$CECOLOR
 62
   256
  9
$DIMSCALE
 40
1.0
  9
$DIMASZ
 40
0.1875
  9
$DIMEXO
 40
0.0625
  9
$DIMDLI
 40
0.4443307087
  9
$DIMRND
 40
0.0
  9
$DIMDLE
 40
0.0
  9
$DIMEXE
 40
0.125
  9
$DIMTP
 40
0.01
  9
$DIMTM
 40
0.01
  9
$DIMTXT
 40
2.0
  9
$DIMCEN
 40
0.1052362205
  9
$DIMTSZ
 40
0.0
  9
$DIMTOL
 70
     1
  9
$DIMLIM
 70
     0
  9
$DIMTIH
 70
     1
  9
$DIMTOH
 70
     1
  9
$DIMSE1
 70
     0
  9
$DIMSE2
 70
     0
  9
$DIMTAD
 70
     0
  9
$DIMZIN
 70
     0
  9
$DIMBLK
  1

  9
$DIMASO
 70
     1
  9
$DIMSHO
 70
     1
  9
$DIMPOST
  1
\X
  9
$DIMAPOST
  1

  9
$DIMALT
 70
     1
  9
$DIMALTD
 70
     2
  9
$DIMALTF
 40
25.3999999999999986
  9
$DIMLFAC
 40
1.0
  9
$DIMTOFL
 70
     0
  9
$DIMTVP
 40
0.0
  9
$DIMTIX
 70
     0
  9
$DIMSOXD
 70
     0
  9
$DIMSAH
 70
     0
  9
$DIMBLK1
  1

  9
$DIMBLK2
  1

  9
$DIMSTYLE
  2
STANDARD
  9
$DIMCLRD
 70
     0
  9
$DIMCLRE
 70
     0
  9
$DIMCLRT
 70
     0
  9
$DIMTFAC
 40
1.0
  9
$DIMGAP
 40
0.09
  9
$LUNITS
 70
     2
  9
$LUPREC
 70
     4
  9
$SKETCHINC
 40
0.1
  9
$FILLETRAD
 40
0.0
  9
$AUNITS
 70
     0
  9
$AUPREC
 70
     0
  9
$MENU
  1
.
  9
$ELEVATION
 40
0.0
  9
$PELEVATION
 40
0.0
  9
$THICKNESS
 40
0.0
  9
$LIMCHECK
 70
     0
  9
$BLIPMODE
 70
     0
  9
$CHAMFERA
 40
0.0
  9
$CHAMFERB
 40
0.0
  9
$SKPOLY
 70
     0
  9
$TDCREATE
 40
2458060.468368056230247
  9
$TDUPDATE
 40
2459569.836226852145046
  9
$TDINDWG
 40
0.317634375
  9
$TDUSRTIMER
 40
0.317634375
  9
$USRTIMER
 70
     1
  9
$ANGBASE
 50
0.0
  9
$ANGDIR
 70
     0
  9
$PDMODE
 70
     0
  9
$PDSIZE
 40
0.3125
  9
$PLINEWID
 40
0.0
  9
$COORDS
 70
     1
  9
$SPLFRAME
 70
     0
  9
$SPLINETYPE
 70
     6
  9
$SPLINESEGS
 70
     8
  9
$ATTDIA
 70
     1
  9
$ATTREQ
 70
     1
  9
$HANDLING
 70
     1
  9
$HANDSEED
  5
B6CF
  9
$SURFTAB1
 70
     6
  9
$SURFTAB2
 70
     6
  9
$SURFTYPE
 70
     6
  9
$SURFU
 70
     6
  9
$SURFV
 70
     6
  9
$UCSNAME
  2

  9
$UCSORG
 10
0.0
 20
0.0
 30
0.0
  9
$UCSXDIR
 10
1.0
 20
0.0
 30
0.0
  9
$UCSYDIR
 10
0.0
 20
1.0
 30
0.0
  9
$PUCSNAME
  2

  9
$PUCSORG
 10
0.0
 20
0.0
 30
0.0
  9
$PUCSXDIR
 10
1.0
 20
0.0
 30
0.0
  9
$PUCSYDIR
 10
0.0
 20
1.0
 30
0.0
  9
$USERI1
 70
     0
  9
$USERI2
 70
     0
  9
$USERI3
 70
     0
  9
$USERI4
 70
     0
  9
$USERI5
 70
     0
  9
$USERR1
 40
0.0
  9
$USERR2
 40
0.0
  9
$USERR3
 40
0.0
  9
$USERR4
 40
0.0
  9
$USERR5
 40
0.0
  9
$WORLDVIEW
 70
     1
  9
$SHADEDGE
 70
     3
  9
$SHADEDIF
 70
    70
  9
$TILEMODE
 70
     1
  9
$MAXACTVP
 70
    64
  9
$PLIMCHECK
 70
     0
  9
$PEXTMIN
 10
1.0000000000000000E+20
 20
1.0000000000000000E+20
 30
1.0000000000000000E+20
  9
$PEXTMAX
 10
-1.0000000000000000E+20
 20
-1.0000000000000000E+20
 30
-1.0000000000000000E+20
  9
$PLIMMIN
 10
0.0
 20
0.0
  9
$PLIMMAX
 10
12.0
 20
9.0
  9
$UNITMODE
 70
     0
  9
$VISRETAIN
 70
     1
  9
$PLINEGEN
 70
     0
  9
$PSLTSCALE
 70
     1
  0
ENDSEC
  0
SECTION
  2
TABLES
  0
TABLE
  2
VPORT
 70
     1
  0
VPORT
  2
*ACTIVE
 70
     0
 10
0.0
 20
0.0
 11
1.0
 21
1.0
 12
-114.6142355196889042
 22
61.1011775800457571
 13
0.0
 23
0.0
 14
1.0
 24
1.0
 15
0.0
 25
0.0
 16
0.0
 26
0.0
 36
122.0237731519760018
 17
4265.00634765625
 27
104.3040122985839986
 37
0.0
 40
29.374612186953641
 41
1.8876941457586609
 42
50.0
 43
0.0
 44
0.0
 50
0.0
 51
0.0
 71
     0
 72
   100
 73
     1
 74
     1
 75
     0
 76
     0
 77
     0
 78
     0
  0
ENDTAB
  0
TABLE
  2
LTYPE
 70
     2
  0
LTYPE
  2
CONTINUOUS
 70
     0
  3
Solid line
 72
    65
 73
     0
 40
0.0
  0
LTYPE
  2
PHANTOM2
 70
     0
  3
___ _ _ ___ _ _ ___ _ _ ___ _ _
 72
    65
 73
     6
 40
1.25
 49
0.625
 49
-0.125
 49
0.125
 49
-0.125
 49
0.125
 49
-0.125
  0
ENDTAB
  0
TABLE
  2
LAYER
 70
     2
  0
LAYER
  2
0
 70
     0
 62
   255
  6
CONTINUOUS
  0
LAYER
  2
DEFPOINTS
 70
     0
 62
     7
  6
CONTINUOUS
  0
ENDTAB
  0
TABLE
  2
STYLE
 70
     1
  0
STYLE
  2
STANDARD
 70
     0
 40
0.0
 41
0.8
 50
0.0
 71
     0
 42
0.2
  3
txt
  4

  0
ENDTAB
  0
TABLE
  2
VIEW
 70
     0
  0
ENDTAB
  0
TABLE
  2
UCS
 70
     0
  0
ENDTAB
  0
TABLE
  2
APPID
 70
     9
  0
APPID
  2
ACAD
 70
     0
  0
APPID
  2
ACAD_MLEADERVER
 70
     0
  0
APPID
  2
ACAD_EXEMPT_FROM_CAD_STANDARDS
 70
     0
  0
APPID
  2
ACAD_NAV_VCDISPLAY
 70
     0
  0
APPID
  2
ACAECLAYERSTANDARD
 70
     0
  0
APPID
  2
ACCMTRANSPARENCY
 70
     0
  0
APPID
  2
ACAD_DSTYLE_DIMJAG
 70
     0
  0
APPID
  2
ACAD_DSTYLE_DIMTALN
 70
     0
  0
APPID
  2
ACDBATTR
 70
     0
  0
ENDTAB
  0
TABLE
  2
DIMSTYLE
 70
     1
  0
DIMSTYLE
  2
STANDARD
 70
     0
  3

  4

  5

  6

  7

 40
1.0
 41
0.1875
 42
0.0625
 43
0.38
 44
0.125
 45
0.0
 46
0.0
 47
0.01
 48
0.01
140
0.15625
141
0.09
142
0.0
143
25.3999999999999986
144
1.0
145
0.0
146
1.0
147
0.09
 71
     1
 72
     0
 73
     1
 74
     1
 75
     0
 76
     0
 77
     0
 78
     4
170
     0
171
     2
172
     0
173
     0
174
     0
175
     0
176
     0
177
     0
178
     0
  0
ENDTAB
  0
ENDSEC
  0
SECTION
  2
BLOCKS
  0
BLOCK
  8
0
  2
$MODEL_SPACE
 70
     0
 10
0.0
 20
0.0
 30
0.0
  3
$MODEL_SPACE
  1

  0
ENDBLK
  5
21
  8
0
  0
BLOCK
 67
     1
  8
0
  2
$PAPER_SPACE
 70
     0
 10
0.0
 20
0.0
 30
0.0
  3
$PAPER_SPACE
  1

  0
ENDBLK
  5
1D
 67
     1
  8
0
  0
ENDSEC
  0
SECTION
  2
ENTITIES
  0
ATTDEF
  5
AE52
  8
DEFPOINTS
 10
4149.3859325591047309
 20
174.9080601688019954
 30
0.0
 40
0.001
  1
K-EX27033T-9E2
  3

  2
MODELNUMBER
 70
     0
1001
ACDBATTR
1070
     0
1070
     1
  0
ATTDEF
  5
AE53
  8
DEFPOINTS
 10
4149.3859325591047309
 20
174.9063935021353871
 30
0.0
 40
0.001
  1
OCCASION
  3

  2
TRADENAME
 70
     0
1001
ACDBATTR
1070
     0
1070
     1
  0
ATTDEF
  5
AE54
  8
DEFPOINTS
 10
4149.3859325591047309
 20
174.9047268354686935
 30
0.0
 40
0.001
  1
BATH AND SHOWER FAUCET
  3

  2
PRODUCT
 70
     0
1001
ACDBATTR
1070
     0
1070
     1
  0
LINE
  5
B233
  8
0
 10
4145.0740777059536413
 20
174.9040331692245047
 30
0.0
 11
4147.7912721924540165
 21
174.9040331692245047
 31
0.0
  0
LINE
  5
B234
  8
0
 10
4147.7912721924540165
 20
174.9040331692245047
 30
0.0
 11
4147.7912717141543908
 21
174.6447758791244951
 31
0.0
  0
ARC
  5
B235
  8
0
 10
4147.751853564996054
 20
174.6447759518464125
 30
0.0
 40
0.0394181491573149
 50
314.6000324237800214
 51
359.9998942958519024
  0
LINE
  5
B236
  8
0
 10
4147.7795311546542507
 20
174.6167092186244929
 30
0.0
 11
4147.6831023119002566
 21
174.5216173559635138
 31
0.0
  0
ARC
  5
B237
  8
0
 10
4147.6555179168472023
 20
174.5495895842759069
 30
0.0
 40
0.0392854223241483
 50
270.0348633578053068
 51
314.6000324237800214
  0
LINE
  5
B238
  8
0
 10
4147.6555418212537916
 20
174.5103041692244972
 30
0.0
 11
4145.209821432354147
 21
174.5103041692244972
 31
0.0
  0
ARC
  5
B239
  8
0
 10
4145.2098206495957129
 20
174.5496583559335022
 30
0.0
 40
0.0393541867167825
 50
225.4034448769837127
 51
270.0011396178865084
  0
LINE
  5
B23A
  8
0
 10
4145.1821896720539371
 20
174.5216354886244972
 30
0.0
 11
4145.0857871345779131
 21
174.6166898711261126
 31
0.0
  0
ARC
  5
B23B
  8
0
 10
4145.113384935592876
 20
174.6446790913655889
 30
0.0
 40
0.0393069341268808
 50
179.8593172405981875
 51
225.4034448769870949
  0
LINE
  5
B23C
  8
0
 10
4145.07407811995472
 20
174.644775604624499
 30
0.0
 11
4145.0740777059536413
 21
174.9040331692245047
 31
0.0
  0
ARC
  5
B23D
  8
0
 10
4145.4757928938433906
 20
174.3132738289556016
 30
0.0
 40
0.1970303408914982
 50
1.008670209214267
 51
89.9954453057624164
  0
LINE
  5
B23E
  8
0
 10
4145.6727927034544336
 20
174.316742293324495
 30
0.0
 11
4145.6839473609388733
 21
173.6831865847969993
 31
0.0
  0
ARC
  5
B23F
  8
0
 10
4145.7036346865652376
 20
173.6835332084185097
 30
0.0
 40
0.0196903767929484
 50
181.0086702092141877
 51
269.6644851584812841
  0
LINE
  5
B240
  8
0
 10
4145.703519383553612
 20
173.6638431692244922
 30
0.0
 11
4147.1611583718786278
 21
173.6638431692244922
 31
0.0
  0
ARC
  5
B241
  8
0
 10
4147.1617954161947637
 20
173.6835534660650069
 30
0.0
 40
0.0197205889110937
 50
268.1488229455231931
 51
358.9284084591432133
  0
LINE
  5
B242
  8
0
 10
4147.1815125561270179
 20
173.6831846573244889
 30
0.0
 11
4147.1933629723607737
 21
174.31672798064929
 31
0.0
  0
ARC
  5
B243
  8
0
 10
4147.3906299640329962
 20
174.3130381051911968
 30
0.0
 40
0.1973014981803828
 50
91.085900243580241
 51
178.9284084591432133
  0
LINE
  5
B244
  8
0
 10
4145.7929111696539621
 20
173.6638431692244922
 30
0.0
 11
4145.7931552641530288
 21
173.1736284660244962
 31
0.0
  0
LINE
  5
B245
  8
0
 10
4145.7931552641530288
 20
173.1736284660244962
 30
0.0
 11
4145.842367862554056
 21
173.1323341928244872
 31
0.0
  0
LINE
  5
B246
  8
0
 10
4145.842367862554056
 20
173.1323341928244872
 30
0.0
 11
4145.842367862554056
 21
172.6598932479244866
 31
0.0
  0
LINE
  5
B247
  8
0
 10
4145.842367862554056
 20
172.6598932479244866
 30
0.0
 11
4147.0234702247553287
 21
172.6598932479244866
 31
0.0
  0
LINE
  5
B248
  8
0
 10
4147.0234702247553287
 20
172.6598932479244866
 30
0.0
 11
4147.0234702247553287
 21
173.1323341928244872
 31
0.0
  0
LINE
  5
B249
  8
0
 10
4147.0234702247553287
 20
173.1323341928244872
 30
0.0
 11
4147.0726828232545813
 21
173.1736290310244897
 31
0.0
  0
LINE
  5
B24A
  8
0
 10
4147.0726828232545813
 20
173.1736290310244897
 30
0.0
 11
4147.0724387287546051
 21
173.6638431692244922
 31
0.0
  0
LINE
  5
B24B
  8
0
 10
4146.0096906972539728
 20
172.6598932479244866
 30
0.0
 11
4146.0096906972539728
 21
172.5673735629245016
 31
0.0
  0
LINE
  5
B24C
  8
0
 10
4146.0096906972539728
 20
172.5673735629245016
 30
0.0
 11
4146.0195332169541871
 21
172.5575310432244862
 31
0.0
  0
LINE
  5
B24D
  8
0
 10
4146.0195332169541871
 20
172.5575310432244862
 30
0.0
 11
4146.0195332169541871
 21
172.5417830117245046
 31
0.0
  0
LINE
  5
B24E
  8
0
 10
4148.6557559145367122
 20
170.1443808433245124
 30
0.0
 11
4145.1728626897147478
 21
170.1443802874671007
 31
0.0
  0
ARC
  5
B24F
  8
0
 10
4145.1724627159128431
 20
170.1833930642326038
 30
0.0
 40
0.039014827053318
 50
181.4771832839242904
 51
270.5873975100416828
  0
LINE
  5
B250
  8
0
 10
4145.1334608546540039
 20
170.1823873066286126
 30
0.0
 11
4145.1334608546540039
 21
172.0680912559286071
 31
0.0
  0
ARC
  5
B251
  8
0
 10
4145.1728309336867824
 20
172.0680919211908986
 30
0.0
 40
0.0393700790377352
 50
90.0000003377783742
 51
180.0009681646996
  0
LINE
  5
B252
  8
0
 10
4145.1728309334539517
 20
172.107462000228594
 30
0.0
 11
4145.5924308524536173
 21
172.1074620027025048
 31
0.0
  0
ARC
  5
B253
  8
0
 10
4145.5924308512749121
 20
172.3074620456322918
 30
0.0
 40
0.2000000429297941
 50
270.0000003377783742
 51
359.0847712043093907
  0
LINE
  5
B254
  8
0
 10
4145.792405378654621
 20
172.3042674296285952
 30
0.0
 11
4145.7925766078487868
 21
172.5417830117245046
 31
0.0
  0
LINE
  5
B255
  8
0
 10
4145.7926749491543887
 20
172.5417830117245046
 30
0.0
 11
4149.0705867697015492
 21
172.5417830117245046
 31
0.0
  0
LINE
  5
B256
  8
0
 10
4146.8561473901536374
 20
172.6598932479244866
 30
0.0
 11
4146.8561473901536374
 21
172.5673735629245016
 31
0.0
  0
LINE
  5
B257
  8
0
 10
4146.8561473901536374
 20
172.5673735629245016
 30
0.0
 11
4146.8463048704543326
 21
172.5575310432244862
 31
0.0
  0
LINE
  5
B258
  8
0
 10
4146.8463048704543326
 20
172.5575310432244862
 30
0.0
 11
4146.8463048704543326
 21
172.5417830117245046
 31
0.0
  0
LINE
  5
B259
  8
0
 10
4146.8561473901536374
 20
172.5673735629245016
 30
0.0
 11
4146.0096906972539728
 21
172.5673735629245016
 31
0.0
  0
LINE
  5
B25A
  8
0
 10
4146.0195332169541871
 20
172.5575310432244862
 30
0.0
 11
4146.8463048704543326
 21
172.5575310432244862
 31
0.0
  0
LINE
  5
B25B
  8
0
 10
4145.1019663130373374
 20
170.2616608736244928
 30
0.0
 11
4145.1019663130373374
 21
172.0660053073243887
 31
0.0
  0
LINE
  5
B25C
  8
0
 10
4145.0822812736359992
 20
172.0856903467281995
 30
0.0
 11
4144.6864284500989015
 21
172.085690346720412
 31
0.0
  0
ARC
  5
B25D
  8
0
 10
4144.69371386025432
 20
172.1043162104286068
 30
0.0
 40
0.0200000000000321
 50
207.531375228532994
 51
248.6373045967947917
  0
ARC
  5
B25E
  8
0
 10
4144.6525337423508972
 20
172.0831290703636967
 30
0.0
 40
0.0263113743041152
 50
26.9935007934622497
 51
49.4059334784945889
  0
ARC
  5
B25F
  8
0
 10
4078.2385603448310576
 20
100.8792798361895962
 30
0.0
 40
97.395708352700936
 50
46.9940628912975171
 51
47.1328021991692694
  0
ARC
  5
B260
  8
0
 10
4144.4765727323183455
 20
172.2417831477094978
 30
0.0
 40
0.0300000002533176
 50
47.1000000940416896
 51
91.0999997351261186
  0
LINE
  5
B261
  8
0
 10
4145.0857031402510984
 20
174.6167729401244912
 30
0.0
 11
4147.779606976051582
 21
174.6167729401244912
 31
0.0
  0
LINE
  5
B262
  8
0
 10
4144.4759968090393158
 20
172.2717776193264001
 30
0.0
 11
4143.4295935534819364
 21
172.2516856503922895
 31
0.0
  0
ARC
  5
B263
  8
0
 10
4143.4301693854467885
 20
172.2216959343878955
 30
0.0
 40
0.0299952437642295
 50
91.1000000001553758
 51
135.0088393814490075
  0
LINE
  5
B264
  8
0
 10
4143.4089562732542618
 20
172.2429025022285884
 30
0.0
 11
4143.1265480758320336
 21
171.9604071535707135
 31
0.0
  0
ARC
  5
B265
  8
0
 10
4143.1478809862319395
 20
171.9390808244810955
 30
0.0
 40
0.0301646378820561
 50
135.0088393814548056
 51
179.7005753572020126
  0
LINE
  5
B266
  8
0
 10
4143.1177167602536429
 20
171.939238462528607
 30
0.0
 11
4143.1177167602536429
 21
170.3165397794255966
 31
0.0
  0
ARC
  5
B267
  8
0
 10
4143.1661889078541208
 20
170.3232949561196961
 30
0.0
 40
0.0489405915905748
 50
187.9337567112605996
 51
215.0693830985314889
  0
LINE
  5
B268
  8
0
 10
4143.1261331447540215
 20
170.2951752593286017
 30
0.0
 11
4143.2294159381926875
 21
170.1884425000480974
 31
0.0
  0
ARC
  5
B269
  8
0
 10
4143.2511529459607118
 20
170.2098149405800882
 30
0.0
 40
0.0304840732359966
 50
224.515473592437786
 51
268.4960236155396842
  0
LINE
  5
B26A
  8
0
 10
4143.250352851054231
 20
170.1793413689285899
 30
0.0
 11
4144.6533182926877998
 21
170.1515717184298069
 31
0.0
  0
ARC
  5
B26B
  8
0
 10
4144.6537128912632397
 20
170.1715708636779993
 30
0.0
 40
0.0200030377366604
 50
268.8696567040321952
 51
359.1852899432960839
  0
ARC
  5
B26C
  8
0
 10
4144.6698266233697723
 20
170.3152230010987864
 30
0.0
 40
0.0060283803021225
 50
49.8745084073937974
 51
51.2493314917389498
  0
ARC
  5
B26D
  8
0
 10
4144.6547669276751549
 20
170.2901241784022091
 30
0.0
 40
0.0352524753635115
 50
57.7080519933035916
 51
91.996279335065239
  0
ARC
  5
B26E
  8
0
 10
4356.4404730220367128
 20
62072.6028561750499648
 30
0.0
 40
61902.6397943246629438
 50
269.8038889256409902
 51
269.8039740923537124
  0
ARC
  5
B26F
  8
0
 10
4144.5628185563919033
 20
170.3566839701474009
 30
0.0
 40
0.0310408006021677
 50
244.6962773988676076
 51
267.6115836829274031
  0
ARC
  5
B270
  8
0
 10
4144.5525310227039881
 20
170.3349241836218084
 30
0.0
 40
0.0069716988527148
 50
184.9038671323019969
 51
244.6962773988169886
  0
ARC
  5
B271
  8
0
 10
4133.2961627115328156
 20
170.4172840132683007
 30
0.0
 40
11.2497279953370395
 50
359.5774955378473123
 51
0.428613906128785
  0
ARC
  5
B272
  8
0
 10
4144.5554881292891878
 20
170.5005899531103921
 30
0.0
 40
0.0099485209057807
 50
114.3500793055900999
 51
175.102242311682005
  0
ARC
  5
B273
  8
0
 10
4144.5612984364470321
 20
170.4877514804582006
 30
0.0
 40
0.0240405771542313
 50
89.6696534910806662
 51
114.3500793055900999
  0
ARC
  5
B274
  8
0
 10
4144.6313047501871552
 20
182.6296139247583881
 30
0.0
 40
12.1180236831052692
 50
269.6696534910806236
 51
270.1044436992891065
  0
ARC
  5
B275
  8
0
 10
4144.6533519830481964
 20
170.5349447188010004
 30
0.0
 40
0.0233343823414245
 50
270.1044436992891065
 51
330.7528057627724252
  0
LINE
  5
B276
  8
0
 10
4145.0822812736359992
 20
170.2419758342244904
 30
0.0
 11
4144.6864284500989015
 21
170.2392336538368056
 31
0.0
  0
ARC
  5
B277
  8
0
 10
4144.6937210949336077
 20
170.2205782541643089
 30
0.0
 40
0.0200301424262713
 50
111.351192206992593
 51
177.392152250195096
  0
LINE
  5
B278
  8
0
 10
4145.1019663130373374
 20
170.3534068821286098
 30
0.0
 11
4145.1334608546540039
 21
170.3534068821286098
 31
0.0
  0
LINE
  5
B279
  8
0
 10
4145.1334608546540039
 20
171.9715171184286078
 30
0.0
 11
4145.1019663130373374
 21
171.9715171184286078
 31
0.0
  0
LINE
  5
B27A
  8
0
 10
4148.9917300672541387
 20
171.5564620002286063
 30
0.0
 11
4148.9917300672541387
 21
155.810399008028611
 31
0.0
  0
LINE
  5
B27B
  8
0
 10
4149.7791333695040521
 20
155.810399008028611
 30
0.0
 11
4149.7791333695040521
 21
171.5564620002286063
 31
0.0
  0
ARC
  5
B27C
  8
0
 10
4149.3854317183786407
 20
171.5564611365036001
 30
0.0
 40
0.3937016511259663
 50
0.0001256987306747
 51
179.9998743012693012
  0
ARC
  5
B27D
  8
0
 10
4149.3854308546542597
 20
171.5564620002286063
 30
0.0
 40
0.649606299200002
 50
2.6821995346090302
 51
232.6947990335374072
  0
ARC
  5
B27E
  8
0
 10
4148.7948796735536234
 20
171.775665321628594
 30
0.0
 40
0.0196850394000791
 50
159.6400249265371087
 51
179.9999999999787974
  0
LINE
  5
B27F
  8
0
 10
4148.7751946341531948
 20
171.775665321628594
 30
0.0
 11
4148.7751946341531948
 21
171.3372586789286061
 31
0.0
  0
ARC
  5
B280
  8
0
 10
4148.7948796735227006
 20
171.3372586789286061
 30
0.0
 40
0.0196850393695733
 50
179.9999999999787974
 51
200.366310118142593
  0
ARC
  5
B281
  8
0
 10
4149.9759820358531215
 20
171.775665321628594
 30
0.0
 40
0.0196850393999812
 50
0.0
 51
20.3641682689216594
  0
LINE
  5
B282
  8
0
 10
4149.9956670752553691
 20
171.775665321628594
 30
0.0
 11
4149.9956670752553691
 21
171.5673655760633096
 31
0.0
  0
ARC
  5
B283
  8
0
 10
4149.3854308546542597
 20
171.5564620002286063
 30
0.0
 40
0.433070866100003
 50
345.8262521408688031
 51
204.6199773171140919
  0
LINE
  5
B284
  8
0
 10
4148.9542291569541703
 20
171.5958320785285878
 30
0.0
 11
4148.9937035171678872
 21
171.5958320785285878
 31
0.0
  0
LINE
  5
B285
  8
0
 10
4148.9541508329048156
 20
171.5171184123886974
 30
0.0
 11
4148.9917300672541387
 21
171.5171184123886974
 31
0.0
  0
ARC
  5
B286
  8
0
 10
4149.3854308546542597
 20
171.5564620002286063
 30
0.0
 40
0.4015748812000197
 50
174.3737302140550014
 51
185.6224719043339917
  0
ARC
  5
B287
  8
0
 10
4149.3854308546542597
 20
171.5564620002286063
 30
0.0
 40
0.4212598575999729
 50
174.6374286346826921
 51
185.3589525555856028
  0
LINE
  5
B288
  8
0
 10
4148.024454418519781
 20
174.9039877361244919
 30
0.0
 11
4150.7464073413539154
 21
174.9039877361244919
 31
0.0
  0
LINE
  5
B289
  8
0
 10
4150.7464073413539154
 20
174.9039877361244919
 30
0.0
 11
4150.7417900525542791
 21
174.6394890068245047
 31
0.0
  0
ARC
  5
B28A
  8
0
 10
4150.702321877291979
 20
174.6401779929836096
 30
0.0
 40
0.0394741885334629
 50
314.5735131471047907
 51
358.9999033503959254
  0
LINE
  5
B28B
  8
0
 10
4150.7300258031036719
 20
174.6120585325510888
 30
0.0
 11
4150.637413963502695
 21
174.5208152620857049
 31
0.0
  0
ARC
  5
B28C
  8
0
 10
4150.6105322849689401
 20
174.5497585549958899
 30
0.0
 40
0.0395011246076657
 50
270.2254273606341144
 51
312.8850298610669824
  0
LINE
  5
B28D
  8
0
 10
4150.6106876997546351
 20
174.5102577361244869
 30
0.0
 11
4148.1601739678553713
 21
174.5102577361244869
 31
0.0
  0
ARC
  5
B28E
  8
0
 10
4148.1601628891148721
 20
174.5495557439749916
 30
0.0
 40
0.0392980090567869
 50
225.5482630223343108
 51
269.9858036882973238
  0
LINE
  5
B28F
  8
0
 10
4148.1326421707299232
 20
174.5215032293749005
 30
0.0
 11
4148.0408227389707463
 21
174.61205853492541
 31
0.0
  0
ARC
  5
B290
  8
0
 10
4148.0677541808636306
 20
174.6396214812234007
 30
0.0
 40
0.0385359386946226
 50
179.992595047395298
 51
225.6639384126733034
  0
LINE
  5
B291
  8
0
 10
4148.0292182424909697
 20
174.6396264616390965
 30
0.0
 11
4148.024454418519781
 21
174.9039877361244919
 31
0.0
  0
LINE
  5
B292
  8
0
 10
4148.8934273816703353
 20
174.5102577361244869
 30
0.0
 11
4148.8936714761703115
 21
172.8370586023245039
 31
0.0
  0
LINE
  5
B293
  8
0
 10
4148.8936714761703115
 20
172.8370586023245039
 30
0.0
 11
4149.8778009334546368
 21
172.8370586023245039
 31
0.0
  0
LINE
  5
B294
  8
0
 10
4149.8778009334546368
 20
172.8370586023245039
 30
0.0
 11
4149.8775568389537511
 21
174.5102577361244869
 31
0.0
  0
LINE
  5
B295
  8
0
 10
4149.0706740141204136
 20
172.8370586023245039
 30
0.0
 11
4149.0704702248540343
 21
172.1473411744285897
 31
0.0
  0
ARC
  5
B296
  8
0
 10
4149.0310729222210284
 20
172.1473411744237865
 30
0.0
 40
0.0393973026332715
 50
302.3930808467305837
 51
0.000000006935543
  0
LINE
  5
B297
  8
0
 10
4149.7005952739873464
 20
172.8370586023245039
 30
0.0
 11
4149.7003914845536201
 21
172.1473411744285897
 31
0.0
  0
ARC
  5
B298
  8
0
 10
4149.7399251074730273
 20
172.1473843186369947
 30
0.0
 40
0.0395336464608849
 50
180.0625285487982978
 51
236.4623841053825117
  0
ARC
  5
B299
  8
0
 10
4149.3854308546542597
 20
171.5564620002286063
 30
0.0
 40
0.668598134099973
 50
118.1041739713459009
 51
233.9248987002837907
  0
ARC
  5
B29A
  8
0
 10
4149.3854308546542597
 20
171.5564620002286063
 30
0.0
 40
0.668598134099973
 50
3.3749618966254848
 51
61.8958260189585019
  0
ARC
  5
B29B
  8
0
 10
4143.1341339823929957
 20
170.9015794515653965
 30
0.0
 40
0.0176170886198728
 50
201.268325809680988
 51
244.3338683272050105
  0
LINE
  5
B29C
  8
0
 10
4143.1265035567539599
 20
170.8857005846035122
 30
0.0
 11
4143.2294776571670809
 21
170.8527899730073045
 31
0.0
  0
ARC
  5
B29D
  8
0
 10
4143.2496807175921276
 20
170.9229540877877866
 30
0.0
 40
0.0730147187706737
 50
253.9335239881872042
 51
270.4400153314848012
  0
LINE
  5
B29E
  8
0
 10
4143.2502414444052192
 20
170.8499415221390905
 30
0.0
 11
4144.6533295308818197
 21
170.8414969678291015
 31
0.0
  0
ARC
  5
B29F
  8
0
 10
4144.6550498257247455
 20
170.8674737561221093
 30
0.0
 40
0.0260336886670372
 50
266.2111581381669225
 51
315.7938239868439041
  0
ARC
  5
B2A0
  8
0
 10
4145.1619566159379247
 20
170.8767557975465081
 30
0.0
 40
0.0360487132369005
 50
217.7696754306890909
 51
249.2280096224847057
  0
ARC
  5
B2A1
  8
0
 10
4145.1718335644418403
 20
170.9027953876667993
 30
0.0
 40
0.0638985671936885
 50
249.2280096224847057
 51
270.8943448669548957
  0
LINE
  5
B2A2
  8
0
 10
4145.1728309334539517
 20
170.8389046047286115
 30
0.0
 11
4148.9917300672541387
 21
170.8389046047286115
 31
0.0
  0
LINE
  5
B2A3
  8
0
 10
4153.6374008546554251
 20
171.970919728763306
 30
0.0
 11
4153.6374008546554251
 21
172.068090946803693
 31
0.0
  0
ARC
  5
B2A4
  8
0
 10
4153.5939468625883819
 20
172.0640081092575997
 30
0.0
 40
0.0436453776349576
 50
5.3676219840545869
 51
84.6309595038294304
  0
LINE
  5
B2A5
  8
0
 10
4153.5980307759537027
 20
172.107462000228594
 30
0.0
 11
4153.1784278292907402
 21
172.107462000438602
 31
0.0
  0
ARC
  5
B2A6
  8
0
 10
4153.1784278293907846
 20
172.3074589525326132
 30
0.0
 40
0.1999969520940254
 50
181.2148195052122901
 51
269.9999999713393777
  0
LINE
  5
B2A7
  8
0
 10
4152.978475829954732
 20
172.3032188148285968
 30
0.0
 11
4152.9786025121402417
 21
172.5417830117245046
 31
0.0
  0
LINE
  5
B2A8
  8
0
 10
4152.9786749491540832
 20
172.5417830117245046
 30
0.0
 11
4149.7005080294966319
 21
172.5417830117243909
 31
0.0
  0
LINE
  5
B2A9
  8
0
 10
4151.7716421708582857
 20
172.5811530904244933
 30
0.0
 11
4149.7005196620957577
 21
172.5811530904244933
 31
0.0
  0
ARC
  5
B2AA
  8
0
 10
4146.765544116710771
 20
173.8701533869420075
 30
0.0
 40
1.8409289541176761
 50
238.0882327409046866
 51
246.8840653366756897
  0
ARC
  5
B2AB
  8
0
 10
4145.831350097876566
 20
171.6816529291315874
 30
0.0
 40
0.5386198935976134
 50
52.639503312414881
 51
66.8840653366756754
  0
ARC
  5
B2AC
  8
0
 10
4146.4685060399524446
 20
172.5162101892098008
 30
0.0
 40
0.5113579703938115
 50
232.6395033124148028
 51
265.9545479620668971
  0
LINE
  5
B2AD
  8
0
 10
4146.4324308565401225
 20
172.0061263186285885
 30
0.0
 11
4148.8906395488411363
 21
172.0061341348032897
 31
0.0
  0
ARC
  5
B2AE
  8
0
 10
4150.7534625193038664
 20
175.1019906080630051
 30
0.0
 40
3.1316948984419142
 50
250.3496951810587916
 51
261.3241538056680042
  0
ARC
  5
B2AF
  8
0
 10
4150.7520145021144344
 20
175.0516949738249934
 30
0.0
 40
3.0817624910824062
 50
261.2097141397973132
 51
273.971269422199498
  0
ARC
  5
B2B0
  8
0
 10
4152.0178192114008198
 20
173.8460232387006954
 30
0.0
 40
1.81382905853562
 50
292.4259962566238755
 51
301.947451679105086
  0
LINE
  5
B2B1
  8
0
 10
4153.6846449491540625
 20
172.087394907128612
 30
0.0
 11
4153.6846449491540625
 21
171.9745201579939078
 31
0.0
  0
LINE
  5
B2B2
  8
0
 10
4154.5423642053137883
 20
170.1599296310303941
 30
0.0
 11
4155.5205088581542441
 21
170.1793413690286059
 31
0.0
  0
ARC
  5
B2B3
  8
0
 10
4155.5199138464322459
 20
170.2093356422039108
 30
0.0
 40
0.0300001743706106
 50
271.1364565932066739
 51
315.8745521834882197
  0
ARC
  5
B2B4
  8
0
 10
5000.5790478161379724
 20
-647.4537305919537857
 30
0.0
 40
1175.8517242523839741
 50
135.9367212173262942
 51
135.9439580336778022
  0
ARC
  5
B2B5
  8
0
 10
4155.6226629137354394
 20
170.3162065213255971
 30
0.0
 40
0.0304826605679165
 50
316.3753746203436208
 51
359.6330500597508717
  0
LINE
  5
B2B6
  8
0
 10
4155.6531449491449166
 20
170.3160112969285933
 30
0.0
 11
4155.6531449491449166
 21
171.551985940561508
 31
0.0
  0
ARC
  5
B2B7
  8
0
 10
4155.1844242767174364
 20
187.6280259144454874
 30
0.0
 40
15.5694801803657903
 50
267.1887291419474195
 51
268.7248862498638005
  0
ARC
  5
B2B8
  8
0
 10
4154.4240125951046139
 20
172.110962573215204
 30
0.0
 40
0.0338320076113582
 50
242.7667824001115946
 51
264.5506241361670732
  0
ARC
  5
B2B9
  8
0
 10
4155.0151043255091281
 20
172.5213529094577893
 30
0.0
 40
0.7496314742373571
 50
215.0509934682220887
 51
215.9858094049043871
  0
ARC
  5
B2BA
  8
0
 10
4154.3953330043796086
 20
172.0860726228563919
 30
0.0
 40
0.007733018598631
 50
38.0194471741749069
 51
86.860644503198472
  0
ARC
  5
B2BB
  8
0
 10
3989.1115848032241047
 20
-8409.0100783414400212
 30
0.0
 40
8582.6955279767535103
 50
88.8965388695986434
 51
88.9011529773935791
  0
ARC
  5
B2BC
  8
0
 10
4153.7044753006075553
 20
172.0872472348769975
 30
0.0
 40
0.0198309012876644
 50
89.3279805549340153
 51
179.5733388590815878
  0
LINE
  5
B2BD
  8
0
 10
4154.4229919104027431
 20
172.0771759750261936
 30
0.0
 11
4154.4235155400547228
 21
172.1344635657785886
 31
0.0
  0
ARC
  5
B2BE
  8
0
 10
4154.4415932377878562
 20
172.1342983289721076
 30
0.0
 40
0.0180784528811165
 50
131.9058978186255899
 51
179.4763100850304056
  0
LINE
  5
B2BF
  8
0
 10
4154.4295184733546193
 20
172.1477530873285957
 30
0.0
 11
4154.4931084417039528
 21
172.2091937436788953
 31
0.0
  0
ARC
  5
B2C0
  8
0
 10
4154.5065783088903117
 20
172.1953222760184872
 30
0.0
 40
0.0193353275116157
 50
88.2164825017677856
 51
134.1583660453480036
  0
LINE
  5
B2C1
  8
0
 10
4154.5071800866544436
 20
172.2146482366285909
 30
0.0
 11
4155.0813691447283418
 21
172.2046914082980891
 31
0.0
  0
ARC
  5
B2C2
  8
0
 10
4155.0810334182360748
 20
172.1850538446138046
 30
0.0
 40
0.0196404332877519
 50
43.9221740578657887
 51
89.0205589243310129
  0
LINE
  5
B2C3
  8
0
 10
4155.0951800826333056
 20
172.1986780328888926
 30
0.0
 11
4155.1574723526591697
 21
172.1339969068791049
 31
0.0
  0
ARC
  5
B2C4
  8
0
 10
4155.1432994372262328
 20
172.1212381632900872
 30
0.0
 40
0.0190697946975237
 50
0.2992911709458704
 51
41.9941795665150011
  0
LINE
  5
B2C5
  8
0
 10
4155.1623689717544039
 20
172.1213377761285983
 30
0.0
 11
4155.1626673799073615
 21
172.0871435890352075
 31
0.0
  0
LINE
  5
B2C6
  8
0
 10
4154.4235090439324267
 20
172.1337528588946952
 30
0.0
 11
4154.4314710230537457
 21
172.1235771303286128
 31
0.0
  0
LINE
  5
B2C7
  8
0
 10
4154.4314710230537457
 20
172.1235771303286128
 30
0.0
 11
4154.4748316761988463
 21
172.1202133622624046
 31
0.0
  0
LINE
  5
B2C8
  8
0
 10
4154.4748316761988463
 20
172.1202133622624046
 30
0.0
 11
4155.1110049344542858
 21
172.1089211647285993
 31
0.0
  0
LINE
  5
B2C9
  8
0
 10
4155.1110049344542858
 20
172.1089211647285993
 30
0.0
 11
4155.1538683852595568
 21
172.1111964204418996
 31
0.0
  0
LINE
  5
B2CA
  8
0
 10
4155.1538683852595568
 20
172.1111964204418996
 30
0.0
 11
4155.1623689937341624
 21
172.1213352573599025
 31
0.0
  0
LINE
  5
B2CB
  8
0
 10
4153.6967840034540131
 20
174.9040331692245047
 30
0.0
 11
4150.9795895169536379
 21
174.9040331692245047
 31
0.0
  0
LINE
  5
B2CC
  8
0
 10
4150.9795895169536379
 20
174.9040331692245047
 30
0.0
 11
4150.9795899952541731
 21
174.6447758791244951
 31
0.0
  0
ARC
  5
B2CD
  8
0
 10
4151.0190081444116004
 20
174.6447759518464125
 30
0.0
 40
0.0394181491573149
 50
180.000105704146506
 51
225.399967576220007
  0
LINE
  5
B2CE
  8
0
 10
4150.9913305547543132
 20
174.6167092186244929
 30
0.0
 11
4151.0877593975092168
 21
174.5216173559635138
 31
0.0
  0
ARC
  5
B2CF
  8
0
 10
4151.1153437925613616
 20
174.5495895842759069
 30
0.0
 40
0.0392854223241483
 50
225.3999675762188986
 51
269.9651366421948069
  0
LINE
  5
B2D0
  8
0
 10
4151.1153198881538628
 20
174.5103041692244972
 30
0.0
 11
4153.5610402770544169
 21
174.5103041692244972
 31
0.0
  0
ARC
  5
B2D1
  8
0
 10
4153.561041059812851
 20
174.5496583559335022
 30
0.0
 40
0.0393541867167825
 50
269.9988603821136053
 51
314.596555123016401
  0
LINE
  5
B2D2
  8
0
 10
4153.5886720373537173
 20
174.5216354886244972
 30
0.0
 11
4153.6850745748306508
 21
174.6166898711261126
 31
0.0
  0
ARC
  5
B2D3
  8
0
 10
4153.6574767738147784
 20
174.6446790913655889
 30
0.0
 40
0.0393069341268808
 50
314.5965551230128767
 51
0.1406827594018349
  0
LINE
  5
B2D4
  8
0
 10
4153.6967835894547534
 20
174.644775604624499
 30
0.0
 11
4153.6967840034540131
 21
174.9040331692245047
 31
0.0
  0
ARC
  5
B2D5
  8
0
 10
4153.2950688155651733
 20
174.3132738289556016
 30
0.0
 40
0.1970303408914982
 50
90.0045546942375836
 51
178.9913297907856986
  0
LINE
  5
B2D6
  8
0
 10
4153.0980690059541303
 20
174.316742293324495
 30
0.0
 11
4153.0869143484687811
 21
173.6831865847969993
 31
0.0
  0
ARC
  5
B2D7
  8
0
 10
4153.0672270228442358
 20
173.6835332084185097
 30
0.0
 40
0.0196903767929484
 50
270.3355148415186022
 51
358.991329790784107
  0
LINE
  5
B2D8
  8
0
 10
4153.0673423258531329
 20
173.6638431692244922
 30
0.0
 11
4151.6097033375290266
 21
173.6638431692244922
 31
0.0
  0
ARC
  5
B2D9
  8
0
 10
4151.6090662932138002
 20
173.6835534660650069
 30
0.0
 40
0.0197205889110937
 50
181.0715915408567867
 51
271.8511770544769206
  0
LINE
  5
B2DA
  8
0
 10
4151.589349153279727
 20
173.6831846573244889
 30
0.0
 11
4151.5774987370468807
 21
174.31672798064929
 31
0.0
  0
ARC
  5
B2DB
  8
0
 10
4151.3802317453755677
 20
174.3130381051911968
 30
0.0
 40
0.1973014981803828
 50
1.0715915408568399
 51
88.9140997564197733
  0
LINE
  5
B2DC
  8
0
 10
4152.9779505397546018
 20
173.6638431692244922
 30
0.0
 11
4152.9781946342536685
 21
173.1736284660244962
 31
0.0
  0
LINE
  5
B2DD
  8
0
 10
4152.9781946342536685
 20
173.1736284660244962
 30
0.0
 11
4152.9289820358535508
 21
173.1323341928244872
 31
0.0
  0
LINE
  5
B2DE
  8
0
 10
4152.9289820358535508
 20
173.1323341928244872
 30
0.0
 11
4152.9289820358535508
 21
172.6598932479244866
 31
0.0
  0
LINE
  5
B2DF
  8
0
 10
4152.9289820358535508
 20
172.6598932479244866
 30
0.0
 11
4151.7478796736540971
 21
172.6598932479244866
 31
0.0
  0
LINE
  5
B2E0
  8
0
 10
4151.7478796736540971
 20
172.6598932479244866
 30
0.0
 11
4151.7478796736540971
 21
173.1323341928244872
 31
0.0
  0
LINE
  5
B2E1
  8
0
 10
4151.7478796736540971
 20
173.1323341928244872
 30
0.0
 11
4151.698667075153935
 21
173.1736290310244897
 31
0.0
  0
LINE
  5
B2E2
  8
0
 10
4151.698667075153935
 20
173.1736290310244897
 30
0.0
 11
4151.6984229806530493
 21
173.6638431692244922
 31
0.0
  0
LINE
  5
B2E3
  8
0
 10
4152.7616592011536341
 20
172.6598932479244866
 30
0.0
 11
4152.7616592011536341
 21
172.5673735629245016
 31
0.0
  0
LINE
  5
B2E4
  8
0
 10
4152.7616592011536341
 20
172.5673735629245016
 30
0.0
 11
4152.7518166814543292
 21
172.5575310432244862
 31
0.0
  0
LINE
  5
B2E5
  8
0
 10
4152.7518166814543292
 20
172.5575310432244862
 30
0.0
 11
4152.7518166814543292
 21
172.5417830117245046
 31
0.0
  0
LINE
  5
B2E6
  8
0
 10
4151.9152025082539694
 20
172.6598932479244866
 30
0.0
 11
4151.9152025082539694
 21
172.5673735629245016
 31
0.0
  0
LINE
  5
B2E7
  8
0
 10
4151.9152025082539694
 20
172.5673735629245016
 30
0.0
 11
4151.9250450279541838
 21
172.5575310432244862
 31
0.0
  0
LINE
  5
B2E8
  8
0
 10
4151.9250450279541838
 20
172.5575310432244862
 30
0.0
 11
4151.9250450279541838
 21
172.5417830117245046
 31
0.0
  0
LINE
  5
B2E9
  8
0
 10
4151.9152025082539694
 20
172.5673735629245016
 30
0.0
 11
4152.7616592011536341
 21
172.5673735629245016
 31
0.0
  0
LINE
  5
B2EA
  8
0
 10
4152.7518166814543292
 20
172.5575310432244862
 30
0.0
 11
4151.9250450279541838
 21
172.5575310432244862
 31
0.0
  0
LINE
  5
B2EB
  8
0
 10
4153.685158569156556
 20
174.6167729401244912
 30
0.0
 11
4150.9912547333560724
 21
174.6167729401244912
 31
0.0
  0
LINE
  5
B2EC
  8
0
 10
4143.2501149475538114
 20
172.0840121580584992
 30
0.0
 11
4143.2501149475538114
 21
170.1793485446598879
 31
0.0
  0
ARC
  5
B2ED
  8
0
 10
4143.1484114867789685
 20
171.8464520133302926
 30
0.0
 40
0.0314117114156275
 50
134.2223614105772924
 51
167.7347504068380886
  0
LINE
  5
B2EE
  8
0
 10
4143.126503550553025
 20
171.8689628539285934
 30
0.0
 11
4143.2295557724492028
 21
171.9551962565483905
 31
0.0
  0
ARC
  5
B2EF
  8
0
 10
4143.2499475355143659
 20
171.9302860721406887
 30
0.0
 40
0.0321913173216179
 50
89.4767026479161274
 51
129.4854059414695939
  0
LINE
  5
B2F0
  8
0
 10
4143.2502415431536065
 20
171.9624760468286127
 30
0.0
 11
4144.6535218842773247
 21
171.9848809849424072
 31
0.0
  0
ARC
  5
B2F1
  8
0
 10
4144.6539343159302007
 20
171.9645008922782949
 30
0.0
 40
0.0203842654237062
 50
14.0160800057555708
 51
91.1593356504925652
  0
LINE
  5
B2F2
  8
0
 10
4143.2501148338542407
 20
172.050554749528601
 30
0.0
 11
4144.6548650247150363
 21
172.0778990831720989
 31
0.0
  0
ARC
  5
B2F3
  8
0
 10
4144.6552548916915839
 20
172.0578705931868058
 30
0.0
 40
0.0200322841272198
 50
22.8590437339891785
 51
91.1151570471837289
  0
LINE
  5
B2F4
  8
0
 10
4154.5197028966640573
 20
170.8439270715419127
 30
0.0
 11
4155.520620728252652
 21
170.8499276227285861
 31
0.0
  0
ARC
  5
B2F5
  8
0
 10
4155.5174198712311409
 20
170.9101242994767063
 30
0.0
 40
0.0602817167738268
 50
273.0437402266946947
 51
293.5337028072950716
  0
LINE
  5
B2F6
  8
0
 10
4155.5414896637330457
 20
170.8548564926983033
 30
0.0
 11
4155.644686645829097
 21
170.8913908167494924
 31
0.0
  0
ARC
  5
B2F7
  8
0
 10
4155.6387740776926876
 20
170.9048016122727915
 30
0.0
 40
0.0146563262289463
 50
293.791782382932297
 51
348.673358969978608
  0
ARC
  5
B2F8
  8
0
 10
4153.5977162670851612
 20
171.9492502140356862
 30
0.0
 40
0.0425378315894484
 50
30.2733353241177383
 51
89.5763725053860043
  0
LINE
  5
B2F9
  8
0
 10
4153.5980307759537027
 20
171.9917868829286078
 30
0.0
 11
4152.7693140837391184
 21
171.9917868829286078
 31
0.0
  0
ARC
  5
B2FA
  8
0
 10
4153.7033123216178865
 20
171.9728667907317003
 30
0.0
 40
0.0186748232135786
 50
85.7128029067498716
 51
174.9087430785467063
  0
LINE
  5
B2FB
  8
0
 10
4153.704708374853908
 20
171.9914893592286091
 30
0.0
 11
4153.8730777154405587
 21
171.9888741176312976
 31
0.0
  0
LINE
  5
B2FC
  8
0
 10
4148.0367225399031668
 20
174.6167729401244912
 30
0.0
 11
4150.7348109226632005
 21
174.6167729401244912
 31
0.0
  0
LINE
  5
B2FD
  8
0
 10
4150.99126593733763
 20
174.6167729401244912
 30
0.0
 11
4153.6851588219951736
 21
174.6167729401244912
 31
0.0
  0
LINE
  5
B2FE
  8
0
 10
4155.5207467618547525
 20
171.5418979577063965
 30
0.0
 11
4155.5207467618547525
 21
170.1793460772248068
 31
0.0
  0
ARC
  5
B2FF
  8
0
 10
4146.9994996276282109
 20
172.537545993087889
 30
0.0
 40
0.0436272504379548
 50
88.2584081909129878
 51
174.4267278574764077
  0
LINE
  5
B300
  8
0
 10
4149.07059840229158
 20
172.5811530904244933
 30
0.0
 11
4147.000825539636935
 21
172.5811530904244933
 31
0.0
  0
ARC
  5
B301
  8
0
 10
4151.7708391955466141
 20
172.5369516378792127
 30
0.0
 40
0.044208745474852
 50
6.2741281333072489
 51
91.0407358518959455
  0
ARC
  5
B302
  8
0
 10
4152.2626528854962089
 20
167.3737827782782119
 30
0.0
 40
4.5430103560764303
 50
72.3857305946888232
 51
83.0821891046567771
  0
ARC
  5
B303
  8
0
 10
4153.0202871735400549
 20
169.7600864950630069
 30
0.0
 40
2.0393220481671932
 50
61.0682262262852475
 51
72.3857305946888232
  0
ARC
  5
B304
  8
0
 10
4153.3166141889687424
 20
170.296179080271088
 30
0.0
 40
1.4267822862020789
 50
53.2260898343096684
 51
61.0682262262852475
  0
ARC
  5
B305
  8
0
 10
4153.6386423190397181
 20
170.7270518682254021
 30
0.0
 40
0.8888664229336715
 50
7.6447661844118677
 51
53.2260898343096684
  0
ARC
  5
B306
  8
0
 10
4143.7257559183826743
 20
170.1438560029301925
 30
0.0
 40
10.8166202297388505
 50
0.0851422506294827
 51
3.7181591661333031
  0
LINE
  5
B307
  8
0
 10
4154.5423642053137883
 20
170.1599296310303941
 30
0.0
 11
4154.5423642053137883
 21
170.0832730775551909
 31
0.0
  0
ARC
  5
B308
  8
0
 10
4154.2361319477113284
 20
170.1104939336034931
 30
0.0
 40
0.3074397023806791
 50
339.0908919897785267
 51
354.9203529848949756
  0
ARC
  5
B309
  8
0
 10
4154.0542250014686942
 20
170.196589326651889
 30
0.0
 40
0.5083304923273583
 50
299.7832245062355128
 51
337.3429187221767052
  0
ARC
  5
B30A
  8
0
 10
4153.1194273432247428
 20
171.6977812741122875
 30
0.0
 40
2.2765107345004738
 50
283.3661346035657971
 51
301.4357295481445931
  0
ARC
  5
B30B
  8
0
 10
4152.3570782912984214
 20
174.2858672365219945
 30
0.0
 40
4.9727949780028444
 50
274.3472018254315117
 51
285.0186396454899977
  0
ARC
  5
B30C
  8
0
 10
4151.9885668620627257
 20
177.2604804826248142
 30
0.0
 40
7.9680485386828472
 50
269.9593580733869089
 51
275.3681537412704188
  0
ARC
  5
B30D
  8
0
 10
4152.2269040693472562
 20
179.7045861091924053
 30
0.0
 40
10.4150104829119297
 50
262.8416718262718064
 51
268.6576267090975989
  0
ARC
  5
B30E
  8
0
 10
4151.5159667261523282
 20
174.0438300612185003
 30
0.0
 40
4.7097856021011788
 50
251.1040122514378936
 51
262.8416718262718064
  0
ARC
  5
B30F
  8
0
 10
4150.7012305268963246
 20
171.4569134433913007
 30
0.0
 40
1.9995507822612519
 50
242.5385208555244958
 51
249.1853183440331918
  0
ARC
  5
B310
  8
0
 10
4150.5426509463577531
 20
170.4457524157778892
 30
0.0
 40
1.246193739173719
 50
122.6381709864892997
 51
127.7859042541810055
  0
ARC
  5
B311
  8
0
 10
4150.751740977638292
 20
170.1192868303515979
 30
0.0
 40
1.6338771404802019
 50
113.543770023387097
 51
122.6381709864892997
  0
ARC
  5
B312
  8
0
 10
4151.2460763015888006
 20
168.9847643247705946
 30
0.0
 40
2.8714185451106831
 50
106.0036202391376037
 51
113.543770023387097
  0
ARC
  5
B313
  8
0
 10
4151.5940426279294115
 20
167.7715508533549098
 30
0.0
 40
4.1335467048042771
 50
99.4191505908791981
 51
106.0036202391376037
  0
ARC
  5
B314
  8
0
 10
4152.2437252999498014
 20
163.8552600483967012
 30
0.0
 40
8.1033604590405641
 50
98.3270720507286882
 51
99.4191505908791981
  0
ARC
  5
B315
  8
0
 10
4150.9681078962030369
 20
171.9380519596753061
 30
0.0
 40
0.0393702278330425
 50
359.9999533561756948
 51
93.8849801875486207
  0
LINE
  5
B316
  8
0
 10
4151.0074781240382435
 20
171.9380519276245138
 30
0.0
 11
4151.0074780635613934
 21
171.8637644967728875
 31
0.0
  0
LINE
  5
B317
  8
0
 10
4151.0088167067369795
 20
171.9377543503244965
 30
0.0
 11
4151.0288167067374161
 21
171.9377543503244965
 31
0.0
  0
LINE
  5
B318
  8
0
 10
4151.0288167067374161
 20
171.9377543503244965
 30
0.0
 11
4151.0288167067374161
 21
171.8670293810272938
 31
0.0
  0
LINE
  5
B319
  8
0
 10
4151.0088167067369795
 20
171.9377543503244965
 30
0.0
 11
4151.0088167067369795
 21
171.8639710242997864
 31
0.0
  0
LINE
  5
B31A
  8
0
 10
4151.0466671004369346
 20
171.9409192695885906
 30
0.0
 11
4151.0466671004369346
 21
171.8697158874491038
 31
0.0
  0
LINE
  5
B31B
  8
0
 10
4151.0288167067374161
 20
171.8902691778245071
 30
0.0
 11
4151.0466671004369346
 21
171.8902691778245071
 31
0.0
  0
ARC
  5
B31C
  8
0
 10
4151.0860371791377474
 20
171.9409192699245068
 30
0.0
 40
0.0393700787000064
 50
90.0
 51
180.0000004887073999
  0
LINE
  5
B31D
  8
0
 10
4151.0860371791377474
 20
171.9802893486244955
 30
0.0
 11
4151.1254006076305814
 21
171.9802893486244955
 31
0.0
  0
ARC
  5
B31E
  8
0
 10
4151.0977193076369076
 20
171.956116542471392
 30
0.0
 40
0.0915584502552466
 50
330.7379016692656819
 51
357.3520204933998912
  0
ARC
  5
B31F
  8
0
 10
4151.1173113604199898
 20
171.9451390306242047
 30
0.0
 40
0.0691006164631457
 50
297.0192055774602977
 51
330.7379016692656819
  0
ARC
  5
B320
  8
0
 10
4151.2446323774611301
 20
171.9527858625735917
 30
0.0
 40
0.0554633248053368
 50
181.0439785557686037
 51
205.6860954365411089
  0
ARC
  5
B321
  8
0
 10
4151.2909096438734196
 20
171.9750437766653022
 30
0.0
 40
0.106815054340836
 50
205.6860954365411089
 51
226.8489270662082902
  0
ARC
  5
B322
  8
0
 10
4151.4208512944023823
 20
172.1136545882773135
 30
0.0
 40
0.2968092375091755
 50
226.8489270662082902
 51
246.2316434908065048
  0
ARC
  5
B323
  8
0
 10
4151.7180736273876391
 20
172.7885570872724088
 30
0.0
 40
1.0342605907354661
 50
246.2316434908065048
 51
255.1200192973464027
  0
ARC
  5
B324
  8
0
 10
4151.8105995322075614
 20
173.1367846057410134
 30
0.0
 40
1.3945708010844351
 50
255.1200192973464027
 51
262.6602244159495854
  0
ARC
  5
B325
  8
0
 10
4152.0227361470197138
 20
174.7836977340928968
 30
0.0
 40
3.055090236586933
 50
262.6602244159495854
 51
267.2548175717885783
  0
ARC
  5
B326
  8
0
 10
4151.9625833983045595
 20
173.529186951174097
 30
0.0
 40
1.79913814449204
 50
267.2548175717885783
 51
270.5424179808808276
  0
ARC
  5
B327
  8
0
 10
4151.949219905440259
 20
174.9407346753685033
 30
0.0
 40
3.210749125116652
 50
270.5424179808808276
 51
275.3907526542026858
  0
ARC
  5
B328
  8
0
 10
4152.1000548235097085
 20
173.3423144319473863
 30
0.0
 40
1.6052278866748839
 50
275.3907526542026858
 51
287.083217113109697
  0
ARC
  5
B329
  8
0
 10
4152.4035894302869565
 20
172.3546304484794121
 30
0.0
 40
0.5719549756247169
 50
287.083217113109697
 51
302.7348696428318817
  0
ARC
  5
B32A
  8
0
 10
4152.6267563466326465
 20
172.0074771616181124
 30
0.0
 40
0.1592578989086657
 50
302.7348696428318817
 51
327.0415489890781942
  0
ARC
  5
B32B
  8
0
 10
4152.7098438951870776
 20
171.953605098924811
 30
0.0
 40
0.0602339630978468
 50
327.0415489890795016
 51
358.1841198118917191
  0
LINE
  5
B32C
  8
0
 10
4152.7700476097588762
 20
171.9516964181925118
 30
0.0
 11
4152.7678054289581269
 21
172.0742415874925086
 31
0.0
  0
ARC
  5
B32D
  8
0
 10
4152.6754823999726796
 20
172.0720743863051041
 30
0.0
 40
0.0923484620452006
 50
1.344720626372119
 51
27.5785876146838405
  0
ARC
  5
B32E
  8
0
 10
4152.6263676436037713
 20
172.0464211791604043
 30
0.0
 40
0.1477591679606261
 50
27.5785876146838405
 51
47.4158055817209174
  0
ARC
  5
B32F
  8
0
 10
4152.5240195726546517
 20
171.9350568457473116
 30
0.0
 40
0.2990110849191916
 50
47.4158055817209174
 51
58.2009347306694735
  0
ARC
  5
B330
  8
0
 10
4152.4552610747496146
 20
171.8241567015365945
 30
0.0
 40
0.4294969961125736
 50
58.2009347306694735
 51
61.316696083530509
  0
ARC
  5
B331
  8
0
 10
4152.8578785977797452
 20
171.9559572711706892
 30
0.0
 40
0.0880432361466369
 50
183.5139198235387994
 51
214.4421231763865023
  0
ARC
  5
B332
  8
0
 10
4152.8445348859404476
 20
171.9468062242665951
 30
0.0
 40
0.0718631154704718
 50
214.4421231763851949
 51
240.6202952272041955
  0
ARC
  5
B333
  8
0
 10
4152.8145055845798197
 20
171.8958426013975043
 30
0.0
 40
0.0127750152554868
 50
245.8510313517585075
 51
270.1497252926408805
  0
ARC
  5
B334
  8
0
 10
4151.9809450834209201
 20
171.2937542700576046
 30
0.0
 40
0.8099676543117126
 50
86.9263279330737788
 51
90.0940483943859505
  0
ARC
  5
B335
  8
0
 10
4151.9883650014489831
 20
171.3878195330680967
 30
0.0
 40
0.7156437658099281
 50
79.913204170450399
 51
87.1157120104267051
  0
ARC
  5
B336
  8
0
 10
4152.0534712597800535
 20
171.7240168910485067
 30
0.0
 40
0.3732765982438451
 50
67.1547847431647114
 51
80.71422383829983
  0
ARC
  5
B337
  8
0
 10
4152.1476773584208786
 20
171.9476302054517021
 30
0.0
 40
0.1306293163731253
 50
40.8076472809890802
 51
67.1547847431647114
  0
LINE
  5
B338
  8
0
 10
4151.9874919932854027
 20
172.103695464838097
 30
0.0
 11
4151.9893512334592742
 21
172.3635830719925934
 31
0.0
  0
ARC
  5
B339
  8
0
 10
4152.0092981592879369
 20
172.3634403713602978
 30
0.0
 40
0.0199474362640403
 50
143.1661199005540936
 51
179.5901120528478998
  0
ARC
  5
B33A
  8
0
 10
4152.0078160680213841
 20
172.3642337574569012
 30
0.0
 40
0.0182873290240065
 50
89.4204288780483552
 51
142.3718531931467908
  0
ARC
  5
B33B
  8
0
 10
4151.9825467610962733
 20
170.279513500318501
 30
0.0
 40
2.1031606912286551
 50
84.2471346194522965
 51
89.3065394962996635
  0
ARC
  5
B33C
  8
0
 10
4152.072723557842437
 20
171.0129728790282115
 30
0.0
 40
1.3644524509076701
 50
72.5910339587109803
 51
84.9275119450677352
  0
ARC
  5
B33D
  8
0
 10
4152.3324161567197734
 20
171.841198756321603
 30
0.0
 40
0.4964672265346375
 50
53.8162007398325315
 51
72.5910339587109803
  0
ARC
  5
B33E
  8
0
 10
4152.5267429849800465
 20
172.119173691204594
 30
0.0
 40
0.1575474256740353
 50
31.2684418830169406
 51
51.1736671158969401
  0
ARC
  5
B33F
  8
0
 10
4152.5817141965198971
 20
172.1531896858203083
 30
0.0
 40
0.0929067007251719
 50
1.168133202518743
 51
30.9340167488634101
  0
LINE
  5
B340
  8
0
 10
4152.6746015890594208
 20
172.1550837150925872
 30
0.0
 11
4152.6752581035507319
 21
172.0835494328225934
 31
0.0
  0
LINE
  5
B341
  8
0
 10
4152.6752581035507319
 20
172.0835494328225934
 30
0.0
 11
4152.6757543187586634
 21
172.0294719763925002
 31
0.0
  0
ARC
  5
B342
  8
0
 10
4151.9945315681979991
 20
172.2044285981878033
 30
0.0
 40
0.0069694024425839
 50
204.5444948074595004
 51
246.8168760825373056
  0
ARC
  5
B343
  8
0
 10
4152.0026422552282384
 20
172.2233676530989896
 30
0.0
 40
0.027572097533491
 50
246.8168760825373056
 51
259.6078698013631083
  0
ARC
  5
B344
  8
0
 10
4152.00660063487976
 20
172.2449518646305933
 30
0.0
 40
0.0495162757344164
 50
259.6078698013631083
 51
268.8147512758537232
  0
ARC
  5
B345
  8
0
 10
4151.9880929775126788
 20
171.3504059612862989
 30
0.0
 40
0.8452210636961059
 50
85.7130569385323753
 51
88.8147512758537658
  0
ARC
  5
B346
  8
0
 10
4151.993966684033694
 20
171.4287625777481026
 30
0.0
 40
0.7666446055700148
 50
78.3488709309376077
 51
85.7130569385323753
  0
ARC
  5
B347
  8
0
 10
4152.0712276346903309
 20
171.803450756462496
 30
0.0
 40
0.3840737157150298
 50
64.4686697761783307
 51
78.3488709309376077
  0
ARC
  5
B348
  8
0
 10
4152.1975824050750816
 20
172.0679866787581034
 30
0.0
 40
0.0909103104548535
 50
36.4375916965378082
 51
64.4686697761783307
  0
ARC
  5
B349
  8
0
 10
4152.248735064846187
 20
172.1057515008114081
 30
0.0
 40
0.0273274795460743
 50
8.3429180258089062
 51
36.437591696531257
  0
ARC
  5
B34A
  8
0
 10
4152.2538711742508895
 20
172.1065047077088082
 30
0.0
 40
0.022136435291267
 50
325.6033200101796865
 51
8.3429180258137414
  0
ARC
  5
B34B
  8
0
 10
4152.219680933590098
 20
172.1364148133341132
 30
0.0
 40
0.0674588926286593
 50
302.0315708044387861
 51
321.0413585286464127
  0
ARC
  5
B34C
  8
0
 10
4152.2664612066819245
 20
172.0629633540131067
 30
0.0
 40
0.019634148252867
 50
124.0764622237270061
 51
179.8745385065707012
  0
LINE
  5
B34D
  8
0
 10
4152.2468271055013247
 20
172.0630063471901963
 30
0.0
 11
4152.246551711686152
 21
172.0329992897983118
 31
0.0
  0
LINE
  5
B34E
  8
0
 10
4152.246551711686152
 20
172.0329992897983118
 30
0.0
 11
4152.2460067734591576
 21
171.973622528792589
 31
0.0
  0
ARC
  5
B34F
  8
0
 10
4152.2374814780196175
 20
171.9565005364183037
 30
0.0
 40
0.0172953812052577
 50
89.023090139103175
 51
113.7973168369684061
  0
ARC
  5
B350
  8
0
 10
4152.2188513153250824
 20
170.8641710908285063
 30
0.0
 40
1.1097836880827909
 50
88.597881331030095
 51
89.0228929508386102
  0
ARC
  5
B351
  8
0
 10
4152.2890482182110645
 20
173.7321047830149894
 30
0.0
 40
1.7590089617880531
 50
268.5978813310301234
 51
269.401518030158627
  0
ARC
  5
B352
  8
0
 10
4152.021601981544336
 20
149.6990793480761965
 30
0.0
 40
22.2755049772095397
 50
88.640143386109969
 51
89.3593356467787032
  0
ARC
  5
B353
  8
0
 10
4152.5501188222569908
 20
171.9488403431485892
 30
0.0
 40
0.0194707316625731
 50
16.3246793470307097
 51
89.6474377438402286
  0
ARC
  5
B354
  8
0
 10
4152.6063265794973631
 20
172.0614582756464017
 30
0.0
 40
0.0824767050056292
 50
18.1097326883412784
 51
33.5760809816957888
  0
ARC
  5
B355
  8
0
 10
4152.6207975676843489
 20
172.0661908445661084
 30
0.0
 40
0.067251505246778
 50
347.4346385617660076
 51
18.1097326883428309
  0
ARC
  5
B356
  8
0
 10
4152.6187508428820365
 20
172.0706724346997021
 30
0.0
 40
0.0703340175648802
 50
324.1416889235341046
 51
344.2323320919641105
  0
ARC
  5
B357
  8
0
 10
4152.5019424910478847
 20
172.1705267541939861
 30
0.0
 40
0.2238459331609392
 50
294.803266513793119
 51
320.9393824536932129
  0
ARC
  5
B358
  8
0
 10
4152.4092780375576694
 20
172.320329064487396
 30
0.0
 40
0.399269765835017
 50
293.5497845549907083
 51
297.8575397413529799
  0
ARC
  5
B359
  8
0
 10
4152.1345264324063464
 20
173.013911193429692
 30
0.0
 40
1.1451399307574961
 50
275.1793710084867257
 51
292.2863591322554839
  0
ARC
  5
B35A
  8
0
 10
4151.9791135204841339
 20
174.3178908622595031
 30
0.0
 40
2.458104582830027
 50
270.0135734691664879
 51
276.0432996747433094
  0
ARC
  5
B35B
  8
0
 10
4152.2648949028562129
 20
172.0648367673175869
 30
0.0
 40
0.0172401328203411
 50
91.8790040587130932
 51
120.0840620555698024
  0
ARC
  5
B35C
  8
0
 10
-191.5151330504112934
 20
-263902.4381858563283458
 30
0.0
 40
264110.2433968234108761
 50
89.057555239888174
 51
89.057622874433946
  0
ARC
  5
B35D
  8
0
 10
4152.489627069719063
 20
172.2382169087372006
 30
0.0
 40
0.1829757407151418
 50
298.1868060947770118
 51
326.0477263887381127
  0
ARC
  5
B35E
  8
0
 10
4152.583650344607122
 20
172.1726000347416914
 30
0.0
 40
0.0683628687702982
 50
327.6547660366431955
 51
22.2739958367145512
  0
ARC
  5
B35F
  8
0
 10
4152.5356482601182506
 20
172.1482593387559916
 30
0.0
 40
0.1220859378579574
 50
24.3064789928086995
 51
51.4817861047427883
  0
ARC
  5
B360
  8
0
 10
4152.1054378620192438
 20
171.5516573917423102
 30
0.0
 40
0.8575048519718306
 50
53.8170695604997391
 51
60.3075029501724913
  0
ARC
  5
B361
  8
0
 10
4152.5723108235279142
 20
172.0536776919367128
 30
0.0
 40
0.0235615959496669
 50
3.6645742262057048
 51
80.8557177309660062
  0
LINE
  5
B362
  8
0
 10
4152.5958242437345689
 20
172.0551836381353041
 30
0.0
 11
4152.5958467185591871
 21
171.967329810692604
 31
0.0
  0
ARC
  5
B363
  8
0
 10
4152.4659004853119768
 20
172.2766205952599137
 30
0.0
 40
0.2567382109918539
 50
300.4014373508568951
 51
315.1411341061808002
  0
ARC
  5
B364
  8
0
 10
4152.5787985446140738
 20
172.1642773637790924
 30
0.0
 40
0.0974680836804505
 50
315.141134106181994
 51
341.2941122857358778
  0
ARC
  5
B365
  8
0
 10
4152.6054316054596711
 20
172.1552595195601896
 30
0.0
 40
0.0693497365679654
 50
341.2941122857374125
 51
356.3480050098431775
  0
ARC
  5
B366
  8
0
 10
4152.5833540070552772
 20
171.9952019754867081
 30
0.0
 40
0.1074948613879154
 50
24.0268927377987502
 51
30.9309103134049792
  0
ARC
  5
B367
  8
0
 10
4152.678537132666861
 20
172.0755535767166862
 30
0.0
 40
0.0895147999349426
 50
326.9811078289611146
 51
356.4731155244991214
  0
ARC
  5
B368
  8
0
 10
4152.5683078512611246
 20
172.1595881295494905
 30
0.0
 40
0.2279699781392007
 50
297.5458307738098256
 51
324.3672292903473817
  0
ARC
  5
B369
  8
0
 10
4152.1797117348205575
 20
172.9746221428165995
 30
0.0
 40
1.1307856017201521
 50
275.9930900011814856
 51
295.9052655108238241
  0
ARC
  5
B36A
  8
0
 10
4151.9843260283032578
 20
174.2143596253806948
 30
0.0
 40
2.385029817737998
 50
270.5069930421653908
 51
277.5518681876206983
  0
ARC
  5
B36B
  8
0
 10
4151.9760248591019263
 20
174.2159898953688071
 30
0.0
 40
2.3867478621055138
 50
270.0881250818899275
 51
270.7059155074903174
  0
ARC
  5
B36C
  8
0
 10
4151.9784305500443224
 20
172.7835404894908038
 30
0.0
 40
0.8513628134046616
 50
270.0851533045179167
 51
273.3376782873514799
  0
ARC
  5
B36D
  8
0
 10
4151.9852472755137569
 20
172.8297214507364004
 30
0.0
 40
0.8971188027562474
 50
272.7313290768091747
 51
277.51389778292031
  0
ARC
  5
B36E
  8
0
 10
4152.0188027991252966
 20
172.5855446964648934
 30
0.0
 40
0.6506521822349929
 50
277.3961447014693817
 51
283.908269057332916
  0
ARC
  5
B36F
  8
0
 10
4152.0746370442366242
 20
172.356068564003607
 30
0.0
 40
0.4144842183602039
 50
284.0411761997914937
 51
289.0930230529369283
  0
ARC
  5
B370
  8
0
 10
4152.1183344129876787
 20
172.2290364884275107
 30
0.0
 40
0.2801469227555777
 50
289.1459998843723156
 51
293.6026307057350095
  0
LINE
  5
B371
  8
0
 10
4151.1893440896428729
 20
171.9516964181925118
 30
0.0
 11
4151.1915862704418032
 21
172.0742415874925086
 31
0.0
  0
ARC
  5
B372
  8
0
 10
4151.28390929942816
 20
172.0720743863051041
 30
0.0
 40
0.0923484620452006
 50
152.4214123853161027
 51
178.6552793736279057
  0
ARC
  5
B373
  8
0
 10
4151.3330240557979778
 20
172.0464211791604043
 30
0.0
 40
0.1477591679606261
 50
132.584194418279111
 51
152.4214123853161027
  0
ARC
  5
B374
  8
0
 10
4151.4353721267470974
 20
171.9350568457473116
 30
0.0
 40
0.2990110849191916
 50
121.799065269330498
 51
132.584194418280191
  0
ARC
  5
B375
  8
0
 10
4151.5041306246512249
 20
171.8241567015365945
 30
0.0
 40
0.4294969961125736
 50
118.6833039164694981
 51
121.799065269330498
  0
ARC
  5
B376
  8
0
 10
4151.9784466159808289
 20
171.2937542700576046
 30
0.0
 40
0.8099676543117126
 50
89.9059516056140353
 51
93.073672066926207
  0
ARC
  5
B377
  8
0
 10
4151.9710266979518565
 20
171.3878195330680967
 30
0.0
 40
0.7156437658099281
 50
92.8842879895732665
 51
100.086795829549601
  0
ARC
  5
B378
  8
0
 10
4151.9059204396198766
 20
171.7240168910485067
 30
0.0
 40
0.3732765982438451
 50
99.2857761617001557
 51
112.8452152568353029
  0
ARC
  5
B379
  8
0
 10
4151.8117143409808705
 20
171.9476302054517021
 30
0.0
 40
0.1306293163731253
 50
112.8452152568353029
 51
139.1923527190108985
  0
LINE
  5
B37A
  8
0
 10
4151.9718997061163464
 20
172.103695464838097
 30
0.0
 11
4151.9700404659415653
 21
172.3635830719925934
 31
0.0
  0
ARC
  5
B37B
  8
0
 10
4151.9500935401129027
 20
172.3634403713602978
 30
0.0
 40
0.0199474362640403
 50
0.4098879471520592
 51
36.8338800994459206
  0
ARC
  5
B37C
  8
0
 10
4151.9515756313803649
 20
172.3642337574569012
 30
0.0
 40
0.0182873290240065
 50
37.6281468068213201
 51
90.5795711219516448
  0
ARC
  5
B37D
  8
0
 10
4151.9768449383063853
 20
170.279513500318501
 30
0.0
 40
2.1031606912286551
 50
90.6934605037003649
 51
95.7528653805477035
  0
ARC
  5
B37E
  8
0
 10
4151.8866681415602216
 20
171.0129728790282115
 30
0.0
 40
1.3644524509076701
 50
95.0724880549322791
 51
107.4089660412890055
  0
ARC
  5
B37F
  8
0
 10
4151.6269755426819756
 20
171.841198756321603
 30
0.0
 40
0.4964672265346375
 50
107.4089660412890055
 51
126.183799260167504
  0
ARC
  5
B380
  8
0
 10
4151.4326487144207931
 20
172.119173691204594
 30
0.0
 40
0.1575474256740353
 50
128.8263328841030955
 51
148.7315581169829954
  0
ARC
  5
B381
  8
0
 10
4151.3776775028809425
 20
172.1531896858203083
 30
0.0
 40
0.0929067007251719
 50
149.0659832511366005
 51
178.8318667974812115
  0
LINE
  5
B382
  8
0
 10
4151.2847901103423283
 20
172.1550837150925872
 30
0.0
 11
4151.2841335958510172
 21
172.0835494328225934
 31
0.0
  0
LINE
  5
B383
  8
0
 10
4151.2841335958510172
 20
172.0835494328225934
 30
0.0
 11
4151.2836373806421761
 21
172.0294719763925002
 31
0.0
  0
ARC
  5
B384
  8
0
 10
4151.9648601312028404
 20
172.2044285981878033
 30
0.0
 40
0.0069694024425839
 50
293.1831239174626944
 51
335.4555051925403859
  0
ARC
  5
B385
  8
0
 10
4151.9567494441726012
 20
172.2233676530989896
 30
0.0
 40
0.027572097533491
 50
280.3921301986368917
 51
293.1831239174626944
  0
ARC
  5
B386
  8
0
 10
4151.9527910645210795
 20
172.2449518646305933
 30
0.0
 40
0.0495162757344164
 50
271.1852487241462768
 51
280.3921301986368917
  0
ARC
  5
B387
  8
0
 10
4151.9712987218881608
 20
171.3504059612862989
 30
0.0
 40
0.8452210636961059
 50
91.1852487241462342
 51
94.2869430614676105
  0
ARC
  5
B388
  8
0
 10
4151.9654250153671455
 20
171.4287625777481026
 30
0.0
 40
0.7666446055700148
 50
94.2869430614676105
 51
101.6511290690624065
  0
ARC
  5
B389
  8
0
 10
4151.8881640647114182
 20
171.803450756462496
 30
0.0
 40
0.3840737157150298
 50
101.6511290690624065
 51
115.5313302238215982
  0
ARC
  5
B38A
  8
0
 10
4151.7618092943266674
 20
172.0679866787581034
 30
0.0
 40
0.0909103104548535
 50
115.5313302238215982
 51
143.562408303462206
  0
ARC
  5
B38B
  8
0
 10
4151.7106566345546526
 20
172.1057515008114081
 30
0.0
 40
0.0273274795460743
 50
143.5624083034687999
 51
171.6570819741893956
  0
ARC
  5
B38C
  8
0
 10
4151.7055205251499501
 20
172.1065047077088082
 30
0.0
 40
0.022136435291267
 50
171.6570819741862124
 51
214.3966799898190061
  0
ARC
  5
B38D
  8
0
 10
4151.7397107658098321
 20
172.1364148133341132
 30
0.0
 40
0.0674588926286593
 50
218.958641471353701
 51
237.9684291955601907
  0
ARC
  5
B38E
  8
0
 10
4151.692930492718915
 20
172.0629633540131067
 30
0.0
 40
0.019634148252867
 50
0.1254614934293213
 51
55.9235377762730295
  0
LINE
  5
B38F
  8
0
 10
4151.7125645939004244
 20
172.0630063471901963
 30
0.0
 11
4151.7128399877137781
 21
172.0329992897983118
 31
0.0
  0
LINE
  5
B390
  8
0
 10
4151.7128399877137781
 20
172.0329992897983118
 30
0.0
 11
4151.7133849259425915
 21
171.973622528792589
 31
0.0
  0
ARC
  5
B391
  8
0
 10
4151.7219102213821316
 20
171.9565005364183037
 30
0.0
 40
0.0172953812052577
 50
66.2026831630315797
 51
90.9769098608967965
  0
ARC
  5
B392
  8
0
 10
4151.7405403840766667
 20
170.8641710908285063
 30
0.0
 40
1.1097836880827909
 50
90.9771070491613756
 51
91.402118668969905
  0
ARC
  5
B393
  8
0
 10
4151.6703434811906845
 20
173.7321047830149894
 30
0.0
 40
1.7590089617880531
 50
270.598481969841373
 51
271.4021186689698766
  0
ARC
  5
B394
  8
0
 10
4151.9377897178583225
 20
149.6990793480761965
 30
0.0
 40
22.2755049772095397
 50
90.6406643532212826
 51
91.359856613890031
  0
ARC
  5
B395
  8
0
 10
4151.4092728771447582
 20
171.9488403431485892
 30
0.0
 40
0.0194707316625731
 50
90.3525622561597572
 51
163.6753206529693045
  0
ARC
  5
B396
  8
0
 10
4151.3530651199052954
 20
172.0614582756464017
 30
0.0
 40
0.0824767050056292
 50
146.423919018305611
 51
161.8902673116587039
  0
ARC
  5
B397
  8
0
 10
4151.3385941317183097
 20
172.0661908445661084
 30
0.0
 40
0.067251505246778
 50
161.8902673116571123
 51
192.5653614382339924
  0
ARC
  5
B398
  8
0
 10
4151.3406408565197125
 20
172.0706724346997021
 30
0.0
 40
0.0703340175648802
 50
195.7676679080358895
 51
215.858311076464588
  0
ARC
  5
B399
  8
0
 10
4151.4574492083529549
 20
172.1705267541939861
 30
0.0
 40
0.2238459331609392
 50
219.0606175463067871
 51
245.1967334862067958
  0
ARC
  5
B39A
  8
0
 10
4151.5501136618431701
 20
172.320329064487396
 30
0.0
 40
0.399269765835017
 50
242.1424602586469916
 51
246.4502154450092917
  0
ARC
  5
B39B
  8
0
 10
4151.8248652669954026
 20
173.013911193429692
 30
0.0
 40
1.1451399307574961
 50
247.7136408677444877
 51
264.8206289915132743
  0
ARC
  5
B39C
  8
0
 10
4151.9802781789167057
 20
174.3178908622595031
 30
0.0
 40
2.458104582830027
 50
263.9567003252566906
 51
269.9864265308335121
  0
ARC
  5
B39D
  8
0
 10
4151.6944967965464457
 20
172.0648367673175869
 30
0.0
 40
0.0172401328203411
 50
59.9159379444302331
 51
88.1209959412869068
  0
ARC
  5
B39E
  8
0
 10
8495.4745247498121898
 20
-263902.4381858563283458
 30
0.0
 40
264110.2433968234108761
 50
90.9423771255660682
 51
90.942444760111826
  0
ARC
  5
B39F
  8
0
 10
4151.4697646296808671
 20
172.2382169087372006
 30
0.0
 40
0.1829757407151418
 50
213.9522736112618873
 51
241.8131939052229882
  0
ARC
  5
B3A0
  8
0
 10
4151.3757413547946271
 20
172.1726000347416914
 30
0.0
 40
0.0683628687702982
 50
157.7260041632854097
 51
212.3452339633568045
  0
ARC
  5
B3A1
  8
0
 10
4151.423743439282589
 20
172.1482593387559916
 30
0.0
 40
0.1220859378579574
 50
128.5182138952571904
 51
155.6935210071912934
  0
ARC
  5
B3A2
  8
0
 10
4151.8539538373815958
 20
171.5516573917423102
 30
0.0
 40
0.8575048519718306
 50
119.6924970498274945
 51
126.1829304395001969
  0
ARC
  5
B3A3
  8
0
 10
4151.3870808758729254
 20
172.0536776919367128
 30
0.0
 40
0.0235615959496669
 50
99.1442822690339796
 51
176.3354257737942987
  0
LINE
  5
B3A4
  8
0
 10
4151.3635674556671802
 20
172.0551836381353041
 30
0.0
 11
4151.3635449808416524
 21
171.967329810692604
 31
0.0
  0
ARC
  5
B3A5
  8
0
 10
4151.4934912140897723
 20
172.2766205952599137
 30
0.0
 40
0.2567382109918539
 50
224.8588658938191998
 51
239.5985626491431049
  0
ARC
  5
B3A6
  8
0
 10
4151.3805931547867658
 20
172.1642773637790924
 30
0.0
 40
0.0974680836804505
 50
198.7058877142625875
 51
224.858865893818006
  0
ARC
  5
B3A7
  8
0
 10
4151.3539600939420779
 20
172.1552595195601896
 30
0.0
 40
0.0693497365679654
 50
183.6519949901550888
 51
198.7058877142625875
  0
ARC
  5
B3A8
  8
0
 10
4151.3760376923455624
 20
171.9952019754867081
 30
0.0
 40
0.1074948613879154
 50
149.0690896865949924
 51
155.9731072622012107
  0
ARC
  5
B3A9
  8
0
 10
4151.2783859985465824
 20
172.0743684050472098
 30
0.0
 40
0.0867998207479644
 50
180.0837111548634084
 51
213.250852384001206
  0
ARC
  5
B3AA
  8
0
 10
4151.3910838481406245
 20
172.1595881295494905
 30
0.0
 40
0.2279699781392007
 50
215.6327707096513109
 51
242.4541692261902028
  0
ARC
  5
B3AB
  8
0
 10
4151.7796799645793726
 20
172.9746221428165995
 30
0.0
 40
1.1307856017201521
 50
244.0947344891760906
 51
264.0069099988185144
  0
ARC
  5
B3AC
  8
0
 10
4151.9750656710975818
 20
174.2143596253806948
 30
0.0
 40
2.385029817737998
 50
262.448131812379188
 51
269.4930069578346092
  0
ARC
  5
B3AD
  8
0
 10
4151.9833668402989133
 20
174.2159898953688071
 30
0.0
 40
2.3867478621055138
 50
269.2940844925096258
 51
269.9118749181100725
  0
ARC
  5
B3AE
  8
0
 10
4151.9809611493583361
 20
172.7835404894908038
 30
0.0
 40
0.8513628134046616
 50
266.6623217126485201
 51
269.9148466954820833
  0
ARC
  5
B3AF
  8
0
 10
4151.9741444238879922
 20
172.8297214507364004
 30
0.0
 40
0.8971188027562474
 50
262.48610221707969
 51
267.2686709231907116
  0
ARC
  5
B3B0
  8
0
 10
4151.9405889002746335
 20
172.5855446964648934
 30
0.0
 40
0.6506521822349929
 50
256.091730942667084
 51
262.6038552985306183
  0
ARC
  5
B3B1
  8
0
 10
4151.8847546551642154
 20
172.356068564003607
 30
0.0
 40
0.4144842183602039
 50
250.9069769470631002
 51
255.9588238002085063
  0
ARC
  5
B3B2
  8
0
 10
4151.8410572864131609
 20
172.2290364884275107
 30
0.0
 40
0.2801469227555777
 50
246.3973692942649905
 51
250.8540001156277128
  0
ARC
  5
B3B3
  8
0
 10
4151.6896890847592658
 20
172.3457141943925137
 30
0.0
 40
0.0196850394000661
 50
90.0000000000521254
 51
127.5122614873702958
  0
LINE
  5
B3B4
  8
0
 10
4151.6896890847592658
 20
172.3653992337924876
 30
0.0
 11
4151.705910166004287
 21
172.3653992337926013
 31
0.0
  0
ARC
  5
B3B5
  8
0
 10
4151.3945219615079623
 20
169.72341912211661
 30
0.0
 40
2.1741030133407619
 50
96.492135440943656
 51
98.5800191466278335
  0
ARC
  5
B3B6
  8
0
 10
4151.0679223186352829
 20
174.8150454258706077
 30
0.0
 40
2.8353388737462031
 50
271.161627231008822
 51
272.4657471282727101
  0
ARC
  5
B3B7
  8
0
 10
80.8377929638900241
 20
53658.8889604273281293
 30
0.0
 40
53641.7569745795335621
 50
274.3565309219237065
 51
274.3584013793716849
  0
ARC
  5
B3B8
  8
0
 10
7202.5476821904967437
 20
-39823.1182979951117886
 30
0.0
 40
40111.1332891880883835
 50
94.3565309219236639
 51
94.3582766009961063
  0
ARC
  5
B3B9
  8
0
 10
2686.6693251189690272
 20
19430.015505219118495
 30
0.0
 40
19313.8364023268914025
 50
274.3561941151336896
 51
274.3582766009960778
  0
ARC
  5
B3BA
  8
0
 10
4314.3986043864324529
 20
-1937.7757856342150262
 30
0.0
 40
2115.8627849237818737
 50
94.3561941151337749
 51
94.3582766009961063
  0
ARC
  5
B3BB
  8
0
 10
5112.9086271259184286
 20
-12415.0777586763397267
 30
0.0
 40
12623.5492520167099428
 50
94.3582766009961063
 51
94.3620208486300527
  0
ARC
  5
B3BC
  8
0
 10
6290.5523603316651133
 20
-27839.9992026687104953
 30
0.0
 40
28092.7890182342889602
 50
94.3548116180564307
 51
94.3586404599266331
  0
ARC
  5
B3BD
  8
0
 10
2121.9141554619282033
 20
26852.3902060806503869
 30
0.0
 40
26758.2365302582184086
 50
274.3557414586277901
 51
274.3586404599266189
  0
ARC
  5
B3BE
  8
0
 10
4157.3709419002989307
 20
171.9691320809941999
 30
0.0
 40
0.2854477449911406
 50
274.361092701665882
 51
94.3529796668386069
  0
LINE
  5
B3BF
  8
0
 10
4150.2721884011616567
 20
172.0074974088244915
 30
0.0
 11
4151.1903650675440076
 21
172.0074974088244915
 31
0.0
  0
LINE
  5
B3C0
  8
0
 10
4151.9703198601619079
 20
172.3245288947045992
 30
0.0
 11
4151.9890718437964097
 21
172.324529531758202
 31
0.0
  0
ARC
  5
B3C1
  8
0
 10
4148.6602281031382518
 20
170.0024124946380937
 30
0.0
 40
0.1420387711143225
 50
62.4811164771416898
 51
91.8042953057913138
  0
ARC
  5
B3C2
  8
0
 10
4148.6792089357022633
 20
170.0388450130207048
 30
0.0
 40
0.1009583572829106
 50
359.5792198036969012
 51
62.481116477142443
  0
LINE
  5
B3C3
  8
0
 10
4148.7801645704375915
 20
170.0381035815244957
 30
0.0
 11
4148.7800889645377538
 21
166.6843364113244945
 31
0.0
  0
ARC
  5
B3C4
  8
0
 10
4148.8214797832670229
 20
166.6828818055203101
 30
0.0
 40
0.0414163705937799
 50
177.9872713148594983
 51
212.0967869047372858
  0
ARC
  5
B3C5
  8
0
 10
4149.6457160147847389
 20
167.2824086155031864
 30
0.0
 40
1.0605368601077041
 50
215.8775901685025076
 51
231.927685301673904
  0
ARC
  5
B3C6
  8
0
 10
4149.1207353897707435
 20
167.2865999046921957
 30
0.0
 40
1.066572194548286
 50
308.119435531984891
 51
323.9403761486339022
  0
ARC
  5
B3C7
  8
0
 10
4149.9502144885536836
 20
166.6826282388327058
 30
0.0
 40
0.0405033135860872
 50
323.9403761486327085
 51
358.1467029737281109
  0
LINE
  5
B3C8
  8
0
 10
4149.9906966152366294
 20
166.6813183416244897
 30
0.0
 11
4149.9906971678374248
 21
169.587864038879701
 31
0.0
  0
ARC
  5
B3C9
  8
0
 10
4149.3854329261403109
 20
155.8117708981579028
 30
0.0
 40
0.3937028336037604
 50
180.0001164147369082
 51
359.8003477071260932
  0
ARC
  5
B3CA
  8
0
 10
4149.3854329261403109
 20
155.8117708981579028
 30
0.0
 40
0.4351021209479278
 50
154.8033061415821976
 51
25.1974410037898586
  0
ARC
  5
B3CB
  8
0
 10
4149.385430879937303
 20
155.811770098224514
 30
0.0
 40
0.7185039370000004
 50
123.2261593691807064
 51
56.7738406308192722
  0
ARC
  5
B3CC
  8
0
 10
4149.385430879937303
 20
155.811770098224514
 30
0.0
 40
5.0019685038999988
 50
94.5143729166104265
 51
85.4856273739091392
  0
CIRCLE
  5
B3CD
  8
0
 10
4144.7377930846369054
 20
155.811770098224514
 30
0.0
 40
0.1653543306999978
  0
CIRCLE
  5
B3CE
  8
0
 10
4144.7377930846369054
 20
155.811770098224514
 30
0.0
 40
0.1181102362000033
  0
CIRCLE
  5
B3CF
  8
0
 10
4147.0606277303368188
 20
159.8350377221244969
 30
0.0
 40
0.1653543306999978
  0
CIRCLE
  5
B3D0
  8
0
 10
4147.0606277303368188
 20
159.8350377221244969
 30
0.0
 40
0.1181102362000033
  0
CIRCLE
  5
B3D1
  8
0
 10
4151.7062970216384201
 20
159.8350377221244969
 30
0.0
 40
0.1653543306999978
  0
CIRCLE
  5
B3D2
  8
0
 10
4151.7062970216384201
 20
159.8350377221244969
 30
0.0
 40
0.1181102362000033
  0
CIRCLE
  5
B3D3
  8
0
 10
4154.029131667337424
 20
155.811770098224514
 30
0.0
 40
0.1653543306999978
  0
CIRCLE
  5
B3D4
  8
0
 10
4154.029131667337424
 20
155.811770098224514
 30
0.0
 40
0.1181102362000033
  0
CIRCLE
  5
B3D5
  8
0
 10
4151.7062970216384201
 20
151.7885024743245026
 30
0.0
 40
0.1653543306999978
  0
CIRCLE
  5
B3D6
  8
0
 10
4151.7062970216384201
 20
151.7885024743245026
 30
0.0
 40
0.1181102362000033
  0
CIRCLE
  5
B3D7
  8
0
 10
4147.0606277303368188
 20
151.7885024743245026
 30
0.0
 40
0.1653543306999978
  0
CIRCLE
  5
B3D8
  8
0
 10
4147.0606277303368188
 20
151.7885024743245026
 30
0.0
 40
0.1181102362000033
  0
ARC
  5
B3D9
  8
0
 10
4149.385430879937303
 20
155.811770098224514
 30
0.0
 40
0.5039370078999998
 50
141.3751671229543945
 51
38.62483287704557
  0
ARC
  5
B3DA
  8
0
 10
4149.385430879937303
 20
155.811770098224514
 30
0.0
 40
0.4960629920999997
 50
142.5280048208047106
 51
37.4719951791952326
  0
LINE
  5
B3DB
  8
0
 10
4148.7650524627370032
 20
170.0915746766245036
 30
0.0
 11
4148.9917300672541387
 21
170.1987159640956975
 31
0.0
  0
ARC
  5
B3DC
  8
0
 10
4145.0822812736359992
 20
172.0660053073245024
 30
0.0
 40
0.0196850393999881
 50
359.9999999999575948
 51
90.0
  0
ARC
  5
B3DD
  8
0
 10
4145.0822812736359992
 20
170.2616608736244928
 30
0.0
 40
0.0196850394000379
 50
270.0000000000521254
 51
359.999999999895806
  0
LINE
  5
B3DE
  8
0
 10
4149.1669624756823396
 20
172.1668647233134948
 30
0.0
 11
4149.6047973370787076
 21
172.1668647233134948
 31
0.0
  0
ARC
  5
B3DF
  8
0
 10
4149.1666921423448002
 20
172.1471228104261115
 30
0.0
 40
0.019743763688087
 50
89.2154766672757802
 51
110.3511272363716955
  0
ARC
  5
B3E0
  8
0
 10
4149.6040693761569855
 20
172.1467453710351094
 30
0.0
 40
0.020132517557643
 50
69.7471470077288132
 51
87.9278208795398655
  0
LINE
  5
B3E1
  8
0
 10
4145.660335487536031
 20
174.9039877361244919
 30
0.0
 11
4145.657277391005664
 21
174.6446531384694936
 31
0.0
  0
ARC
  5
B3E2
  8
0
 10
4145.6982937036837029
 20
174.6441694704795964
 30
0.0
 40
0.0410191643074256
 50
179.324394410127411
 51
221.990199029180701
  0
LINE
  5
B3E3
  8
0
 10
4145.6678058293373397
 20
174.6167275070243932
 30
0.0
 11
4145.727349973037235
 21
174.5217899652245137
 31
0.0
  0
ARC
  5
B3E4
  8
0
 10
4145.7521701923396904
 20
174.5373570283358049
 30
0.0
 40
0.029298067174456
 50
212.095641189815808
 51
247.4233394355603934
  0
LINE
  5
B3E5
  8
0
 10
4147.2050144613367593
 20
174.9039877361244919
 30
0.0
 11
4147.2080725578689453
 21
174.6446531384694936
 31
0.0
  0
ARC
  5
B3E6
  8
0
 10
4147.1670562451899968
 20
174.6441694704795964
 30
0.0
 40
0.0410191643074256
 50
318.009800970819299
 51
0.6756055898726419
  0
LINE
  5
B3E7
  8
0
 10
4147.1975441195381791
 20
174.6167275070243932
 30
0.0
 11
4147.1379999758373742
 21
174.5217899652245137
 31
0.0
  0
ARC
  5
B3E8
  8
0
 10
4147.1131797565340094
 20
174.5373570283358049
 30
0.0
 40
0.029298067174456
 50
292.5766605644395781
 51
327.904358810184192
  0
LINE
  5
B3E9
  8
0
 10
4149.385430879937303
 20
174.9039877361244919
 30
0.0
 11
4149.385430879937303
 21
174.5102577361244869
 31
0.0
  0
LINE
  5
B3EA
  8
0
 10
4153.1105262723376654
 20
174.9039877361244919
 30
0.0
 11
4153.113584368868942
 21
174.6446531384694936
 31
0.0
  0
ARC
  5
B3EB
  8
0
 10
4153.0725680561899935
 20
174.6441694704795964
 30
0.0
 40
0.0410191643074256
 50
318.009800970819299
 51
0.6756055898726419
  0
LINE
  5
B3EC
  8
0
 10
4153.1030559305372662
 20
174.6167275070243932
 30
0.0
 11
4153.0435117868373709
 21
174.5217899652245137
 31
0.0
  0
ARC
  5
B3ED
  8
0
 10
4153.018691567534006
 20
174.5373570283358049
 30
0.0
 40
0.029298067174456
 50
292.5766605644395781
 51
327.904358810184192
  0
LINE
  5
B3EE
  8
0
 10
4151.5658472985369372
 20
174.9039877361244919
 30
0.0
 11
4151.5627892020056606
 21
174.6446531384694936
 31
0.0
  0
ARC
  5
B3EF
  8
0
 10
4151.6038055146836996
 20
174.6441694704795964
 30
0.0
 40
0.0410191643074256
 50
179.324394410127411
 51
221.990199029180701
  0
LINE
  5
B3F0
  8
0
 10
4151.5733176403373363
 20
174.6167275070243932
 30
0.0
 11
4151.6328617840372317
 21
174.5217899652245137
 31
0.0
  0
ARC
  5
B3F1
  8
0
 10
4151.6576820033405966
 20
174.5373570283358049
 30
0.0
 40
0.029298067174456
 50
212.095641189815808
 51
247.4233394355603934
  0
LINE
  5
B3F2
  8
0
 10
4144.6737139068209217
 20
172.0987396133018876
 30
0.0
 11
4144.6737139068209217
 21
170.5235479885874099
 31
0.0
  0
LINE
  5
B3F3
  8
0
 10
4144.6737139068209217
 20
170.3198520945832115
 30
0.0
 11
4144.6737139068209217
 21
170.171286442608789
 31
0.0
  0
ARC
  5
B3F5
  8
0
 10
4149.385430879937303
 20
155.8098015944244992
 30
0.0
 40
4.9350393700000001
 50
94.5757265740670761
 51
85.4242538951009749
  0
ENDSEC
  0
EOF
