  0
SECTION
  2
HEADER
  9
$ACADVER
  1
AC1009
  9
$INSBASE
 10
4095.7041681790838084
 20
148.2229122116652036
 30
0.0
  9
$EXTMIN
 10
4091.7954995806007901
 20
144.5341914272690076
 30
-0.0000000349181948
  9
$EXTMAX
 10
4099.6146505762017114
 20
151.9170180361288942
 30
0.0000000814935746
  9
$LIMMIN
 10
0.0
 20
0.0
  9
$LIMMAX
 10
11.6929133858000007
 20
8.2677165353999982
  9
$ORTHOMODE
 70
     1
  9
$REGENMODE
 70
     1
  9
$FILLMODE
 70
     1
  9
$QTEXTMODE
 70
     0
  9
$MIRRTEXT
 70
     0
  9
$DRAGMODE
 70
     2
  9
$LTSCALE
 40
0.6431102362
  9
$OSMODE
 70
  4095
  9
$ATTMODE
 70
     1
  9
$TEXTSIZE
 40
0.2
  9
$TRACEWID
 40
0.05
  9
$TEXTSTYLE
  7
STANDARD
  9
$CLAYER
  8
0
  9
$CELTYPE
  6
BYLAYER
  9
$CECOLOR
 62
   256
  9
$DIMSCALE
 40
1.0
  9
$DIMASZ
 40
0.1875
  9
$DIMEXO
 40
0.0625
  9
$DIMDLI
 40
0.4443307087
  9
$DIMRND
 40
0.0
  9
$DIMDLE
 40
0.0
  9
$DIMEXE
 40
0.125
  9
$DIMTP
 40
0.01
  9
$DIMTM
 40
0.01
  9
$DIMTXT
 40
2.0
  9
$DIMCEN
 40
0.1052362205
  9
$DIMTSZ
 40
0.0
  9
$DIMTOL
 70
     1
  9
$DIMLIM
 70
     0
  9
$DIMTIH
 70
     1
  9
$DIMTOH
 70
     1
  9
$DIMSE1
 70
     0
  9
$DIMSE2
 70
     0
  9
$DIMTAD
 70
     0
  9
$DIMZIN
 70
     0
  9
$DIMBLK
  1

  9
$DIMASO
 70
     1
  9
$DIMSHO
 70
     1
  9
$DIMPOST
  1
\X
  9
$DIMAPOST
  1

  9
$DIMALT
 70
     1
  9
$DIMALTD
 70
     2
  9
$DIMALTF
 40
25.3999999999999986
  9
$DIMLFAC
 40
1.0
  9
$DIMTOFL
 70
     0
  9
$DIMTVP
 40
0.0
  9
$DIMTIX
 70
     0
  9
$DIMSOXD
 70
     0
  9
$DIMSAH
 70
     0
  9
$DIMBLK1
  1

  9
$DIMBLK2
  1

  9
$DIMSTYLE
  2
STANDARD
  9
$DIMCLRD
 70
     0
  9
$DIMCLRE
 70
     0
  9
$DIMCLRT
 70
     0
  9
$DIMTFAC
 40
1.0
  9
$DIMGAP
 40
0.09
  9
$LUNITS
 70
     2
  9
$LUPREC
 70
     4
  9
$SKETCHINC
 40
0.1
  9
$FILLETRAD
 40
0.0
  9
$AUNITS
 70
     0
  9
$AUPREC
 70
     0
  9
$MENU
  1
.
  9
$ELEVATION
 40
0.0
  9
$PELEVATION
 40
0.0
  9
$THICKNESS
 40
0.0
  9
$LIMCHECK
 70
     0
  9
$BLIPMODE
 70
     0
  9
$CHAMFERA
 40
0.0
  9
$CHAMFERB
 40
0.0
  9
$SKPOLY
 70
     0
  9
$TDCREATE
 40
2458060.468368056230247
  9
$TDUPDATE
 40
2460276.6073726848699152
  9
$TDINDWG
 40
0.3821135417
  9
$TDUSRTIMER
 40
0.3821135417
  9
$USRTIMER
 70
     1
  9
$ANGBASE
 50
0.0
  9
$ANGDIR
 70
     0
  9
$PDMODE
 70
     0
  9
$PDSIZE
 40
0.3125
  9
$PLINEWID
 40
0.0
  9
$COORDS
 70
     1
  9
$SPLFRAME
 70
     0
  9
$SPLINETYPE
 70
     6
  9
$SPLINESEGS
 70
     8
  9
$ATTDIA
 70
     1
  9
$ATTREQ
 70
     1
  9
$HANDLING
 70
     1
  9
$HANDSEED
  5
8873
  9
$SURFTAB1
 70
     6
  9
$SURFTAB2
 70
     6
  9
$SURFTYPE
 70
     6
  9
$SURFU
 70
     6
  9
$SURFV
 70
     6
  9
$UCSNAME
  2

  9
$UCSORG
 10
0.0
 20
0.0
 30
0.0
  9
$UCSXDIR
 10
1.0
 20
0.0
 30
0.0
  9
$UCSYDIR
 10
0.0
 20
1.0
 30
0.0
  9
$PUCSNAME
  2

  9
$PUCSORG
 10
0.0
 20
0.0
 30
0.0
  9
$PUCSXDIR
 10
1.0
 20
0.0
 30
0.0
  9
$PUCSYDIR
 10
0.0
 20
1.0
 30
0.0
  9
$USERI1
 70
     0
  9
$USERI2
 70
     0
  9
$USERI3
 70
     0
  9
$USERI4
 70
     0
  9
$USERI5
 70
     0
  9
$USERR1
 40
0.0
  9
$USERR2
 40
0.0
  9
$USERR3
 40
0.0
  9
$USERR4
 40
0.0
  9
$USERR5
 40
0.0
  9
$WORLDVIEW
 70
     1
  9
$SHADEDGE
 70
     3
  9
$SHADEDIF
 70
    70
  9
$TILEMODE
 70
     1
  9
$MAXACTVP
 70
    64
  9
$PLIMCHECK
 70
     0
  9
$PEXTMIN
 10
1.0000000000000000E+20
 20
1.0000000000000000E+20
 30
1.0000000000000000E+20
  9
$PEXTMAX
 10
-1.0000000000000000E+20
 20
-1.0000000000000000E+20
 30
-1.0000000000000000E+20
  9
$PLIMMIN
 10
0.0
 20
0.0
  9
$PLIMMAX
 10
12.0
 20
9.0
  9
$UNITMODE
 70
     0
  9
$VISRETAIN
 70
     1
  9
$PLINEGEN
 70
     0
  9
$PSLTSCALE
 70
     1
  0
ENDSEC
  0
SECTION
  2
TABLES
  0
TABLE
  2
VPORT
 70
     1
  0
VPORT
  2
*ACTIVE
 70
     0
 10
0.0
 20
0.0
 11
1.0
 21
1.0
 12
0.0008514455894328
 22
0.0026890822849168
 13
0.0
 23
0.0
 14
1.0
 24
1.0
 15
0.0
 25
0.0
 16
0.0
 26
0.0
 36
29.375579076815491
 17
4095.7042236328129547
 27
148.2229156494140057
 37
0.0
 40
7.4456315501390371
 41
2.5251322751322749
 42
50.0
 43
0.0
 44
0.0
 50
0.0
 51
0.0
 71
     0
 72
   100
 73
     1
 74
     1
 75
     0
 76
     0
 77
     0
 78
     0
  0
ENDTAB
  0
TABLE
  2
LTYPE
 70
     3
  0
LTYPE
  2
CONTINUOUS
 70
     0
  3
Solid line
 72
    65
 73
     0
 40
0.0
  0
LTYPE
  2
PHANTOM2
 70
     0
  3
___ _ _ ___ _ _ ___ _ _ ___ _ _
 72
    65
 73
     6
 40
1.25
 49
0.625
 49
-0.125
 49
0.125
 49
-0.125
 49
0.125
 49
-0.125
  0
ENDTAB
  0
TABLE
  2
LAYER
 70
     2
  0
LAYER
  2
0
 70
     0
 62
   255
  6
CONTINUOUS
  0
LAYER
  2
DEFPOINTS
 70
     0
 62
     7
  6
CONTINUOUS
  0
ENDTAB
  0
TABLE
  2
STYLE
 70
     1
  0
STYLE
  2
STANDARD
 70
     0
 40
0.0
 41
0.8
 50
0.0
 71
     0
 42
0.2
  3
txt
  4

  0
ENDTAB
  0
TABLE
  2
VIEW
 70
     0
  0
ENDTAB
  0
TABLE
  2
UCS
 70
     0
  0
ENDTAB
  0
TABLE
  2
APPID
 70
     9
  0
APPID
  2
ACAD
 70
     0
  0
APPID
  2
ACAD_MLEADERVER
 70
     0
  0
APPID
  2
ACAD_EXEMPT_FROM_CAD_STANDARDS
 70
     0
  0
APPID
  2
ACAD_NAV_VCDISPLAY
 70
     0
  0
APPID
  2
ACAECLAYERSTANDARD
 70
     0
  0
APPID
  2
ACCMTRANSPARENCY
 70
     0
  0
APPID
  2
ACAD_DSTYLE_DIMJAG
 70
     0
  0
APPID
  2
ACAD_DSTYLE_DIMTALN
 70
     0
  0
APPID
  2
ACDBATTR
 70
     0
  0
ENDTAB
  0
TABLE
  2
DIMSTYLE
 70
     2
  0
DIMSTYLE
  2
STANDARD
 70
     0
  3

  4

  5

  6

  7

 40
1.0
 41
0.1875
 42
0.0625
 43
0.38
 44
0.125
 45
0.0
 46
0.0
 47
0.01
 48
0.01
140
0.15625
141
0.09
142
0.0
143
25.3999999999999986
144
1.0
145
0.0
146
1.0
147
0.09
 71
     1
 72
     0
 73
     1
 74
     1
 75
     0
 76
     0
 77
     0
 78
     4
170
     0
171
     2
172
     0
173
     0
174
     0
175
     0
176
     0
177
     0
178
     0
  0
ENDTAB
  0
ENDSEC
  0
SECTION
  2
BLOCKS
  0
BLOCK
  8
0
  2
$MODEL_SPACE
 70
     0
 10
0.0
 20
0.0
 30
0.0
  3
$MODEL_SPACE
  1

  0
ENDBLK
  5
21
  8
0
  0
BLOCK
 67
     1
  8
0
  2
$PAPER_SPACE
 70
     0
 10
0.0
 20
0.0
 30
0.0
  3
$PAPER_SPACE
  1

  0
ENDBLK
  5
1D
 67
     1
  8
0
  0
BLOCK
  8
0
  2
_FILLED
 70
     0
 10
0.0
 20
0.0
 30
0.0
  3
_FILLED
  1

  0
SOLID
  5
8409
  8
0
  6
BYBLOCK
 62
     0
 10
0.0
 20
0.0
 30
0.0
 11
-1.0
 21
0.1666666667
 31
0.0
 12
-1.0
 22
-0.1666666667
 32
0.0
 13
-1.0
 23
-0.1666666667
 33
0.0
  0
ENDBLK
  5
840A
  8
0
  6
BYBLOCK
 62
     0
  0
ENDSEC
  0
SECTION
  2
ENTITIES
  0
ATTDEF
  5
3930
  8
DEFPOINTS
 10
4095.6997903670198866
 20
148.2196774977248879
 30
0.0
 40
0.001
  1
K-EX27038T-3
  3

  2
MODELNUMBER
 70
     0
1001
ACDBATTR
1070
     0
1070
     1
  0
ATTDEF
  5
3931
  8
DEFPOINTS
 10
4095.6997903670198866
 20
148.2180108310581943
 30
0.0
 40
0.001
  1
OCCASION
  3

  2
TRADENAME
 70
     0
1001
ACDBATTR
1070
     0
1070
     1
  0
ATTDEF
  5
3932
  8
DEFPOINTS
 10
4095.6997903670198866
 20
148.216344164391586
 30
0.0
 40
0.001
  1
VALVE TRIM
  3

  2
PRODUCT
 70
     0
1001
ACDBATTR
1070
     0
1070
     1
  0
ARC
  5
86AC
  8
0
 10
4095.7057620234518254
 20
151.6978632819107133
 30
0.0
 40
0.2098882440905334
 50
90.4350955125371598
 51
103.5427191064753032
  0
ARC
  5
86AD
  8
0
 10
4097.0774606912345916
 20
146.1938072135652078
 30
0.0
 40
5.8822880209999981
 50
103.9778558582901979
 51
148.0221441417004087
  0
ARC
  5
86AE
  8
0
 10
4092.2547980220838326
 20
149.2047505486461034
 30
0.0
 40
0.1968808247228178
 50
148.0222175682677914
 51
175.9778414250748142
  0
ARC
  5
86AF
  8
0
 10
4097.9261981590298092
 20
148.8059634753053047
 30
0.0
 40
5.8822841211671832
 50
175.9778414250748142
 51
220.0221592097425116
  0
ARC
  5
86B0
  8
0
 10
4093.5723396501412026
 20
145.149772028930812
 30
0.0
 40
0.1968800187332965
 50
220.0221592097425116
 51
247.9778998267526049
  0
ARC
  5
86B1
  8
0
 10
4095.7041726850097803
 20
150.4203898355642082
 30
0.0
 40
5.8823108865007434
 50
247.9778998267526049
 51
264.6233705147417936
  0
ARC
  5
86B2
  8
0
 10
4095.7041726850097803
 20
150.4203898355642082
 30
0.0
 40
5.8823108865007434
 50
267.6984666233543066
 51
269.9999561106985198
  0
LINE
  5
86B3
  8
0
 10
4095.1529870767330976
 20
144.5639595413769882
 30
0.0
 11
4095.1529870767330976
 21
144.5676732251652084
 31
0.0
  0
ARC
  5
86B4
  8
0
 10
4095.7041681689029247
 20
150.4203668306747943
 30
0.0
 40
5.8785902252442641
 50
264.6200017305811798
 51
267.6970532103100027
  0
LINE
  5
86B5
  8
0
 10
4095.4679477066338222
 20
144.5465245677652035
 30
0.0
 11
4095.4679477066338222
 21
144.5428240873112884
 31
0.0
  0
ARC
  5
86B6
  8
0
 10
4095.7043996368602166
 20
151.5036050395634106
 30
0.0
 40
0.205516429113712
 50
90.0645279629287359
 51
103.4296509930789938
  0
ARC
  5
86B7
  8
0
 10
4096.9207836766627224
 20
146.4094546239520014
 30
0.0
 40
5.442878225777946
 50
103.4296509930789938
 51
148.5703489836110123
  0
ARC
  5
86B8
  8
0
 10
4092.4509916994798004
 20
149.1410033160829869
 30
0.0
 40
0.2045198401039258
 50
148.5703489836110123
 51
175.4296541080107943
  0
ARC
  5
86B9
  8
0
 10
4097.9262022449966025
 20
148.8059648079002955
 30
0.0
 40
5.6899373323039306
 50
176.4599185741357985
 51
219.5400810693421931
  0
ARC
  5
86BA
  8
0
 10
4093.6935924012400392
 20
145.3166631457847018
 30
0.0
 40
0.2045170268107947
 50
220.5703455354662879
 51
247.4300067280294115
  0
ARC
  5
86BB
  8
0
 10
4095.7041674197071188
 20
150.4203589147570881
 30
0.0
 40
5.689929174591879
 50
248.4598957452344905
 51
270.0000076647601759
  0
ARC
  5
86BC
  8
0
 10
4095.7041681790337861
 20
149.7178404665652067
 30
0.0
 40
0.6020824101492366
 50
118.2324325339487956
 51
151.6227858619440951
  0
ARC
  5
86BD
  8
0
 10
4095.7041681790337861
 20
149.7178404665652067
 30
0.0
 40
0.6020824101492366
 50
208.3828834108180104
 51
241.7417788579797957
  0
ARC
  5
86BE
  8
0
 10
4095.7041681790337861
 20
149.7178404665652067
 30
0.0
 40
0.6020824101492366
 50
298.2582211528177822
 51
331.6171165891266241
  0
ARC
  5
86BF
  8
0
 10
4095.7041681790337861
 20
149.7178404665652067
 30
0.0
 40
0.6020824101492366
 50
28.3772141381098209
 51
61.7675674551929674
  0
ARC
  5
86C0
  8
0
 10
4095.7041681790838084
 20
149.7178404665652067
 30
0.0
 40
0.6692913385999999
 50
115.0961325686987067
 51
154.7241730498809886
  0
ARC
  5
86C1
  8
0
 10
4095.7041681790838084
 20
149.7178404665652067
 30
0.0
 40
0.6692913385999999
 50
205.280257363764207
 51
244.8719839831082936
  0
ARC
  5
86C2
  8
0
 10
4095.7041681790838084
 20
149.7178404665652067
 30
0.0
 40
0.6692913385999999
 50
295.1280160168312818
 51
334.7197426362358215
  0
ARC
  5
86C3
  8
0
 10
4095.7041681790838084
 20
149.7178404665652067
 30
0.0
 40
0.6692913385999999
 50
25.2758269501189616
 51
64.903867431326276
  0
LINE
  5
86C4
  8
0
 10
4095.9443170607341926
 20
150.9964394978736095
 30
0.0
 11
4095.4640192974338788
 21
150.9964394978736095
 31
0.0
  0
ARC
  5
86C5
  8
0
 10
4095.4663697727310137
 20
150.9516668009628972
 30
0.0
 40
0.0448343520393478
 50
93.0051528557029457
 51
177.0281585943195068
  0
ARC
  5
86C6
  8
0
 10
4095.297425977174953
 20
150.1245826684196913
 30
0.0
 40
0.1200339806678799
 50
272.2650908396690852
 51
357.7349092100794223
  0
LINE
  5
86C7
  8
0
 10
4095.302170079733969
 20
150.004642474965209
 30
0.0
 11
4094.4680173961328364
 21
150.0004129288651882
 31
0.0
  0
ARC
  5
86C8
  8
0
 10
4094.4701548829189051
 20
149.9558259439162953
 30
0.0
 40
0.0446381907854062
 50
92.7446413096223949
 51
177.2220579084817871
  0
LINE
  5
86C9
  8
0
 10
4094.425569147825172
 20
149.9579893446652079
 30
0.0
 11
4094.425569147825172
 21
149.477689685465208
 31
0.0
  0
ARC
  5
86CA
  8
0
 10
4094.4743988923069082
 20
149.4841017543193971
 30
0.0
 40
0.0492489448934659
 50
187.480981002241208
 51
262.5548959018930759
  0
LINE
  5
86CB
  8
0
 10
4094.4680174004338369
 20
149.4352680043652128
 30
0.0
 11
4095.3021921629770077
 21
149.4309766242541002
 31
0.0
  0
ARC
  5
86CC
  8
0
 10
4095.2974648945059926
 20
149.3110756904576135
 30
0.0
 40
0.1199940873228894
 50
2.2757234233388659
 51
87.7422000617946054
  0
ARC
  5
86CD
  8
0
 10
4054.2209593590018812
 20
148.6897780358573016
 30
0.0
 40
41.20116185042464
 50
359.7106212342727076
 51
0.8706578631524484
  0
ARC
  5
86CE
  8
0
 10
4095.4645013298168124
 20
148.4821466353984079
 30
0.0
 40
0.04290806602198
 50
180.6126641609845933
 51
269.3377725455973746
  0
LINE
  5
86CF
  8
0
 10
4095.4640054073088322
 20
148.4392414353567915
 30
0.0
 11
4095.9443309508587845
 21
148.4392414353567915
 31
0.0
  0
ARC
  5
86D0
  8
0
 10
4061.4872767835831837
 20
150.7089671258561054
 30
0.0
 40
33.9352035249930424
 50
359.0052726673885104
 51
0.4136992988984644
  0
ARC
  5
86D1
  8
0
 10
4095.7041681790838084
 20
149.7178404665652067
 30
0.0
 40
0.6988188975662352
 50
113.9356183905799043
 51
155.8768797311379046
  0
ARC
  5
86D2
  8
0
 10
4095.7041681790838084
 20
149.7178404665652067
 30
0.0
 40
0.6988188975662352
 50
204.1271068253008139
 51
246.0311480627561878
  0
ARC
  5
86D3
  8
0
 10
4095.7041681790838084
 20
149.7178404665652067
 30
0.0
 40
0.6988188975662352
 50
293.9688519371848088
 51
335.8728931746991861
  0
ARC
  5
86D4
  8
0
 10
4095.7041681790838084
 20
149.7178404665652067
 30
0.0
 40
0.6988188975662352
 50
24.1231202688620598
 51
66.0643816094220142
  0
ARC
  5
86D5
  8
0
 10
4095.9419665854470622
 20
150.951666800972589
 30
0.0
 40
0.0448343520290378
 50
2.971841393813571
 51
86.9948471561945667
  0
ARC
  5
86D6
  8
0
 10
4096.1109103809931185
 20
150.1245826684196913
 30
0.0
 40
0.1200339806678799
 50
182.2650907899204924
 51
267.7349091603308011
  0
LINE
  5
86D7
  8
0
 10
4096.1061662784341024
 20
150.004642474965209
 30
0.0
 11
4096.9403189620361445
 21
150.0004129288651882
 31
0.0
  0
ARC
  5
86D8
  8
0
 10
4096.9381814752487116
 20
149.9558259439162953
 30
0.0
 40
0.0446381907854087
 50
2.7779420915214659
 51
87.2553586903776051
  0
LINE
  5
86D9
  8
0
 10
4096.98276721034199
 20
149.9579893446652079
 30
0.0
 11
4096.98276721034199
 21
149.477689685465208
 31
0.0
  0
ARC
  5
86DA
  8
0
 10
4096.9339374658611632
 20
149.4841017543193971
 30
0.0
 40
0.0492489448934656
 50
277.4451040981069241
 51
352.5190189977586783
  0
LINE
  5
86DB
  8
0
 10
4096.9403189577342346
 20
149.4352680043652128
 30
0.0
 11
4096.106144195192428
 21
149.4309766242541002
 31
0.0
  0
ARC
  5
86DC
  8
0
 10
4096.1108714636620789
 20
149.3110756904576135
 30
0.0
 40
0.1199940873228894
 50
92.2577999382054088
 51
177.7242765766611114
  0
ARC
  5
86DD
  8
0
 10
4137.1873769991525478
 20
148.6897780358573868
 30
0.0
 40
41.2011618504130865
 50
179.1293421368474981
 51
180.2893787657272924
  0
ARC
  5
86DE
  8
0
 10
4095.9438350283508044
 20
148.4821466353984079
 30
0.0
 40
0.0429080660219859
 50
270.6622274544026254
 51
359.3873358390089265
  0
ARC
  5
86DF
  8
0
 10
4129.9210595745562387
 20
150.7089671258557928
 30
0.0
 40
33.9352035249640167
 50
179.5863007011014929
 51
180.9947273326114896
  0
CIRCLE
  5
86E0
  8
0
 10
4095.7041681790337861
 20
150.7134294665652021
 30
0.0
 40
0.0564963230999999
  0
CIRCLE
  5
86E1
  8
0
 10
4095.7041681790337861
 20
145.5726451673652093
 30
0.0
 40
0.0564963230999999
  0
ARC
  5
86E2
  8
0
 10
4095.7041681790838084
 20
146.5682341673692974
 30
0.0
 40
0.7989328038203607
 50
110.7461679451899954
 51
159.0936581715598948
  0
ARC
  5
86E3
  8
0
 10
4095.7041681790838084
 20
146.5682341673692974
 30
0.0
 40
0.7989328038203607
 50
200.9035541593229084
 51
249.287639798161706
  0
ARC
  5
86E4
  8
0
 10
4095.7041681790838084
 20
146.5682341673692974
 30
0.0
 40
0.7989328038203607
 50
290.7123602018371002
 51
339.09644584067712
  0
ARC
  5
86E5
  8
0
 10
4095.7041681790838084
 20
146.5682341673692974
 30
0.0
 40
0.7989328038203607
 50
20.9063418284401088
 51
69.2538320548656401
  0
ARC
  5
86E6
  8
0
 10
4095.7041681790838084
 20
146.5682341673692974
 30
0.0
 40
0.8661417322959362
 50
109.0413171598185045
 51
160.8085129657046934
  0
ARC
  5
86E7
  8
0
 10
4095.7041681790838084
 20
146.5682341673692974
 30
0.0
 40
0.8661417322959362
 50
199.1893161411032906
 51
250.9904347240465938
  0
ARC
  5
86E8
  8
0
 10
4095.7041681790838084
 20
146.5682341673692974
 30
0.0
 40
0.8661417322959362
 50
289.009565275952923
 51
340.8106838588967094
  0
ARC
  5
86E9
  8
0
 10
4095.7041681790838084
 20
146.5682341673692974
 30
0.0
 40
0.8661417322959362
 50
19.1914870342953314
 51
70.9586828402365342
  0
ARC
  5
86EA
  8
0
 10
4095.7041681790838084
 20
146.5682341673692974
 30
0.0
 40
0.9153543306586372
 50
107.9662638197440998
 51
161.8949343349291041
  0
ARC
  5
86EB
  8
0
 10
4095.7041681790838084
 20
146.5682341673692974
 30
0.0
 40
0.9153543306586372
 50
198.1032787397471964
 51
252.0631106639870893
  0
ARC
  5
86EC
  8
0
 10
4095.7041681790838084
 20
146.5682341673692974
 30
0.0
 40
0.9153543306586372
 50
287.9368893360124275
 51
341.8967212602527184
  0
ARC
  5
86ED
  8
0
 10
4095.7041681790838084
 20
146.5682341673692974
 30
0.0
 40
0.9153543306586372
 50
18.1050656650708284
 51
72.0337361803099725
  0
ARC
  5
86EE
  8
0
 10
4095.7025056183751985
 20
151.6973027350649943
 30
0.0
 40
0.2104493064616479
 50
76.4748297932291479
 51
89.5473555877808423
  0
ARC
  5
86EF
  8
0
 10
4094.3308756669339346
 20
146.1938072135652078
 30
0.0
 40
5.8822880209999981
 50
31.97785585829957
 51
76.0221441417097878
  0
ARC
  5
86F0
  8
0
 10
4099.1535383360842388
 20
149.2047505486461034
 30
0.0
 40
0.1968808247228178
 50
4.0221585749251494
 51
31.9777824317321304
  0
ARC
  5
86F1
  8
0
 10
4093.4821381991378075
 20
148.8059634753053047
 30
0.0
 40
5.8822841211671832
 50
319.9778407902575168
 51
4.0221585749251494
  0
ARC
  5
86F2
  8
0
 10
4097.8359967080277784
 20
145.149772028930812
 30
0.0
 40
0.1968800187332965
 50
292.0221001732472814
 51
319.9778407902575168
  0
ARC
  5
86F3
  8
0
 10
4095.7041636731578365
 20
150.4203898355642082
 30
0.0
 40
5.8823108865007434
 50
275.3766294852582064
 51
292.0221001732472814
  0
ARC
  5
86F4
  8
0
 10
4095.7041636731578365
 20
150.4203898355642082
 30
0.0
 40
5.8823108865007434
 50
270.0000438893014802
 51
272.301533376645807
  0
LINE
  5
86F5
  8
0
 10
4096.2553492814340643
 20
144.5639595413769882
 30
0.0
 11
4096.2553492814340643
 21
144.5676732251652084
 31
0.0
  0
ARC
  5
86F6
  8
0
 10
4095.7041681892651468
 20
150.4203668306747943
 30
0.0
 40
5.8785902252442641
 50
272.3029467896899973
 51
275.3799982694188202
  0
LINE
  5
86F7
  8
0
 10
4095.9403886515337945
 20
144.5465245677652035
 30
0.0
 11
4095.9403886515337945
 21
144.5428240873112884
 31
0.0
  0
ARC
  5
86F8
  8
0
 10
4095.7039367213069454
 20
151.5036050395634106
 30
0.0
 40
0.205516429113712
 50
76.5703490069209778
 51
89.9354720370712784
  0
ARC
  5
86F9
  8
0
 10
4094.4875526815048943
 20
146.4094546239520014
 30
0.0
 40
5.442878225777946
 50
31.429651016389041
 51
76.5703490069209778
  0
ARC
  5
86FA
  8
0
 10
4098.957344658688271
 20
149.1410033160829869
 30
0.0
 40
0.2045198401039258
 50
4.570345891989164
 51
31.429651016389041
  0
ARC
  5
86FB
  8
0
 10
4093.4821341131710142
 20
148.8059648079002955
 30
0.0
 40
5.6899373323039306
 50
320.4599189306576932
 51
3.5400814258642148
  0
ARC
  5
86FC
  8
0
 10
4097.7147439569271228
 20
145.3166631457847018
 30
0.0
 40
0.2045170268107947
 50
292.5699932719707022
 51
319.4296544645337121
  0
ARC
  5
86FD
  8
0
 10
4095.7041689384600431
 20
150.4203589147570881
 30
0.0
 40
5.689929174591879
 50
269.9999923352398241
 51
291.5401042547654811
  0
LINE
  5
86FE
  8
0
 10
4095.7041681790838084
 20
151.907745474265198
 30
0.0
 11
4095.7041681790838084
 21
151.7091213383401964
 31
0.0
  0
LINE
  5
86FF
  8
0
 10
4092.2564817711331671
 20
149.204203417114087
 30
0.0
 11
4092.0675531994761513
 21
149.2655899729558087
 31
0.0
  0
LINE
  5
8700
  8
0
 10
4093.5733808176692037
 20
145.1512050259150044
 30
0.0
 11
4093.456616560717066
 21
144.9904926883031919
 31
0.0
  0
LINE
  5
8701
  8
0
 10
4097.8349555404993225
 20
145.1512050259150044
 30
0.0
 11
4097.9517223730572368
 21
144.9904945596207142
 31
0.0
  0
LINE
  5
8702
  8
0
 10
4099.1518545870349044
 20
149.204203417114087
 30
0.0
 11
4099.3407831586919201
 21
149.2655899729558087
 31
0.0
  0
LINE
  5
8703
  8
0
 10
4095.889542808934948
 20
150.9416411247651979
 30
0.0
 11
4095.5187959430340925
 21
150.9416407982652117
 31
0.0
  0
ARC
  5
8704
  8
0
 10
4095.5319613186002243
 20
150.8860491216098012
 30
0.0
 40
0.0571293412106891
 50
103.3234829652496956
 51
166.6765168864515942
  0
LINE
  5
8705
  8
0
 10
4095.4763696419790904
 20
150.899214497320088
 30
0.0
 11
4095.4763689536011952
 21
150.1198385659654946
 31
0.0
  0
ARC
  5
8706
  8
0
 10
4095.8763723903380196
 20
150.8860476433821987
 30
0.0
 40
0.0571322596986316
 50
13.3243134356147195
 51
76.6720127832484337
  0
LINE
  5
8707
  8
0
 10
4095.9319667160889367
 20
150.899214497320088
 30
0.0
 11
4095.9319674044659223
 21
150.1198385659654946
 31
0.0
  0
LINE
  5
8708
  8
0
 10
4094.4803675208340792
 20
149.9032150964652033
 30
0.0
 11
4094.4803678473340369
 21
149.5324682305652004
 31
0.0
  0
ARC
  5
8709
  8
0
 10
4094.5359595239901864
 20
149.5456336061315881
 30
0.0
 40
0.0571293412106891
 50
193.3234829652533051
 51
256.6765168864653219
  0
LINE
  5
870A
  8
0
 10
4094.5227941482798997
 20
149.490041929510312
 30
0.0
 11
4095.3021700796339246
 21
149.4900412411319905
 31
0.0
  0
ARC
  5
870B
  8
0
 10
4094.5359610022169363
 20
149.890044677869696
 30
0.0
 40
0.0571322596986316
 50
103.3243134356122965
 51
166.6720127832437015
  0
LINE
  5
870C
  8
0
 10
4094.5227941482798997
 20
149.9456390036201014
 30
0.0
 11
4095.3021700796339246
 21
149.9456396919983945
 31
0.0
  0
LINE
  5
870D
  8
0
 10
4095.5187935491348981
 20
148.4940398083651871
 30
0.0
 11
4095.889540415034844
 21
148.4940401348652017
 31
0.0
  0
ARC
  5
870E
  8
0
 10
4095.8763750394678027
 20
148.5496318115206122
 30
0.0
 40
0.0571293412106891
 50
283.3234829652496956
 51
346.6765168864516227
  0
LINE
  5
870F
  8
0
 10
4095.9319667160889367
 20
148.5364664358102971
 30
0.0
 11
4095.9319674044659223
 21
149.3158423671648904
 31
0.0
  0
ARC
  5
8710
  8
0
 10
4095.5319639677290979
 20
148.5496332897483001
 30
0.0
 40
0.0571322596986316
 50
193.3243134356146982
 51
256.6720127832484764
  0
LINE
  5
8711
  8
0
 10
4095.4763696419790904
 20
148.5364664358102971
 30
0.0
 11
4095.4763689536011952
 21
149.3158423671648904
 31
0.0
  0
LINE
  5
8712
  8
0
 10
4096.9279688372344026
 20
149.5324658366652102
 30
0.0
 11
4096.9279685107330806
 21
149.903212702565213
 31
0.0
  0
ARC
  5
8713
  8
0
 10
4096.8723768340778406
 20
149.890047326998797
 30
0.0
 40
0.0571293412106891
 50
13.3234829652532998
 51
76.6765168864653361
  0
LINE
  5
8714
  8
0
 10
4096.8855422097885821
 20
149.9456390036201014
 30
0.0
 11
4096.1061662784350119
 21
149.9456396919983945
 31
0.0
  0
ARC
  5
8715
  8
0
 10
4096.872375355850636
 20
149.5456362552608027
 30
0.0
 40
0.0571322596986316
 50
283.3243134356122823
 51
346.6720127832437015
  0
LINE
  5
8716
  8
0
 10
4096.8855422097885821
 20
149.490041929510312
 30
0.0
 11
4096.1061662784350119
 21
149.4900412411319905
 31
0.0
  0
ARC
  5
8717
  8
0
 10
4095.3082287863007878
 20
150.1137798592980914
 30
0.0
 40
0.1682492905959829
 50
267.9363158756705161
 51
2.0636841243326001
  0
ARC
  5
8718
  8
0
 10
4096.119183252253606
 20
150.1328555097173023
 30
0.0
 40
0.1876678022773181
 50
183.9771987587656099
 51
266.0226688867060147
  0
ARC
  5
8719
  8
0
 10
4096.1309396879169071
 20
149.29106895768291
 30
0.0
 40
0.200508581857005
 50
97.0971931626271356
 51
172.9028068373708038
  0
ARC
  5
871A
  8
0
 10
4095.3059739304580944
 20
149.3196462179894866
 30
0.0
 40
0.1704374759048414
 50
358.7211574561782754
 51
91.2788425438118765
  0
LINE
  5
871B
  8
0
 10
4095.9736784743367934
 20
150.9833602581030902
 30
0.0
 11
4095.9167696429371972
 21
150.9264476072526975
 31
0.0
  0
LINE
  5
871C
  8
0
 10
4095.434657883833097
 20
150.9833602581005891
 30
0.0
 11
4095.4915647740781424
 21
150.9264456662369014
 31
0.0
  0
LINE
  5
871D
  8
0
 10
4094.495563689150913
 20
149.9304445812771007
 30
0.0
 11
4094.438573865078979
 21
149.9873728516689084
 31
0.0
  0
LINE
  5
871E
  8
0
 10
4094.4955629793621483
 20
149.5052370616091082
 30
0.0
 11
4094.4395509436549219
 21
149.4493011932912054
 31
0.0
  0
LINE
  5
871F
  8
0
 10
4095.4915640643221195
 20
148.5092359766825041
 30
0.0
 11
4095.4341756563990202
 21
148.451791147237401
 31
0.0
  0
LINE
  5
8720
  8
0
 10
4095.9167715839898847
 20
148.5092352668935973
 30
0.0
 11
4095.9741614975541779
 21
148.4517919422619059
 31
0.0
  0
LINE
  5
8721
  8
0
 10
4096.9127733787063335
 20
149.9304438715213053
 30
0.0
 11
4096.9697362687011264
 21
149.9873990826073964
 31
0.0
  0
LINE
  5
8722
  8
0
 10
4096.9127726689157498
 20
149.5052363518533127
 30
0.0
 11
4096.9687508240986062
 21
149.449266590169799
 31
0.0
  0
LINE
  5
8723
  8
0
 10
4095.9443170607341926
 20
145.2896351360568019
 30
0.0
 11
4095.4640192974338788
 21
145.2896351360568019
 31
0.0
  0
ARC
  5
8724
  8
0
 10
4095.4663697727310137
 20
145.3344078329675995
 30
0.0
 40
0.0448343520393478
 50
182.9718414056804932
 51
266.9948471442971254
  0
ARC
  5
8725
  8
0
 10
4095.297425977174953
 20
146.1614919655108054
 30
0.0
 40
0.1200339806678799
 50
2.2650907899205772
 51
87.7349091603308864
  0
LINE
  5
8726
  8
0
 10
4095.302170079733969
 20
146.2814321589652025
 30
0.0
 11
4094.4680173961328364
 21
146.2856617050651948
 31
0.0
  0
ARC
  5
8727
  8
0
 10
4094.4701548829189051
 20
146.3302486900140877
 30
0.0
 40
0.0446381907854062
 50
182.7779420915182129
 51
267.2553586903775908
  0
LINE
  5
8728
  8
0
 10
4094.425569147825172
 20
146.3280852892652035
 30
0.0
 11
4094.425569147825172
 21
146.8083849484652035
 31
0.0
  0
ARC
  5
8729
  8
0
 10
4094.4743988923069082
 20
146.801972879610986
 30
0.0
 40
0.0492489448934659
 50
97.4451040981069241
 51
172.5190189977587067
  0
LINE
  5
872A
  8
0
 10
4094.4680174004338369
 20
146.8508066295651986
 30
0.0
 11
4095.3021921629770077
 21
146.8550980096763112
 31
0.0
  0
ARC
  5
872B
  8
0
 10
4095.2974648945059926
 20
146.9749989434727979
 30
0.0
 40
0.1199940873228894
 50
272.2577999382053804
 51
357.7242765766611114
  0
ARC
  5
872C
  8
0
 10
4054.2209593590018812
 20
147.5962965980731951
 30
0.0
 40
41.20116185042464
 50
359.1293421368475833
 51
0.2893787657272854
  0
ARC
  5
872D
  8
0
 10
4095.4645013298168124
 20
147.8039279985320036
 30
0.0
 40
0.04290806602198
 50
90.6622274544025828
 51
179.3873358390154067
  0
LINE
  5
872E
  8
0
 10
4095.4640054073088322
 20
147.8468331985737052
 30
0.0
 11
4095.9443309508587845
 21
147.8468331985737052
 31
0.0
  0
ARC
  5
872F
  8
0
 10
4061.4872767835831837
 20
145.5771075080743913
 30
0.0
 40
33.9352035249930424
 50
359.5863007011014929
 51
0.9947273326114945
  0
ARC
  5
8730
  8
0
 10
4095.9419665854470622
 20
145.334407832957794
 30
0.0
 40
0.0448343520290378
 50
273.0051528438054902
 51
357.0281586061864232
  0
ARC
  5
8731
  8
0
 10
4096.1109103809931185
 20
146.1614919655108054
 30
0.0
 40
0.1200339806678799
 50
92.2650908396691136
 51
177.7349092100793939
  0
LINE
  5
8732
  8
0
 10
4096.1061662784341024
 20
146.2814321589652025
 30
0.0
 11
4096.9403189620361445
 21
146.2856617050651948
 31
0.0
  0
ARC
  5
8733
  8
0
 10
4096.9381814752487116
 20
146.3302486900140877
 30
0.0
 40
0.0446381907854087
 50
272.7446413096224092
 51
357.2220579084785186
  0
LINE
  5
8734
  8
0
 10
4096.98276721034199
 20
146.3280852892652035
 30
0.0
 11
4096.98276721034199
 21
146.8083849484652035
 31
0.0
  0
ARC
  5
8735
  8
0
 10
4096.9339374658611632
 20
146.801972879610986
 30
0.0
 40
0.0492489448934656
 50
7.4809810022412888
 51
82.5548959018931043
  0
LINE
  5
8736
  8
0
 10
4096.9403189577342346
 20
146.8508066295651986
 30
0.0
 11
4096.106144195192428
 21
146.8550980096763112
 31
0.0
  0
ARC
  5
8737
  8
0
 10
4096.1108714636620789
 20
146.9749989434727979
 30
0.0
 40
0.1199940873228894
 50
182.2757234233388033
 51
267.7422000617946196
  0
ARC
  5
8738
  8
0
 10
4137.1873769991525478
 20
147.5962965980729962
 30
0.0
 40
41.2011618504130865
 50
179.7106212342727076
 51
180.8706578631523882
  0
ARC
  5
8739
  8
0
 10
4095.9438350283508044
 20
147.8039279985320036
 30
0.0
 40
0.0429080660219859
 50
0.6126641609911267
 51
89.337772545597403
  0
ARC
  5
873A
  8
0
 10
4129.9210595745562387
 20
145.5771075080747039
 30
0.0
 40
33.9352035249640167
 50
179.0052726673885104
 51
180.4136992988983934
  0
LINE
  5
873B
  8
0
 10
4095.889542808934948
 20
145.3444335091652135
 30
0.0
 11
4095.5187959430340925
 21
145.3444338356651997
 31
0.0
  0
ARC
  5
873C
  8
0
 10
4095.5319613186002243
 20
145.4000255123206102
 30
0.0
 40
0.0571293412106891
 50
193.3234831135484058
 51
256.6765170347501908
  0
LINE
  5
873D
  8
0
 10
4095.4763696419790904
 20
145.3868601366102951
 30
0.0
 11
4095.4763689536011952
 21
146.1662360679648884
 31
0.0
  0
ARC
  5
873E
  8
0
 10
4095.8763723903380196
 20
145.400026990548298
 30
0.0
 40
0.0571322596986316
 50
283.3279872167515236
 51
346.6756865643852734
  0
LINE
  5
873F
  8
0
 10
4095.9319667160889367
 20
145.3868601366102951
 30
0.0
 11
4095.9319674044659223
 21
146.1662360679648884
 31
0.0
  0
LINE
  5
8740
  8
0
 10
4094.4803675208340792
 20
146.3828595374652082
 30
0.0
 11
4094.4803678473340369
 21
146.753606403365211
 31
0.0
  0
ARC
  5
8741
  8
0
 10
4094.5359595239901864
 20
146.7404410277987949
 30
0.0
 40
0.0571293412106891
 50
103.323483113534607
 51
166.6765170347466949
  0
LINE
  5
8742
  8
0
 10
4094.5227941482798997
 20
146.7960327044200994
 30
0.0
 11
4095.3021700796339246
 21
146.7960333927983925
 31
0.0
  0
ARC
  5
8743
  8
0
 10
4094.5359610022169363
 20
146.3960299560608007
 30
0.0
 40
0.0571322596986316
 50
193.3279872167562985
 51
256.6756865643877177
  0
LINE
  5
8744
  8
0
 10
4094.5227941482798997
 20
146.34043563031031
 30
0.0
 11
4095.3021700796339246
 21
146.3404349419319885
 31
0.0
  0
LINE
  5
8745
  8
0
 10
4095.5187935491348981
 20
147.7920348255651959
 30
0.0
 11
4095.889540415034844
 21
147.7920344990652097
 31
0.0
  0
ARC
  5
8746
  8
0
 10
4095.8763750394678027
 20
147.7364428224097992
 30
0.0
 40
0.0571293412106891
 50
13.3234831135483809
 51
76.6765170347502476
  0
LINE
  5
8747
  8
0
 10
4095.9319667160889367
 20
147.7496081981200859
 30
0.0
 11
4095.9319674044659223
 21
146.9702322667654926
 31
0.0
  0
ARC
  5
8748
  8
0
 10
4095.5319639677290979
 20
147.7364413441821966
 30
0.0
 40
0.0571322596986316
 50
103.3279872167511968
 51
166.6756865643851881
  0
LINE
  5
8749
  8
0
 10
4095.4763696419790904
 20
147.7496081981200859
 30
0.0
 11
4095.4763689536011952
 21
146.9702322667654926
 31
0.0
  0
LINE
  5
874A
  8
0
 10
4096.9279688372344026
 20
146.7536087972652012
 30
0.0
 11
4096.9279685107330806
 21
146.3828619313651984
 31
0.0
  0
ARC
  5
874B
  8
0
 10
4096.8723768340778406
 20
146.3960273069316997
 30
0.0
 40
0.0571293412106891
 50
283.3234831135346212
 51
346.6765170347467233
  0
LINE
  5
874C
  8
0
 10
4096.8855422097885821
 20
146.34043563031031
 30
0.0
 11
4096.1061662784350119
 21
146.3404349419319885
 31
0.0
  0
ARC
  5
874D
  8
0
 10
4096.872375355850636
 20
146.740438378669694
 30
0.0
 40
0.0571322596986316
 50
13.3279872167563092
 51
76.6756865643877035
  0
LINE
  5
874E
  8
0
 10
4096.8855422097885821
 20
146.7960327044200994
 30
0.0
 11
4096.1061662784350119
 21
146.7960333927983925
 31
0.0
  0
ARC
  5
874F
  8
0
 10
4095.3082287863007878
 20
146.1722947746322916
 30
0.0
 40
0.1682492905959829
 50
357.9363158756673897
 51
92.0636841243295407
  0
ARC
  5
8750
  8
0
 10
4096.119183252253606
 20
146.1532191242131091
 30
0.0
 40
0.1876678022773181
 50
93.9773311132940421
 51
176.0228012412343901
  0
ARC
  5
8751
  8
0
 10
4096.1309396879169071
 20
146.9950056762475015
 30
0.0
 40
0.200508581857005
 50
187.0971931626291109
 51
262.9028068373727933
  0
ARC
  5
8752
  8
0
 10
4095.3059739304580944
 20
146.9664284159408965
 30
0.0
 40
0.1704374759048414
 50
268.7211574561881093
 51
1.2788425438217099
  0
LINE
  5
8753
  8
0
 10
4095.9736784743367934
 20
145.3027143758272928
 30
0.0
 11
4095.9167696429371972
 21
145.359627026677714
 31
0.0
  0
LINE
  5
8754
  8
0
 10
4095.434657883833097
 20
145.3027143758297939
 30
0.0
 11
4095.4915647740781424
 21
145.3596289676935953
 31
0.0
  0
LINE
  5
8755
  8
0
 10
4094.495563689150913
 20
146.3556300526533107
 30
0.0
 11
4094.438573865078979
 21
146.298701782261503
 31
0.0
  0
LINE
  5
8756
  8
0
 10
4094.4955629793621483
 20
146.7808375723213032
 30
0.0
 11
4094.4395509436549219
 21
146.836773440639206
 31
0.0
  0
LINE
  5
8757
  8
0
 10
4095.4915640643221195
 20
147.7768386572479926
 30
0.0
 11
4095.4341756563990202
 21
147.8342834866930104
 31
0.0
  0
LINE
  5
8758
  8
0
 10
4095.9167715839898847
 20
147.7768393670368994
 30
0.0
 11
4095.9741614975541779
 21
147.8342826916685055
 31
0.0
  0
LINE
  5
8759
  8
0
 10
4096.9127733787063335
 20
146.3556307624091914
 30
0.0
 11
4096.9697362687011264
 21
146.2986755513229866
 31
0.0
  0
LINE
  5
875A
  8
0
 10
4096.9127726689157498
 20
146.7808382820772124
 30
0.0
 11
4096.9687508240986062
 21
146.8368080437606125
 31
0.0
  0
CIRCLE
  5
87E5
  8
0
 10
4095.7041681790337861
 20
147.563823167373414
 30
0.0
 40
0.0564963230999999
  0
ENDSEC
  0
EOF
