  0
SECTION
  2
HEADER
  9
$ACADVER
  1
AC1009
  9
$INSBASE
 10
4109.6969872705831222
 20
147.8208486432212112
 30
0.0
  9
$EXTMIN
 10
4106.0367331293628013
 20
143.9017305989212048
 30
0.0
  9
$EXTMAX
 10
4113.3572414118043525
 20
151.5056819058212056
 30
0.0
  9
$LIMMIN
 10
0.0
 20
0.0
  9
$LIMMAX
 10
11.6929133858000007
 20
8.2677165353999982
  9
$ORTHOMODE
 70
     0
  9
$REGENMODE
 70
     1
  9
$FILLMODE
 70
     1
  9
$QTEXTMODE
 70
     0
  9
$MIRRTEXT
 70
     0
  9
$DRAGMODE
 70
     2
  9
$LTSCALE
 40
0.6431102362
  9
$OSMODE
 70
  4095
  9
$ATTMODE
 70
     1
  9
$TEXTSIZE
 40
0.2
  9
$TRACEWID
 40
0.05
  9
$TEXTSTYLE
  7
STANDARD
  9
$CLAYER
  8
0
  9
$CELTYPE
  6
BYLAYER
  9
$CECOLOR
 62
   256
  9
$DIMSCALE
 40
1.0
  9
$DIMASZ
 40
0.1875
  9
$DIMEXO
 40
0.0625
  9
$DIMDLI
 40
0.4443307087
  9
$DIMRND
 40
0.0
  9
$DIMDLE
 40
0.0
  9
$DIMEXE
 40
0.125
  9
$DIMTP
 40
0.01
  9
$DIMTM
 40
0.01
  9
$DIMTXT
 40
2.0
  9
$DIMCEN
 40
0.1052362205
  9
$DIMTSZ
 40
0.0
  9
$DIMTOL
 70
     1
  9
$DIMLIM
 70
     0
  9
$DIMTIH
 70
     1
  9
$DIMTOH
 70
     1
  9
$DIMSE1
 70
     0
  9
$DIMSE2
 70
     0
  9
$DIMTAD
 70
     0
  9
$DIMZIN
 70
     0
  9
$DIMBLK
  1

  9
$DIMASO
 70
     1
  9
$DIMSHO
 70
     1
  9
$DIMPOST
  1
\X
  9
$DIMAPOST
  1

  9
$DIMALT
 70
     1
  9
$DIMALTD
 70
     2
  9
$DIMALTF
 40
25.3999999999999986
  9
$DIMLFAC
 40
1.0
  9
$DIMTOFL
 70
     0
  9
$DIMTVP
 40
0.0
  9
$DIMTIX
 70
     0
  9
$DIMSOXD
 70
     0
  9
$DIMSAH
 70
     0
  9
$DIMBLK1
  1

  9
$DIMBLK2
  1

  9
$DIMSTYLE
  2
STANDARD
  9
$DIMCLRD
 70
     0
  9
$DIMCLRE
 70
     0
  9
$DIMCLRT
 70
     0
  9
$DIMTFAC
 40
1.0
  9
$DIMGAP
 40
0.09
  9
$LUNITS
 70
     2
  9
$LUPREC
 70
     4
  9
$SKETCHINC
 40
0.1
  9
$FILLETRAD
 40
0.0
  9
$AUNITS
 70
     0
  9
$AUPREC
 70
     0
  9
$MENU
  1
.
  9
$ELEVATION
 40
0.0
  9
$PELEVATION
 40
0.0
  9
$THICKNESS
 40
0.0
  9
$LIMCHECK
 70
     0
  9
$BLIPMODE
 70
     0
  9
$CHAMFERA
 40
0.0
  9
$CHAMFERB
 40
0.0
  9
$SKPOLY
 70
     0
  9
$TDCREATE
 40
2458060.468368056230247
  9
$TDUPDATE
 40
2460278.3905787039548159
  9
$TDINDWG
 40
0.3872640046
  9
$TDUSRTIMER
 40
0.3872640046
  9
$USRTIMER
 70
     1
  9
$ANGBASE
 50
0.0
  9
$ANGDIR
 70
     0
  9
$PDMODE
 70
     0
  9
$PDSIZE
 40
0.3125
  9
$PLINEWID
 40
0.0
  9
$COORDS
 70
     1
  9
$SPLFRAME
 70
     0
  9
$SPLINETYPE
 70
     6
  9
$SPLINESEGS
 70
     8
  9
$ATTDIA
 70
     1
  9
$ATTREQ
 70
     1
  9
$HANDLING
 70
     1
  9
$HANDSEED
  5
8A14
  9
$SURFTAB1
 70
     6
  9
$SURFTAB2
 70
     6
  9
$SURFTYPE
 70
     6
  9
$SURFU
 70
     6
  9
$SURFV
 70
     6
  9
$UCSNAME
  2

  9
$UCSORG
 10
0.0
 20
0.0
 30
0.0
  9
$UCSXDIR
 10
1.0
 20
0.0
 30
0.0
  9
$UCSYDIR
 10
0.0
 20
1.0
 30
0.0
  9
$PUCSNAME
  2

  9
$PUCSORG
 10
0.0
 20
0.0
 30
0.0
  9
$PUCSXDIR
 10
1.0
 20
0.0
 30
0.0
  9
$PUCSYDIR
 10
0.0
 20
1.0
 30
0.0
  9
$USERI1
 70
     0
  9
$USERI2
 70
     0
  9
$USERI3
 70
     0
  9
$USERI4
 70
     0
  9
$USERI5
 70
     0
  9
$USERR1
 40
0.0
  9
$USERR2
 40
0.0
  9
$USERR3
 40
0.0
  9
$USERR4
 40
0.0
  9
$USERR5
 40
0.0
  9
$WORLDVIEW
 70
     1
  9
$SHADEDGE
 70
     3
  9
$SHADEDIF
 70
    70
  9
$TILEMODE
 70
     1
  9
$MAXACTVP
 70
    64
  9
$PLIMCHECK
 70
     0
  9
$PEXTMIN
 10
1.0000000000000000E+20
 20
1.0000000000000000E+20
 30
1.0000000000000000E+20
  9
$PEXTMAX
 10
-1.0000000000000000E+20
 20
-1.0000000000000000E+20
 30
-1.0000000000000000E+20
  9
$PLIMMIN
 10
0.0
 20
0.0
  9
$PLIMMAX
 10
12.0
 20
9.0
  9
$UNITMODE
 70
     0
  9
$VISRETAIN
 70
     1
  9
$PLINEGEN
 70
     0
  9
$PSLTSCALE
 70
     1
  0
ENDSEC
  0
SECTION
  2
TABLES
  0
TABLE
  2
VPORT
 70
     1
  0
VPORT
  2
*ACTIVE
 70
     0
 10
0.0
 20
0.0
 11
1.0
 21
1.0
 12
10.98414291398967
 22
0.1577895428020497
 13
0.0
 23
0.0
 14
1.0
 24
1.0
 15
0.0
 25
0.0
 16
0.0
 26
0.0
 36
29.9072292113257916
 17
4098.7309570312490905
 27
147.5449295043945028
 37
0.0
 40
7.672824347341634
 41
2.1579545454545448
 42
50.0
 43
0.0
 44
0.0
 50
0.0
 51
0.0
 71
     0
 72
   100
 73
     1
 74
     1
 75
     0
 76
     1
 77
     0
 78
     0
  0
ENDTAB
  0
TABLE
  2
LTYPE
 70
     2
  0
LTYPE
  2
CONTINUOUS
 70
     0
  3
Solid line
 72
    65
 73
     0
 40
0.0
  0
LTYPE
  2
PHANTOM2
 70
     0
  3
___ _ _ ___ _ _ ___ _ _ ___ _ _
 72
    65
 73
     6
 40
1.25
 49
0.625
 49
-0.125
 49
0.125
 49
-0.125
 49
0.125
 49
-0.125
  0
ENDTAB
  0
TABLE
  2
LAYER
 70
     2
  0
LAYER
  2
0
 70
     0
 62
   255
  6
CONTINUOUS
  0
LAYER
  2
DEFPOINTS
 70
     0
 62
     7
  6
CONTINUOUS
  0
ENDTAB
  0
TABLE
  2
STYLE
 70
     1
  0
STYLE
  2
STANDARD
 70
     0
 40
0.0
 41
0.8
 50
0.0
 71
     0
 42
0.2
  3
txt
  4

  0
ENDTAB
  0
TABLE
  2
VIEW
 70
     0
  0
ENDTAB
  0
TABLE
  2
UCS
 70
     0
  0
ENDTAB
  0
TABLE
  2
APPID
 70
     9
  0
APPID
  2
ACAD
 70
     0
  0
APPID
  2
ACAD_MLEADERVER
 70
     0
  0
APPID
  2
ACAD_EXEMPT_FROM_CAD_STANDARDS
 70
     0
  0
APPID
  2
ACAD_NAV_VCDISPLAY
 70
     0
  0
APPID
  2
ACAECLAYERSTANDARD
 70
     0
  0
APPID
  2
ACCMTRANSPARENCY
 70
     0
  0
APPID
  2
ACAD_DSTYLE_DIMJAG
 70
     0
  0
APPID
  2
ACAD_DSTYLE_DIMTALN
 70
     0
  0
APPID
  2
ACDBATTR
 70
     0
  0
ENDTAB
  0
TABLE
  2
DIMSTYLE
 70
     1
  0
DIMSTYLE
  2
STANDARD
 70
     0
  3

  4

  5

  6

  7

 40
1.0
 41
0.1875
 42
0.0625
 43
0.38
 44
0.125
 45
0.0
 46
0.0
 47
0.01
 48
0.01
140
0.15625
141
0.09
142
0.0
143
25.3999999999999986
144
1.0
145
0.0
146
1.0
147
0.09
 71
     1
 72
     0
 73
     1
 74
     1
 75
     0
 76
     0
 77
     0
 78
     4
170
     0
171
     2
172
     0
173
     0
174
     0
175
     0
176
     0
177
     0
178
     0
  0
ENDTAB
  0
ENDSEC
  0
SECTION
  2
BLOCKS
  0
BLOCK
  8
0
  2
$MODEL_SPACE
 70
     0
 10
0.0
 20
0.0
 30
0.0
  3
$MODEL_SPACE
  1

  0
ENDBLK
  5
21
  8
0
  0
BLOCK
 67
     1
  8
0
  2
$PAPER_SPACE
 70
     0
 10
0.0
 20
0.0
 30
0.0
  3
$PAPER_SPACE
  1

  0
ENDBLK
  5
1D
 67
     1
  8
0
  0
BLOCK
  8
0
  2
_FILLED
 70
     0
 10
0.0
 20
0.0
 30
0.0
  3
_FILLED
  1

  0
SOLID
  5
8409
  8
0
  6
BYBLOCK
 62
     0
 10
0.0
 20
0.0
 30
0.0
 11
-1.0
 21
0.1666666667
 31
0.0
 12
-1.0
 22
-0.1666666667
 32
0.0
 13
-1.0
 23
-0.1666666667
 33
0.0
  0
ENDBLK
  5
840A
  8
0
  6
BYBLOCK
 62
     0
  0
ENDSEC
  0
SECTION
  2
ENTITIES
  0
ATTDEF
  5
3930
  8
DEFPOINTS
 10
4109.69328139492427
 20
147.825202378900002
 30
0.0
 40
0.001
  1
K-EX27038T-4
  3

  2
MODELNUMBER
 70
     0
1001
ACDBATTR
1070
     0
1070
     1
  0
ATTDEF
  5
3931
  8
DEFPOINTS
 10
4109.69328139492427
 20
147.8235357122333085
 30
0.0
 40
0.001
  1
OCCASION
  3

  2
TRADENAME
 70
     0
1001
ACDBATTR
1070
     0
1070
     1
  0
ATTDEF
  5
3932
  8
DEFPOINTS
 10
4109.69328139492427
 20
147.8218690455665865
 30
0.0
 40
0.001
  1
VALVE TRIM
  3

  2
PRODUCT
 70
     0
1001
ACDBATTR
1070
     0
1070
     1
  0
ARC
  5
885A
  8
0
 10
4109.6985811149497749
 20
151.2957997134666925
 30
0.0
 40
0.2098882440905334
 50
90.4350955125371598
 51
103.5427191065009964
  0
ARC
  5
885B
  8
0
 10
4111.0702797827334507
 20
145.791743645121187
 30
0.0
 40
5.8822880209999981
 50
103.9778558583159054
 51
148.0221441416865957
  0
ARC
  5
885C
  8
0
 10
4106.2476171135831464
 20
148.802686980202111
 30
0.0
 40
0.1968808247228178
 50
148.0222175682513068
 51
175.9778414250748142
  0
ARC
  5
885D
  8
0
 10
4111.9190172505295777
 20
148.4038999068613123
 30
0.0
 40
5.8822841211671832
 50
175.9778414250748142
 51
220.0221592097425116
  0
ARC
  5
885E
  8
0
 10
4107.5651587416414259
 20
144.7477084604867912
 30
0.0
 40
0.1968800187332965
 50
220.0221592097425116
 51
247.977899826752008
  0
ARC
  5
885F
  8
0
 10
4109.6969917765100035
 20
150.0183262671201874
 30
0.0
 40
5.8823108865007434
 50
247.977899826752008
 51
264.623370514742021
  0
LINE
  5
8860
  8
0
 10
4109.1458061682333209
 20
144.1618959729329958
 30
0.0
 11
4109.1458061682333209
 21
144.1656096567211875
 31
0.0
  0
ARC
  5
8861
  8
0
 10
4109.696987260401329
 20
150.0183032622308019
 30
0.0
 40
5.8785902252442641
 50
264.6200017305550887
 51
266.8318217745160723
  0
ARC
  5
8862
  8
0
 10
4110.913602768160672
 20
146.007391055508009
 30
0.0
 40
5.442878225777946
 50
106.4522086646200023
 51
148.5703489836315043
  0
ARC
  5
8863
  8
0
 10
4106.4438107909800237
 20
148.7389397476389092
 30
0.0
 40
0.2045198401039258
 50
148.5703489836315043
 51
175.4296541080086911
  0
ARC
  5
8864
  8
0
 10
4111.9190213364972806
 20
148.4039012394563031
 30
0.0
 40
5.6899373323039306
 50
176.4599185741357985
 51
219.5400810693373046
  0
ARC
  5
8865
  8
0
 10
4107.686411492739353
 20
144.9145995773405957
 30
0.0
 40
0.2045170268107947
 50
220.5703455354444031
 51
247.4300067280294115
  0
ARC
  5
8866
  8
0
 10
4109.6969865112077969
 20
150.0182953463130957
 30
0.0
 40
5.689929174591879
 50
248.4598957452338936
 51
266.7266694127462188
  0
ARC
  5
8867
  8
0
 10
4109.6953247098754218
 20
151.2952391666210019
 30
0.0
 40
0.2104493064616479
 50
76.474829793203412
 51
89.5473555877808423
  0
ARC
  5
8868
  8
0
 10
4108.3236947584337031
 20
145.791743645121187
 30
0.0
 40
5.8822880209999981
 50
31.9778558583133616
 51
76.0221441416841088
  0
ARC
  5
8869
  8
0
 10
4113.1463574275830979
 20
148.802686980202111
 30
0.0
 40
0.1968808247228178
 50
4.0221585749251494
 51
31.9777824317486896
  0
ARC
  5
886A
  8
0
 10
4107.4749572906366666
 20
148.4038999068613123
 30
0.0
 40
5.8822841211671832
 50
319.9778407902575168
 51
4.0221585749251494
  0
ARC
  5
886B
  8
0
 10
4111.8288157995257279
 20
144.7477084604867912
 30
0.0
 40
0.1968800187332965
 50
292.0221001732479067
 51
319.9778407902575168
  0
ARC
  5
886C
  8
0
 10
4109.6969827646571503
 20
150.0183262671201874
 30
0.0
 40
5.8823108865007434
 50
275.376629485257979
 51
292.0221001732479067
  0
LINE
  5
886D
  8
0
 10
4110.2481683729329234
 20
144.1618959729329958
 30
0.0
 11
4110.2481683729329234
 21
144.1656096567211875
 31
0.0
  0
ARC
  5
886E
  8
0
 10
4109.6969872807649153
 20
150.0183032622308019
 30
0.0
 40
5.8785902252442641
 50
273.1681782254839277
 51
275.3799982694449113
  0
ARC
  5
886F
  8
0
 10
4108.4803717730046628
 20
146.007391055508009
 30
0.0
 40
5.442878225777946
 50
31.4296510163684992
 51
73.5477913353799693
  0
ARC
  5
8870
  8
0
 10
4112.9501637501871301
 20
148.7389397476389092
 30
0.0
 40
0.2045198401039258
 50
4.5703458919912396
 51
31.4296510163684992
  0
ARC
  5
8871
  8
0
 10
4107.4749532046698732
 20
148.4039012394563031
 30
0.0
 40
5.6899373323039306
 50
320.4599189306628091
 51
3.5400814258642148
  0
ARC
  5
8872
  8
0
 10
4111.7075630484278008
 20
144.9145995773405957
 30
0.0
 40
0.2045170268107947
 50
292.5699932719707022
 51
319.4296544645555969
  0
ARC
  5
8873
  8
0
 10
4109.6969880299593569
 20
150.0182953463130957
 30
0.0
 40
5.689929174591879
 50
273.2733305872537244
 51
291.5401042547661064
  0
LINE
  5
8875
  8
0
 10
4109.9457849485052066
 20
151.3827268981191025
 30
0.0
 11
4109.4481895926146535
 21
151.3827268981191025
 31
0.0
  0
ARC
  5
8876
  8
0
 10
4109.4481895926146535
 20
151.3414079332623885
 30
0.0
 40
0.0413189648567363
 50
90.0
 51
133.8693749938616122
  0
LINE
  5
8877
  8
0
 10
4109.4195548645093368
 20
151.3711956690459033
 30
0.0
 11
4109.3836103254216141
 21
151.3352511280994008
 31
0.0
  0
ARC
  5
8878
  8
0
 10
4109.4114043601366575
 20
151.3074538831959899
 30
0.0
 40
0.0393089708589199
 50
134.9966913837455991
 51
180.0504403785338923
  0
LINE
  5
8879
  8
0
 10
4109.3720954045111284
 20
151.3074192775212055
 30
0.0
 11
4109.3720954045111284
 21
150.094103640756714
 31
0.0
  0
ARC
  5
887A
  8
0
 10
4109.2906161290411546
 20
150.0948887552025894
 30
0.0
 40
0.0814830579681052
 50
298.5817645353287162
 51
359.4479289145870098
  0
ARC
  5
887B
  8
0
 10
4109.6969872706504248
 20
148.9463928091533944
 30
0.0
 40
1.1378840889677559
 50
90.0000000033871714
 51
114.3930535945028026
  0
ARC
  5
887C
  8
0
 10
4109.2513106852757119
 20
149.9291980924296013
 30
0.0
 40
0.0587483961159004
 50
114.3930535945028026
 51
137.6069615154821122
  0
ARC
  5
887D
  8
0
 10
4110.0482930703929014
 20
149.2016307243677034
 30
0.0
 40
1.137884716168287
 50
137.6069615154821122
 51
186.3930413387020053
  0
ARC
  5
887E
  8
0
 10
4108.9617443623901636
 20
149.0768819886378083
 30
0.0
 40
0.0443030704596416
 50
182.5262116077057044
 51
213.4738400027299861
  0
ARC
  5
887F
  8
0
 10
4109.9141075784182249
 20
149.6146173645365991
 30
0.0
 40
1.1378868592960889
 50
209.6070102717343104
 51
258.3929924410007857
  0
ARC
  5
8880
  8
0
 10
4109.6969872772442613
 20
148.5426938182903029
 30
0.0
 40
0.0443002426691086
 50
254.5252001677251883
 51
285.4748506685971279
  0
ARC
  5
8881
  8
0
 10
4109.6969878603185862
 20
148.9463854019730888
 30
0.0
 40
1.031422725248283
 50
90.0000327599159533
 51
113.3072620484740014
  0
ARC
  5
8882
  8
0
 10
4109.3176507359994503
 20
149.8378891524940002
 30
0.0
 40
0.0627309454941433
 50
117.2856526136226023
 51
134.7105053473655119
  0
ARC
  5
8883
  8
0
 10
4110.0481428654902629
 20
149.2016795289248989
 30
0.0
 40
1.031270906131162
 50
138.6888959124752887
 51
185.3111036229595925
  0
ARC
  5
8884
  8
0
 10
4109.083266768937392
 20
149.1163615984723094
 30
0.0
 40
0.0627915092366953
 50
189.293361057216913
 51
206.7012838214477881
  0
ARC
  5
8885
  8
0
 10
4109.9138588869045634
 20
149.6142790599388093
 30
0.0
 40
1.0310334460064441
 50
210.6835412556939104
 51
257.3169316272454807
  0
ARC
  5
8886
  8
0
 10
4109.6969895203137639
 20
148.6506260677689966
 30
0.0
 40
0.0432787135532197
 50
257.3169316272454807
 51
282.683078875082515
  0
ARC
  5
8887
  8
0
 10
4109.6969872705831222
 20
147.1535451102620016
 30
0.0
 40
0.0392069104897049
 50
79.584324819996823
 51
100.4156751800032055
  0
ARC
  5
8888
  8
0
 10
4109.9404532010648836
 20
145.8310839698999075
 30
0.0
 40
1.383892421388579
 50
100.4309402650919054
 51
151.5460103583289992
  0
ARC
  5
8889
  8
0
 10
4108.7608050068711236
 20
146.4703546556984861
 30
0.0
 40
0.0421633608898345
 50
151.5460103583289992
 51
172.4539905744420878
  0
ARC
  5
888A
  8
0
 10
4110.0908957008759899
 20
146.29415818219681
 30
0.0
 40
1.3838736319823111
 50
172.4539905744420878
 51
223.550764156536502
  0
ARC
  5
888B
  8
0
 10
4109.1180208649284396
 20
145.3692948554044904
 30
0.0
 40
0.0415407300289075
 50
223.550764156536502
 51
244.6150760207684129
  0
ARC
  5
888C
  8
0
 10
4109.6969860038852858
 20
146.629997760686706
 30
0.0
 40
1.4288271640031169
 50
245.3126353575742939
 51
294.6981759452395977
  0
LINE
  5
888D
  8
0
 10
4109.9457849485279439
 20
143.9017305989212048
 30
0.0
 11
4109.4481895926392099
 21
143.9017305989212048
 31
0.0
  0
ARC
  5
888E
  8
0
 10
4109.4481895926392099
 20
143.9430495637778904
 30
0.0
 40
0.0413189648567363
 50
226.1306250061383878
 51
270.0
  0
LINE
  5
888F
  8
0
 10
4109.4195548645320741
 20
143.9132618279944893
 30
0.0
 11
4109.383610325445261
 21
143.9492063689409065
 31
0.0
  0
ARC
  5
8890
  8
0
 10
4109.4222814828299306
 20
143.9815045029301928
 30
0.0
 40
0.0503847980312464
 50
185.0903915252530112
 51
219.868617920081391
  0
LINE
  5
8891
  8
0
 10
4109.3720954045111284
 20
143.9770339978547895
 30
0.0
 11
4109.3720954045111284
 21
145.1903503339190991
 31
0.0
  0
ARC
  5
8892
  8
0
 10
4109.30215341793064
 20
145.1840296462266053
 30
0.0
 40
0.0702270074802256
 50
5.1638176384467238
 51
71.0836993945588205
  0
ARC
  5
8893
  8
0
 10
4109.9457849485515908
 20
151.3414079332623885
 30
0.0
 40
0.0413189648567363
 50
46.1306250061383523
 51
90.0
  0
LINE
  5
8894
  8
0
 10
4109.974419676657817
 20
151.3711956690459033
 30
0.0
 11
4110.0103642157446302
 21
151.3352511280994008
 31
0.0
  0
ARC
  5
8895
  8
0
 10
4109.9825701810286773
 20
151.3074538831959899
 30
0.0
 40
0.0393089708589199
 50
359.9495596214644024
 51
45.0033086162543796
  0
LINE
  5
8896
  8
0
 10
4110.0218791366551159
 20
151.3074192775212055
 30
0.0
 11
4110.0218791366551159
 21
150.094103640756714
 31
0.0
  0
ARC
  5
8897
  8
0
 10
4110.1033584121259992
 20
150.0948887552025894
 30
0.0
 40
0.0814830579681052
 50
180.5520710854129902
 51
241.4182354646713122
  0
ARC
  5
8898
  8
0
 10
4109.6969872705158195
 20
148.9463928091533944
 30
0.0
 40
1.1378840889677559
 50
65.6069464054971689
 51
89.9999999966128428
  0
ARC
  5
8899
  8
0
 10
4110.1426638558914419
 20
149.9291980924296013
 30
0.0
 40
0.0587483961159004
 50
42.3930384845179091
 51
65.6069464054971689
  0
ARC
  5
889A
  8
0
 10
4109.3456814707742524
 20
149.2016307243677034
 30
0.0
 40
1.137884716168287
 50
353.606958661297881
 51
42.3930384845179091
  0
ARC
  5
889B
  8
0
 10
4110.4322301787760807
 20
149.0768819886378083
 30
0.0
 40
0.0443030704596416
 50
326.5261599972699855
 51
357.4737883922942956
  0
ARC
  5
889C
  8
0
 10
4109.4798669626252376
 20
149.614617364646989
 30
0.0
 40
1.1378868594579989
 50
281.6070101957075167
 51
330.3929897264972055
  0
ARC
  5
889D
  8
0
 10
4109.6969866808476581
 20
148.9463854019730888
 30
0.0
 40
1.031422725248283
 50
66.692737951525956
 51
89.9999672400840183
  0
ARC
  5
889E
  8
0
 10
4110.076323805166794
 20
149.8378891524940002
 30
0.0
 40
0.0627309454941433
 50
45.2894946526344668
 51
62.7143473863773977
  0
ARC
  5
889F
  8
0
 10
4109.3458316756778004
 20
149.2016795289248989
 30
0.0
 40
1.031270906131162
 50
354.6888963770402938
 51
41.3111040875246474
  0
ARC
  5
88A0
  8
0
 10
4110.3107077722297618
 20
149.1163615984723094
 30
0.0
 40
0.0627915092366953
 50
333.2987161785521835
 51
350.7066389427830018
  0
ARC
  5
88A1
  8
0
 10
4109.4801156542607714
 20
149.6142790599388093
 30
0.0
 40
1.0310334460064441
 50
282.6830683727544056
 51
329.3164587443060896
  0
ARC
  5
88A2
  8
0
 10
4109.6969850208533899
 20
148.6506260677689966
 30
0.0
 40
0.0432787135532197
 50
257.316921124917485
 51
282.6830683727544056
  0
ARC
  5
88A3
  8
0
 10
4109.4535213401022702
 20
145.8310839698999075
 30
0.0
 40
1.383892421388579
 50
28.4539896416709688
 51
79.569059734908123
  0
ARC
  5
88A4
  8
0
 10
4110.6331695342969397
 20
146.4703546556984861
 30
0.0
 40
0.0421633608898345
 50
7.5460094255578127
 51
28.4539896416709688
  0
ARC
  5
88A5
  8
0
 10
4109.3030788402911639
 20
146.29415818219681
 30
0.0
 40
1.3838736319823111
 50
316.449235843463498
 51
7.5460094255578127
  0
ARC
  5
88A6
  8
0
 10
4110.2758908194409742
 20
145.3693666987456083
 30
0.0
 40
0.0416357871529163
 50
295.7885288230855849
 51
316.4371792036154716
  0
ARC
  5
88A7
  8
0
 10
4109.9457849485279439
 20
143.9430495637778904
 30
0.0
 40
0.0413189648567363
 50
270.0
 51
313.8693749938615838
  0
LINE
  5
88A8
  8
0
 10
4109.9744196766350797
 20
143.9132618279944893
 30
0.0
 11
4110.0103642157218928
 21
143.9492063689409065
 31
0.0
  0
ARC
  5
88A9
  8
0
 10
4109.9716930583372232
 20
143.9815045029301928
 30
0.0
 40
0.0503847980312464
 50
320.1313820799185805
 51
354.9096084747469035
  0
LINE
  5
88AA
  8
0
 10
4110.0218791366551159
 20
143.9770339978547895
 30
0.0
 11
4110.0218791366551159
 21
145.1903503339190991
 31
0.0
  0
ARC
  5
88AB
  8
0
 10
4110.0918211232346948
 20
145.1840296462266053
 30
0.0
 40
0.0702270074802256
 50
108.9163006054410943
 51
174.8361823615533126
  0
LINE
  5
88AC
  8
0
 10
4109.2807801129620202
 20
149.888640789703004
 30
0.0
 11
4109.2167792381760592
 21
149.9767265387264104
 31
0.0
  0
LINE
  5
88AD
  8
0
 10
4109.0235475881991078
 20
149.0969607458062001
 30
0.0
 11
4108.9196096447030868
 21
149.0631915679859105
 31
0.0
  0
LINE
  5
88AE
  8
0
 10
4110.3704269529671365
 20
149.0969607458062001
 30
0.0
 11
4110.474364896464067
 21
149.0631915679859105
 31
0.0
  0
LINE
  5
88AF
  8
0
 10
4110.1771953029901852
 20
149.9767265387264104
 30
0.0
 11
4110.1131944282051336
 21
149.888640789703004
 31
0.0
  0
LINE
  5
88B0
  8
0
 10
4109.6969895242791608
 20
148.6073473542157899
 30
0.0
 11
4109.6969872968984419
 21
148.4983935756212077
 31
0.0
  0
ARC
  5
88B1
  8
0
 10
4109.6969878013132984
 20
147.0195414701501022
 30
0.0
 40
0.064005554173323
 50
81.4618486329822957
 51
98.5361206897948989
  0
ARC
  5
88B2
  8
0
 10
4109.9696223395112611
 20
145.7909198188349933
 30
0.0
 40
1.322366359028732
 50
102.3191072738504062
 51
149.6807123813437101
  0
ARC
  5
88B3
  8
0
 10
4108.885396751143162
 20
146.4298729021438987
 30
0.0
 40
0.0640193276148328
 50
153.4636989653747037
 51
170.5342696497226029
  0
ARC
  5
88B4
  8
0
 10
4110.1381186107873873
 20
146.3095028502513912
 30
0.0
 40
1.322364166227104
 50
174.3190873328117902
 51
221.6809119844527913
  0
ARC
  5
88B5
  8
0
 10
4109.1953945577151899
 20
145.4757874576316965
 30
0.0
 40
0.0640157476138738
 50
225.4657296675727025
 51
242.5342705329402975
  0
ARC
  5
88B6
  8
0
 10
4109.6969877320252635
 20
146.6300057807588075
 30
0.0
 40
1.3223664109376601
 50
246.3191084041920078
 51
293.6807118818500726
  0
ARC
  5
88B7
  8
0
 10
4110.1985692195630691
 20
145.475801402621812
 30
0.0
 40
0.0640332371732542
 50
297.4655497531030051
 51
314.5323847589439765
  0
ARC
  5
88B8
  8
0
 10
4109.2558539509145703
 20
146.3095039858604025
 30
0.0
 40
1.3223663997690771
 50
318.319108299709626
 51
5.6807121514852739
  0
ARC
  5
88B9
  8
0
 10
4110.5085511839997707
 20
146.4298631682625
 30
0.0
 40
0.0640473296421707
 50
9.4674356922432406
 51
26.5304876093451014
  0
ARC
  5
88BA
  8
0
 10
4109.4243514338713794
 20
145.7909203399534022
 30
0.0
 40
1.3223663898254781
 50
30.3191082159612613
 51
77.6807124004819229
  0
LINE
  5
88BB
  8
0
 10
4109.6969872705831222
 20
147.1927520207516977
 30
0.0
 11
4109.6969889355559644
 21
147.0835470243133898
 31
0.0
  0
LINE
  5
88BC
  8
0
 10
4108.8245111031537817
 20
146.449657041679103
 30
0.0
 11
4108.7207052676412786
 21
146.4833838504270034
 31
0.0
  0
LINE
  5
88BD
  8
0
 10
4109.093652499239397
 20
145.3356523970381886
 30
0.0
 11
4109.1577670454416875
 21
145.4239976298385955
 31
0.0
  0
LINE
  5
88BE
  8
0
 10
4110.2362060782679691
 20
145.4239967471391139
 30
0.0
 11
4110.3003611734993683
 21
145.3356807885733986
 31
0.0
  0
LINE
  5
88BF
  8
0
 10
4110.5694641728750867
 20
146.4496537776670095
 30
0.0
 11
4110.6732692735249657
 21
146.4833838504270034
 31
0.0
  0
LINE
  5
88C0
  8
0
 10
4109.3720954045111284
 20
143.9770339978549032
 30
0.0
 11
4110.0218791366551159
 21
143.9770339978549032
 31
0.0
  0
LINE
  5
88C1
  8
0
 10
4110.0218791366551159
 20
151.3074192775212055
 30
0.0
 11
4109.3720954045111284
 21
151.3074192775212055
 31
0.0
  0
LINE
  5
88C2
  8
0
 10
4106.0603722909763746
 20
148.8635264045117879
 30
0.0
 11
4106.2493008626315714
 21
148.8021398486700946
 31
0.0
  0
LINE
  5
88C3
  8
0
 10
4107.4494356522172893
 20
144.5884291198591995
 30
0.0
 11
4107.5661999091671532
 21
144.749141457471012
 31
0.0
  0
LINE
  5
88C4
  8
0
 10
4111.8277746319990911
 20
144.749141457471012
 30
0.0
 11
4111.9445414645497294
 21
144.5884309911724017
 31
0.0
  0
LINE
  5
88C5
  8
0
 10
4113.1446736785346729
 20
148.8021398486700946
 30
0.0
 11
4113.3336006401514169
 21
148.863531359489599
 31
0.0
  0
LINE
  5
88C6
  8
0
 10
4109.6969872705831222
 20
151.5056819058212056
 30
0.0
 11
4109.6969872705603848
 21
151.3827268981191025
 31
0.0
  0
LINE
  5
88C7
  8
0
 10
4109.6969873079333411
 20
151.3827268981212057
 30
0.0
 11
4109.6969872880627008
 21
150.0842768981212032
 31
0.0
  0
LINE
  5
88C8
  8
0
 10
4109.6969872705831222
 20
143.9017305989212048
 30
0.0
 11
4109.6971208086060869
 21
145.2011706030428115
 31
0.0
  0
CIRCLE
  5
88C9
  8
0
 10
4109.69698724803402
 20
146.8652226768211904
 30
0.0
 40
0.0590551180999999
  0
ENDSEC
  0
EOF
