  0
SECTION
  2
HEADER
  9
$ACADVER
  1
AC1009
  9
$INSBASE
 10
4072.8688267523361901
 20
143.5648124396130072
 30
0.0
  9
$EXTMIN
 10
4069.714679265453924
 20
143.0852603042694113
 30
-0.0000000349181948
  9
$EXTMAX
 10
4076.2453248087090287
 20
143.5781816610698911
 30
0.0000000814935746
  9
$LIMMIN
 10
0.0
 20
0.0
  9
$LIMMAX
 10
11.6929133858000007
 20
8.2677165353999982
  9
$ORTHOMODE
 70
     0
  9
$REGENMODE
 70
     1
  9
$FILLMODE
 70
     1
  9
$QTEXTMODE
 70
     0
  9
$MIRRTEXT
 70
     0
  9
$DRAGMODE
 70
     2
  9
$LTSCALE
 40
0.6431102362
  9
$OSMODE
 70
  4095
  9
$ATTMODE
 70
     1
  9
$TEXTSIZE
 40
0.2
  9
$TRACEWID
 40
0.05
  9
$TEXTSTYLE
  7
STANDARD
  9
$CLAYER
  8
0
  9
$CELTYPE
  6
BYLAYER
  9
$CECOLOR
 62
   256
  9
$DIMSCALE
 40
1.0
  9
$DIMASZ
 40
0.1875
  9
$DIMEXO
 40
0.0625
  9
$DIMDLI
 40
0.4443307087
  9
$DIMRND
 40
0.0
  9
$DIMDLE
 40
0.0
  9
$DIMEXE
 40
0.125
  9
$DIMTP
 40
0.01
  9
$DIMTM
 40
0.01
  9
$DIMTXT
 40
2.0
  9
$DIMCEN
 40
0.1052362205
  9
$DIMTSZ
 40
0.0
  9
$DIMTOL
 70
     1
  9
$DIMLIM
 70
     0
  9
$DIMTIH
 70
     1
  9
$DIMTOH
 70
     1
  9
$DIMSE1
 70
     0
  9
$DIMSE2
 70
     0
  9
$DIMTAD
 70
     0
  9
$DIMZIN
 70
     0
  9
$DIMBLK
  1

  9
$DIMASO
 70
     1
  9
$DIMSHO
 70
     1
  9
$DIMPOST
  1
\X
  9
$DIMAPOST
  1

  9
$DIMALT
 70
     1
  9
$DIMALTD
 70
     2
  9
$DIMALTF
 40
25.3999999999999986
  9
$DIMLFAC
 40
1.0
  9
$DIMTOFL
 70
     0
  9
$DIMTVP
 40
0.0
  9
$DIMTIX
 70
     0
  9
$DIMSOXD
 70
     0
  9
$DIMSAH
 70
     0
  9
$DIMBLK1
  1

  9
$DIMBLK2
  1

  9
$DIMSTYLE
  2
STANDARD
  9
$DIMCLRD
 70
     0
  9
$DIMCLRE
 70
     0
  9
$DIMCLRT
 70
     0
  9
$DIMTFAC
 40
1.0
  9
$DIMGAP
 40
0.09
  9
$LUNITS
 70
     2
  9
$LUPREC
 70
     4
  9
$SKETCHINC
 40
0.1
  9
$FILLETRAD
 40
0.0
  9
$AUNITS
 70
     0
  9
$AUPREC
 70
     0
  9
$MENU
  1
.
  9
$ELEVATION
 40
0.0
  9
$PELEVATION
 40
0.0
  9
$THICKNESS
 40
0.0
  9
$LIMCHECK
 70
     0
  9
$BLIPMODE
 70
     0
  9
$CHAMFERA
 40
0.0
  9
$CHAMFERB
 40
0.0
  9
$SKPOLY
 70
     0
  9
$TDCREATE
 40
2458060.468368056230247
  9
$TDUPDATE
 40
2460167.5752662038430572
  9
$TDINDWG
 40
0.361384375
  9
$TDUSRTIMER
 40
0.361384375
  9
$USRTIMER
 70
     1
  9
$ANGBASE
 50
0.0
  9
$ANGDIR
 70
     0
  9
$PDMODE
 70
     0
  9
$PDSIZE
 40
0.3125
  9
$PLINEWID
 40
0.0
  9
$COORDS
 70
     1
  9
$SPLFRAME
 70
     0
  9
$SPLINETYPE
 70
     6
  9
$SPLINESEGS
 70
     8
  9
$ATTDIA
 70
     1
  9
$ATTREQ
 70
     1
  9
$HANDLING
 70
     1
  9
$HANDSEED
  5
863C
  9
$SURFTAB1
 70
     6
  9
$SURFTAB2
 70
     6
  9
$SURFTYPE
 70
     6
  9
$SURFU
 70
     6
  9
$SURFV
 70
     6
  9
$UCSNAME
  2

  9
$UCSORG
 10
0.0
 20
0.0
 30
0.0
  9
$UCSXDIR
 10
1.0
 20
0.0
 30
0.0
  9
$UCSYDIR
 10
0.0
 20
1.0
 30
0.0
  9
$PUCSNAME
  2

  9
$PUCSORG
 10
0.0
 20
0.0
 30
0.0
  9
$PUCSXDIR
 10
1.0
 20
0.0
 30
0.0
  9
$PUCSYDIR
 10
0.0
 20
1.0
 30
0.0
  9
$USERI1
 70
     0
  9
$USERI2
 70
     0
  9
$USERI3
 70
     0
  9
$USERI4
 70
     0
  9
$USERI5
 70
     0
  9
$USERR1
 40
0.0
  9
$USERR2
 40
0.0
  9
$USERR3
 40
0.0
  9
$USERR4
 40
0.0
  9
$USERR5
 40
0.0
  9
$WORLDVIEW
 70
     1
  9
$SHADEDGE
 70
     3
  9
$SHADEDIF
 70
    70
  9
$TILEMODE
 70
     1
  9
$MAXACTVP
 70
    64
  9
$PLIMCHECK
 70
     0
  9
$PEXTMIN
 10
1.0000000000000000E+20
 20
1.0000000000000000E+20
 30
1.0000000000000000E+20
  9
$PEXTMAX
 10
-1.0000000000000000E+20
 20
-1.0000000000000000E+20
 30
-1.0000000000000000E+20
  9
$PLIMMIN
 10
0.0
 20
0.0
  9
$PLIMMAX
 10
12.0
 20
9.0
  9
$UNITMODE
 70
     0
  9
$VISRETAIN
 70
     1
  9
$PLINEGEN
 70
     0
  9
$PSLTSCALE
 70
     1
  0
ENDSEC
  0
SECTION
  2
TABLES
  0
TABLE
  2
VPORT
 70
     1
  0
VPORT
  2
*ACTIVE
 70
     0
 10
0.0
 20
0.0
 11
1.0
 21
1.0
 12
269.4359346542697153
 22
17.3364587859197883
 13
0.0
 23
0.0
 14
1.0
 24
1.0
 15
0.0
 25
0.0
 16
0.0
 26
0.0
 36
17.1152628219792007
 17
3803.5440673828129547
 27
125.9952621967499056
 37
0.0
 40
2.3093736939785399
 41
2.8368263473053892
 42
50.0
 43
0.0
 44
0.0
 50
0.0
 51
0.0
 71
     0
 72
   100
 73
     1
 74
     1
 75
     0
 76
     0
 77
     0
 78
     0
  0
ENDTAB
  0
TABLE
  2
LTYPE
 70
     2
  0
LTYPE
  2
CONTINUOUS
 70
     0
  3
Solid line
 72
    65
 73
     0
 40
0.0
  0
LTYPE
  2
PHANTOM2
 70
     0
  3
___ _ _ ___ _ _ ___ _ _ ___ _ _
 72
    65
 73
     6
 40
1.25
 49
0.625
 49
-0.125
 49
0.125
 49
-0.125
 49
0.125
 49
-0.125
  0
ENDTAB
  0
TABLE
  2
LAYER
 70
     2
  0
LAYER
  2
0
 70
     0
 62
   255
  6
CONTINUOUS
  0
LAYER
  2
DEFPOINTS
 70
     0
 62
     7
  6
CONTINUOUS
  0
ENDTAB
  0
TABLE
  2
STYLE
 70
     1
  0
STYLE
  2
STANDARD
 70
     0
 40
0.0
 41
0.8
 50
0.0
 71
     0
 42
0.2
  3
txt
  4

  0
ENDTAB
  0
TABLE
  2
VIEW
 70
     0
  0
ENDTAB
  0
TABLE
  2
UCS
 70
     0
  0
ENDTAB
  0
TABLE
  2
APPID
 70
     9
  0
APPID
  2
ACAD
 70
     0
  0
APPID
  2
ACAD_MLEADERVER
 70
     0
  0
APPID
  2
ACAD_EXEMPT_FROM_CAD_STANDARDS
 70
     0
  0
APPID
  2
ACAD_NAV_VCDISPLAY
 70
     0
  0
APPID
  2
ACAECLAYERSTANDARD
 70
     0
  0
APPID
  2
ACCMTRANSPARENCY
 70
     0
  0
APPID
  2
ACAD_DSTYLE_DIMJAG
 70
     0
  0
APPID
  2
ACAD_DSTYLE_DIMTALN
 70
     0
  0
APPID
  2
ACDBATTR
 70
     0
  0
ENDTAB
  0
TABLE
  2
DIMSTYLE
 70
     1
  0
DIMSTYLE
  2
STANDARD
 70
     0
  3

  4

  5

  6

  7

 40
1.0
 41
0.1875
 42
0.0625
 43
0.38
 44
0.125
 45
0.0
 46
0.0
 47
0.01
 48
0.01
140
0.15625
141
0.09
142
0.0
143
25.3999999999999986
144
1.0
145
0.0
146
1.0
147
0.09
 71
     1
 72
     0
 73
     1
 74
     1
 75
     0
 76
     0
 77
     0
 78
     4
170
     0
171
     2
172
     0
173
     0
174
     0
175
     0
176
     0
177
     0
178
     0
  0
ENDTAB
  0
ENDSEC
  0
SECTION
  2
BLOCKS
  0
BLOCK
  8
0
  2
$MODEL_SPACE
 70
     0
 10
0.0
 20
0.0
 30
0.0
  3
$MODEL_SPACE
  1

  0
ENDBLK
  5
21
  8
0
  0
BLOCK
 67
     1
  8
0
  2
$PAPER_SPACE
 70
     0
 10
0.0
 20
0.0
 30
0.0
  3
$PAPER_SPACE
  1

  0
ENDBLK
  5
1D
 67
     1
  8
0
  0
BLOCK
  8
0
  2
_FILLED
 70
     0
 10
0.0
 20
0.0
 30
0.0
  3
_FILLED
  1

  0
SOLID
  5
8290
  8
0
  6
BYBLOCK
 62
     0
 10
0.0
 20
0.0
 30
0.0
 11
-1.0
 21
0.1666666667
 31
0.0
 12
-1.0
 22
-0.1666666667
 32
0.0
 13
-1.0
 23
-0.1666666667
 33
0.0
  0
ENDBLK
  5
8291
  8
0
  6
BYBLOCK
 62
     0
  0
ENDSEC
  0
SECTION
  2
ENTITIES
  0
ATTDEF
  5
3930
  8
DEFPOINTS
 10
4072.8602692158169702
 20
143.5695254579013067
 30
0.0
 40
0.001
  1
K-EX27055T
  3

  2
MODELNUMBER
 70
     0
1001
ACDBATTR
1070
     0
1070
     1
  0
ATTDEF
  5
3931
  8
DEFPOINTS
 10
4072.8602692158169702
 20
143.5678587912346984
 30
0.0
 40
0.001
  1
OCCASION
  3

  2
TRADENAME
 70
     0
1001
ACDBATTR
1070
     0
1070
     1
  0
ATTDEF
  5
3932
  8
DEFPOINTS
 10
4072.8602692158169702
 20
143.5661921245680048
 30
0.0
 40
0.001
  1
SLIDE BAR TRIM
  3

  2
PRODUCT
 70
     0
1001
ACDBATTR
1070
     0
1070
     1
  0
LINE
  5
82BF
  8
0
 10
4069.7611305578898282
 20
143.5648124396130072
 30
0.0
 11
4072.4332158601819174
 21
143.5648124396130072
 31
0.0
  0
LINE
  5
82C0
  8
0
 10
4071.0971732090361002
 20
143.5648124396130072
 30
0.0
 11
4071.0971732090361002
 21
143.2890834396129947
 31
0.0
  0
LINE
  5
82C1
  8
0
 10
4069.7411313171242
 20
143.5446381731626104
 30
0.0
 11
4069.742176448733062
 21
143.4246963333970086
 31
0.0
  0
ARC
  5
82C2
  8
0
 10
4069.7611305578898282
 20
143.544812439612997
 30
0.0
 40
0.02
 50
90.0
 51
180.4992429232156042
  0
LINE
  5
82C3
  8
0
 10
4069.8802410030730243
 20
143.2890834396129947
 30
0.0
 11
4072.3141054149978117
 21
143.2890834396129947
 31
0.0
  0
LINE
  5
82C4
  8
0
 10
4069.8465313726110253
 20
143.3029123873299966
 30
0.0
 11
4069.7558696399678411
 21
143.3923498877950067
 31
0.0
  0
ARC
  5
82C5
  8
0
 10
4069.8802410030730243
 20
143.3370834396129965
 30
0.0
 40
0.048
 50
225.3894644937543887
 51
270.0
  0
ARC
  5
82C6
  8
0
 10
4069.7881747024939614
 20
143.4250971462327868
 30
0.0
 40
0.046
 50
180.4992429232171958
 51
225.3894644937508929
  0
LINE
  5
82C7
  8
0
 10
4070.6366977520301589
 20
143.0923714396130038
 30
0.0
 11
4071.5576486660038427
 21
143.0923714396130038
 31
0.0
  0
ARC
  5
82C8
  8
0
 10
4070.4206482274457812
 20
143.0920834396247869
 30
0.0
 40
0.1969999999881922
 50
5.3645940492647757
 51
90.0000000028920937
  0
ARC
  5
82C9
  8
0
 10
4070.6366977520669934
 20
143.1123714397091078
 30
0.0
 40
0.0200000000961794
 50
185.3645943301301031
 51
269.9999998933824941
  0
LINE
  5
82CA
  8
0
 10
4072.4532151009480003
 20
143.5446381731626104
 30
0.0
 11
4072.4521699693391383
 21
143.4246963333970086
 31
0.0
  0
ARC
  5
82CB
  8
0
 10
4072.4332158601819174
 20
143.544812439612997
 30
0.0
 40
0.02
 50
359.5007570767843958
 51
90.0
  0
LINE
  5
82CC
  8
0
 10
4072.347815045461175
 20
143.3029123873299966
 30
0.0
 11
4072.4384767781039045
 21
143.3923498877950067
 31
0.0
  0
ARC
  5
82CD
  8
0
 10
4072.3141054149978117
 20
143.3370834396129965
 30
0.0
 40
0.048
 50
270.0
 51
314.6105355062455828
  0
ARC
  5
82CE
  8
0
 10
4072.4061717155777842
 20
143.4250971462327868
 30
0.0
 40
0.046
 50
314.6105355062489934
 51
359.5007570767826905
  0
ARC
  5
82CF
  8
0
 10
4071.7736981906259643
 20
143.0920834396247869
 30
0.0
 40
0.1969999999881922
 50
89.9999999971078637
 51
174.6354059507351906
  0
ARC
  5
82D0
  8
0
 10
4071.5576486660038427
 20
143.1123714397091078
 30
0.0
 40
0.0200000000961794
 50
270.0000001066175059
 51
354.6354056698697832
  0
LINE
  5
82D1
  8
0
 10
4069.7558696399678411
 20
143.3923498877950067
 30
0.0
 11
4072.4384767781039045
 21
143.3923498877950067
 31
0.0
  0
LINE
  5
82D2
  8
0
 10
4075.9765229467820973
 20
143.5648124396130072
 30
0.0
 11
4073.3044376444900081
 21
143.5648124396130072
 31
0.0
  0
LINE
  5
82D3
  8
0
 10
4074.6404802956358253
 20
143.5648124396130072
 30
0.0
 11
4074.6404802956358253
 21
143.2890834396129947
 31
0.0
  0
LINE
  5
82D4
  8
0
 10
4075.996522187546816
 20
143.5446381731626104
 30
0.0
 11
4075.9954770559388635
 21
143.4246963333970086
 31
0.0
  0
ARC
  5
82D5
  8
0
 10
4075.9765229467820973
 20
143.544812439612997
 30
0.0
 40
0.02
 50
359.5007570767843958
 51
90.0
  0
LINE
  5
82D6
  8
0
 10
4075.8574125015989011
 20
143.2890834396129947
 30
0.0
 11
4073.4235480896741137
 21
143.2890834396129947
 31
0.0
  0
LINE
  5
82D7
  8
0
 10
4075.8911221320599907
 20
143.3029123873299966
 30
0.0
 11
4075.9817838647040844
 21
143.3923498877950067
 31
0.0
  0
ARC
  5
82D8
  8
0
 10
4075.8574125015989011
 20
143.3370834396129965
 30
0.0
 40
0.048
 50
270.0
 51
314.6105355062455828
  0
ARC
  5
82D9
  8
0
 10
4075.9494788021779641
 20
143.4250971462327868
 30
0.0
 40
0.046
 50
314.6105355062489934
 51
359.5007570767826905
  0
LINE
  5
82DA
  8
0
 10
4075.1009557526408571
 20
143.0923714396130038
 30
0.0
 11
4074.1800048386680828
 21
143.0923714396130038
 31
0.0
  0
ARC
  5
82DB
  8
0
 10
4075.3170052772261442
 20
143.0920834396247869
 30
0.0
 40
0.1969999999881922
 50
89.9999999971078637
 51
174.6354059507351906
  0
ARC
  5
82DC
  8
0
 10
4075.1009557526049321
 20
143.1123714397091078
 30
0.0
 40
0.0200000000961794
 50
270.0000001066175059
 51
354.6354056698697832
  0
LINE
  5
82DD
  8
0
 10
4073.2844384037239251
 20
143.5446381731626104
 30
0.0
 11
4073.2854835353318776
 21
143.4246963333970086
 31
0.0
  0
ARC
  5
82DE
  8
0
 10
4073.3044376444900081
 20
143.544812439612997
 30
0.0
 40
0.02
 50
90.0
 51
180.4992429232156042
  0
LINE
  5
82DF
  8
0
 10
4073.3898384592112052
 20
143.3029123873299966
 30
0.0
 11
4073.299176726568021
 21
143.3923498877950067
 31
0.0
  0
ARC
  5
82E0
  8
0
 10
4073.4235480896741137
 20
143.3370834396129965
 30
0.0
 40
0.048
 50
225.3894644937543887
 51
270.0
  0
ARC
  5
82E1
  8
0
 10
4073.3314817890941413
 20
143.4250971462327868
 30
0.0
 40
0.046
 50
180.4992429232171958
 51
225.3894644937508929
  0
ARC
  5
82E2
  8
0
 10
4073.9639553140459611
 20
143.0920834396247869
 30
0.0
 40
0.1969999999881922
 50
5.3645940492647757
 51
90.0000000028920937
  0
ARC
  5
82E3
  8
0
 10
4074.1800048386680828
 20
143.1123714397091078
 30
0.0
 40
0.0200000000961794
 50
185.3645943301301031
 51
269.9999998933824941
  0
LINE
  5
82E4
  8
0
 10
4075.9817838647040844
 20
143.3923498877950067
 30
0.0
 11
4073.299176726568021
 21
143.3923498877950067
 31
0.0
  0
ENDSEC
  0
EOF
