  0
SECTION
  2
HEADER
  9
$ACADVER
  1
AC1009
  9
$INSBASE
 10
4768.9040837733136868
 20
240.8298618510328026
 30
0.0
  9
$EXTMIN
 10
4758.4241418908650303
 20
239.6657274352753006
 30
-0.0015258207003583
  9
$EXTMAX
 10
4779.2071022793334123
 20
241.9919335985252076
 30
0.0000000349246037
  9
$LIMMIN
 10
0.0
 20
0.0
  9
$LIMMAX
 10
11.6929133858000007
 20
8.2677165353999982
  9
$ORTHOMODE
 70
     1
  9
$REGENMODE
 70
     1
  9
$FILLMODE
 70
     1
  9
$QTEXTMODE
 70
     0
  9
$MIRRTEXT
 70
     0
  9
$DRAGMODE
 70
     2
  9
$LTSCALE
 40
0.6431102362
  9
$OSMODE
 70
  4095
  9
$ATTMODE
 70
     1
  9
$TEXTSIZE
 40
0.2
  9
$TRACEWID
 40
0.05
  9
$TEXTSTYLE
  7
STANDARD
  9
$CLAYER
  8
0
  9
$CELTYPE
  6
BYLAYER
  9
$CECOLOR
 62
   256
  9
$DIMSCALE
 40
1.0
  9
$DIMASZ
 40
0.1875
  9
$DIMEXO
 40
0.0625
  9
$DIMDLI
 40
0.4443307087
  9
$DIMRND
 40
0.0
  9
$DIMDLE
 40
0.0
  9
$DIMEXE
 40
0.125
  9
$DIMTP
 40
0.01
  9
$DIMTM
 40
0.01
  9
$DIMTXT
 40
2.0
  9
$DIMCEN
 40
0.1052362205
  9
$DIMTSZ
 40
0.0
  9
$DIMTOL
 70
     1
  9
$DIMLIM
 70
     0
  9
$DIMTIH
 70
     1
  9
$DIMTOH
 70
     1
  9
$DIMSE1
 70
     0
  9
$DIMSE2
 70
     0
  9
$DIMTAD
 70
     0
  9
$DIMZIN
 70
     0
  9
$DIMBLK
  1

  9
$DIMASO
 70
     1
  9
$DIMSHO
 70
     1
  9
$DIMPOST
  1
\X
  9
$DIMAPOST
  1

  9
$DIMALT
 70
     1
  9
$DIMALTD
 70
     2
  9
$DIMALTF
 40
25.3999999999999986
  9
$DIMLFAC
 40
1.0
  9
$DIMTOFL
 70
     0
  9
$DIMTVP
 40
0.0
  9
$DIMTIX
 70
     0
  9
$DIMSOXD
 70
     0
  9
$DIMSAH
 70
     0
  9
$DIMBLK1
  1

  9
$DIMBLK2
  1

  9
$DIMSTYLE
  2
STANDARD
  9
$DIMCLRD
 70
     0
  9
$DIMCLRE
 70
     0
  9
$DIMCLRT
 70
     0
  9
$DIMTFAC
 40
1.0
  9
$DIMGAP
 40
0.09
  9
$LUNITS
 70
     2
  9
$LUPREC
 70
     4
  9
$SKETCHINC
 40
0.1
  9
$FILLETRAD
 40
0.0
  9
$AUNITS
 70
     0
  9
$AUPREC
 70
     0
  9
$MENU
  1
.
  9
$ELEVATION
 40
0.0
  9
$PELEVATION
 40
0.0
  9
$THICKNESS
 40
0.0
  9
$LIMCHECK
 70
     0
  9
$BLIPMODE
 70
     0
  9
$CHAMFERA
 40
0.0
  9
$CHAMFERB
 40
0.0
  9
$SKPOLY
 70
     0
  9
$TDCREATE
 40
2458060.468368056230247
  9
$TDUPDATE
 40
2460272.61664351914078
  9
$TDINDWG
 40
0.3547640046
  9
$TDUSRTIMER
 40
0.3547640046
  9
$USRTIMER
 70
     1
  9
$ANGBASE
 50
0.0
  9
$ANGDIR
 70
     0
  9
$PDMODE
 70
     0
  9
$PDSIZE
 40
0.3125
  9
$PLINEWID
 40
0.0
  9
$COORDS
 70
     1
  9
$SPLFRAME
 70
     0
  9
$SPLINETYPE
 70
     6
  9
$SPLINESEGS
 70
     8
  9
$ATTDIA
 70
     1
  9
$ATTREQ
 70
     1
  9
$HANDLING
 70
     1
  9
$HANDSEED
  5
CAC5
  9
$SURFTAB1
 70
     6
  9
$SURFTAB2
 70
     6
  9
$SURFTYPE
 70
     6
  9
$SURFU
 70
     6
  9
$SURFV
 70
     6
  9
$UCSNAME
  2

  9
$UCSORG
 10
0.0
 20
0.0
 30
0.0
  9
$UCSXDIR
 10
1.0
 20
0.0
 30
0.0
  9
$UCSYDIR
 10
0.0
 20
1.0
 30
0.0
  9
$PUCSNAME
  2

  9
$PUCSORG
 10
0.0
 20
0.0
 30
0.0
  9
$PUCSXDIR
 10
1.0
 20
0.0
 30
0.0
  9
$PUCSYDIR
 10
0.0
 20
1.0
 30
0.0
  9
$USERI1
 70
     0
  9
$USERI2
 70
     0
  9
$USERI3
 70
     0
  9
$USERI4
 70
     0
  9
$USERI5
 70
     0
  9
$USERR1
 40
0.0
  9
$USERR2
 40
0.0
  9
$USERR3
 40
0.0
  9
$USERR4
 40
0.0
  9
$USERR5
 40
0.0
  9
$WORLDVIEW
 70
     1
  9
$SHADEDGE
 70
     3
  9
$SHADEDIF
 70
    70
  9
$TILEMODE
 70
     1
  9
$MAXACTVP
 70
    64
  9
$PLIMCHECK
 70
     0
  9
$PEXTMIN
 10
1.0000000000000000E+20
 20
1.0000000000000000E+20
 30
1.0000000000000000E+20
  9
$PEXTMAX
 10
-1.0000000000000000E+20
 20
-1.0000000000000000E+20
 30
-1.0000000000000000E+20
  9
$PLIMMIN
 10
0.0
 20
0.0
  9
$PLIMMAX
 10
12.0
 20
9.0
  9
$UNITMODE
 70
     0
  9
$VISRETAIN
 70
     1
  9
$PLINEGEN
 70
     0
  9
$PSLTSCALE
 70
     1
  0
ENDSEC
  0
SECTION
  2
TABLES
  0
TABLE
  2
VPORT
 70
     1
  0
VPORT
  2
*ACTIVE
 70
     0
 10
0.0
 20
0.0
 11
1.0
 21
1.0
 12
-0.0884306492753258
 22
-0.0010263556583254
 13
0.0
 23
0.0
 14
1.0
 24
1.0
 15
0.0
 25
0.0
 16
0.0
 26
0.0
 36
58.3410171847759429
 17
4768.904052734375
 27
240.8298568725585938
 37
0.0
 40
8.520617113535458
 41
2.4474358974358972
 42
50.0
 43
0.0
 44
0.0
 50
0.0
 51
0.0
 71
     0
 72
   100
 73
     1
 74
     1
 75
     0
 76
     0
 77
     0
 78
     0
  0
ENDTAB
  0
TABLE
  2
LTYPE
 70
     2
  0
LTYPE
  2
CONTINUOUS
 70
     0
  3
Solid line
 72
    65
 73
     0
 40
0.0
  0
LTYPE
  2
PHANTOM2
 70
     0
  3
___ _ _ ___ _ _ ___ _ _ ___ _ _
 72
    65
 73
     6
 40
1.25
 49
0.625
 49
-0.125
 49
0.125
 49
-0.125
 49
0.125
 49
-0.125
  0
ENDTAB
  0
TABLE
  2
LAYER
 70
     2
  0
LAYER
  2
0
 70
     0
 62
   255
  6
CONTINUOUS
  0
LAYER
  2
DEFPOINTS
 70
     0
 62
     7
  6
CONTINUOUS
  0
ENDTAB
  0
TABLE
  2
STYLE
 70
     1
  0
STYLE
  2
STANDARD
 70
     0
 40
0.0
 41
0.8
 50
0.0
 71
     0
 42
0.2
  3
txt
  4

  0
ENDTAB
  0
TABLE
  2
VIEW
 70
     0
  0
ENDTAB
  0
TABLE
  2
UCS
 70
     0
  0
ENDTAB
  0
TABLE
  2
APPID
 70
     9
  0
APPID
  2
ACAD
 70
     0
  0
APPID
  2
ACAD_MLEADERVER
 70
     0
  0
APPID
  2
ACAD_EXEMPT_FROM_CAD_STANDARDS
 70
     0
  0
APPID
  2
ACAD_NAV_VCDISPLAY
 70
     0
  0
APPID
  2
ACAECLAYERSTANDARD
 70
     0
  0
APPID
  2
ACCMTRANSPARENCY
 70
     0
  0
APPID
  2
ACAD_DSTYLE_DIMJAG
 70
     0
  0
APPID
  2
ACAD_DSTYLE_DIMTALN
 70
     0
  0
APPID
  2
ACDBATTR
 70
     0
  0
ENDTAB
  0
TABLE
  2
DIMSTYLE
 70
     1
  0
DIMSTYLE
  2
STANDARD
 70
     0
  3

  4

  5

  6

  7

 40
1.0
 41
0.1875
 42
0.0625
 43
0.38
 44
0.125
 45
0.0
 46
0.0
 47
0.01
 48
0.01
140
0.15625
141
0.09
142
0.0
143
25.3999999999999986
144
1.0
145
0.0
146
1.0
147
0.09
 71
     1
 72
     0
 73
     1
 74
     1
 75
     0
 76
     0
 77
     0
 78
     4
170
     0
171
     2
172
     0
173
     0
174
     0
175
     0
176
     0
177
     0
178
     0
  0
ENDTAB
  0
ENDSEC
  0
SECTION
  2
BLOCKS
  0
BLOCK
  8
0
  2
$MODEL_SPACE
 70
     0
 10
0.0
 20
0.0
 30
0.0
  3
$MODEL_SPACE
  1

  0
ENDBLK
  5
21
  8
0
  0
BLOCK
 67
     1
  8
0
  2
$PAPER_SPACE
 70
     0
 10
0.0
 20
0.0
 30
0.0
  3
$PAPER_SPACE
  1

  0
ENDBLK
  5
1D
 67
     1
  8
0
  0
ENDSEC
  0
SECTION
  2
ENTITIES
  0
ATTDEF
  5
3930
  8
DEFPOINTS
 10
4768.8989699521689545
 20
240.8278592920700873
 30
0.0
 40
0.001
  1
K-EX27060T
  3

  2
MODELNUMBER
 70
     0
1001
ACDBATTR
1070
     0
1070
     1
  0
ATTDEF
  5
3931
  8
DEFPOINTS
 10
4768.8989699521689545
 20
240.8261926254033938
 30
0.0
 40
0.001
  1
OCCASION
  3

  2
TRADENAME
 70
     0
1001
ACDBATTR
1070
     0
1070
     1
  0
ATTDEF
  5
3932
  8
DEFPOINTS
 10
4768.8989699521689545
 20
240.8245259587368139
 30
0.0
 40
0.001
  1
TOWEL BAR
  3

  2
PRODUCT
 70
     0
1001
ACDBATTR
1070
     0
1070
     1
  0
LINE
  5
C8C6
  8
0
 10
4759.456583773316197
 20
241.1562809375222969
 30
0.0
 11
4759.456583773316197
 21
240.3833705907223077
 31
0.0
  0
LINE
  5
C8C7
  8
0
 10
4760.3515837733148146
 20
240.3833704072222872
 30
0.0
 11
4760.3515837733148146
 21
241.1562811210222037
 31
0.0
  0
LINE
  5
C8C8
  8
0
 10
4761.0597857417151317
 20
241.0823259397222103
 30
0.0
 11
4761.0612457776142037
 21
241.129411246222304
 31
0.0
  0
LINE
  5
C8C9
  8
0
 10
4759.5040254997138618
 20
241.2203696817223033
 30
0.0
 11
4759.4677805169139901
 21
241.183630008222309
 31
0.0
  0
LINE
  5
C8CA
  8
0
 10
4760.3515837733148146
 20
241.0823259397222103
 30
0.0
 11
4777.4565837733152875
 21
241.0823259397222103
 31
0.0
  0
LINE
  5
C8CB
  8
0
 10
4759.5319013216139865
 20
241.2320078181222982
 30
0.0
 11
4760.2762662192153584
 21
241.2320078181222982
 31
0.0
  0
ARC
  5
C8CC
  8
0
 10
4761.0202953117795914
 20
241.1325050391145908
 30
0.0
 40
0.0410671670137294
 50
355.6795321401071988
 51
40.3206380184305928
  0
ARC
  5
C8CD
  8
0
 10
4759.1460719721599162
 20
239.7265123139802938
 30
0.0
 40
2.383968580997391
 50
36.9355585429599031
 51
71.0643874794961619
  0
ARC
  5
C8CE
  8
0
 10
4759.9040877769439248
 20
241.9435101544227962
 30
0.0
 40
0.0410380983233764
 50
67.6657185559535748
 51
112.3447107604655031
  0
ARC
  5
C8CF
  8
0
 10
4760.6595172469369572
 20
239.7300522718294928
 30
0.0
 40
2.3797808186616511
 50
108.9045500487403046
 51
143.095263006745796
  0
ARC
  5
C8D0
  8
0
 10
4758.8076697533897459
 20
241.1260724070799029
 30
0.0
 40
0.0608396680804154
 50
147.1457725850916916
 51
176.8540919250019101
  0
ARC
  5
C8D1
  8
0
 10
4761.1243495724056629
 20
241.1663138317254891
 30
0.0
 40
2.377714188198651
 50
180.8892779657599021
 51
215.1107458308592868
  0
ARC
  5
C8D2
  8
0
 10
4759.2140849038451051
 20
239.8201249374207009
 30
0.0
 40
0.0408441421604145
 50
211.5544207665404883
 51
256.449014567502104
  0
ARC
  5
C8D3
  8
0
 10
4759.9040797471016049
 20
242.0528642538886004
 30
0.0
 40
2.3776888045690812
 50
252.8891922170062969
 51
287.1110002516761028
  0
ARC
  5
C8D4
  8
0
 10
4760.5939580655813188
 20
239.8202923237803077
 30
0.0
 40
0.0410337578256012
 50
283.6655278909615845
 51
328.338432225076815
  0
ARC
  5
C8D5
  8
0
 10
4758.6802474646137853
 20
241.1670159067120096
 30
0.0
 40
2.3810350345814228
 50
324.9248614832221733
 51
342.6589053865122878
  0
ARC
  5
C8D6
  8
0
 10
4759.5039053725449776
 20
241.1528739316080134
 30
0.0
 40
0.0474440875452746
 50
139.5895023051706971
 51
175.8819900484868981
  0
ARC
  5
C8D7
  8
0
 10
4759.5339506909258489
 20
241.1878957997529085
 30
0.0
 40
0.0441595978150624
 50
92.6599517972684623
 51
132.6610534436281057
  0
LINE
  5
C8D8
  8
0
 10
4760.3041420411136642
 20
241.2203696817223033
 30
0.0
 11
4760.3403870239153548
 21
241.183630008222309
 31
0.0
  0
ARC
  5
C8D9
  8
0
 10
4760.306799654180395
 20
241.1539127561057967
 30
0.0
 40
0.0448466997563715
 50
3.0272120120623081
 51
41.501586035453542
  0
ARC
  5
C8DA
  8
0
 10
4760.2746507679739807
 20
241.1889351261897048
 30
0.0
 40
0.043102975222476
 50
46.8268794550393821
 51
87.8521153040647818
  0
LINE
  5
C8DB
  8
0
 10
4759.5040254997138618
 20
241.2203696817225023
 30
0.0
 11
4759.5040254997138618
 21
240.3192818465221023
 31
0.0
  0
LINE
  5
C8DC
  8
0
 10
4760.3041420411136642
 20
241.2203696817223033
 30
0.0
 11
4760.3041420411136642
 21
240.3192818465223013
 31
0.0
  0
LINE
  5
C8DD
  8
0
 10
4759.5040254997138618
 20
240.3192818465223013
 30
0.0
 11
4759.4677805169139901
 21
240.3560215200222956
 31
0.0
  0
LINE
  5
C8DE
  8
0
 10
4760.3515837733148146
 20
240.4573255885223091
 30
0.0
 11
4777.4565837733152875
 21
240.4573255885223091
 31
0.0
  0
LINE
  5
C8DF
  8
0
 10
4759.5319013216139865
 20
240.3076437101223064
 30
0.0
 11
4760.2762662192153584
 21
240.3076437101223064
 31
0.0
  0
ARC
  5
C8E0
  8
0
 10
4759.5039053725449776
 20
240.3867775966365059
 30
0.0
 40
0.0474440875452746
 50
184.1180099515131019
 51
220.4104976948291892
  0
ARC
  5
C8E1
  8
0
 10
4759.5339506909258489
 20
240.3517557284916109
 30
0.0
 40
0.0441595978150624
 50
227.3389465563718943
 51
267.340048202731623
  0
LINE
  5
C8E2
  8
0
 10
4760.3041420411136642
 20
240.3192818465223013
 30
0.0
 11
4760.3403870239153548
 21
240.3560215200222956
 31
0.0
  0
ARC
  5
C8E3
  8
0
 10
4760.306799654180395
 20
240.3857387721386942
 30
0.0
 40
0.0448466997563715
 50
318.4984139645465007
 51
356.9727879879376928
  0
ARC
  5
C8E4
  8
0
 10
4760.2746507679739807
 20
240.3507164020547862
 30
0.0
 40
0.043102975222476
 50
272.1478846959353177
 51
313.173120544960625
  0
LINE
  5
C8E5
  8
0
 10
4759.9040837704151272
 20
241.98454825255061
 30
0.0
 11
4759.9040837704151272
 21
241.2320078181222982
 31
0.0
  0
LINE
  5
C8E6
  8
0
 10
4758.749807812842846
 20
241.1448729668632893
 30
0.0
 11
4759.456583773316197
 21
240.9151293368448137
 31
0.0
  0
LINE
  5
C8E7
  8
0
 10
4759.190078310064564
 20
239.7870806125849867
 30
0.0
 11
4759.5687403482270383
 21
240.3076437101223064
 31
0.0
  0
LINE
  5
C8E8
  8
0
 10
4760.6180782505016396
 20
239.7870961498948077
 30
0.0
 11
4760.2409814017682947
 21
240.3076437101223064
 31
0.0
  0
LINE
  5
C8E9
  8
0
 10
4761.0593524897303723
 20
241.1451955496293067
 30
0.0
 11
4760.8727741752991278
 21
241.0823259397222103
 31
0.0
  0
LINE
  5
C8EA
  8
0
 10
4778.3515837733139051
 20
241.1562809375222969
 30
0.0
 11
4778.3515837733139051
 21
240.3833705907223077
 31
0.0
  0
LINE
  5
C8EB
  8
0
 10
4777.4565837733152875
 20
240.3833704072222872
 30
0.0
 11
4777.4565837733152875
 21
241.1562811210222037
 31
0.0
  0
LINE
  5
C8EC
  8
0
 10
4776.7483818049149704
 20
241.0823259397222103
 30
0.0
 11
4776.746921769014989
 21
241.129411246222304
 31
0.0
  0
LINE
  5
C8ED
  8
0
 10
4778.3041420469153309
 20
241.2203696817223033
 30
0.0
 11
4778.340387029714293
 21
241.183630008222309
 31
0.0
  0
LINE
  5
C8EE
  8
0
 10
4778.2762662250152061
 20
241.2320078181222982
 30
0.0
 11
4777.5319013274147437
 21
241.2320078181222982
 31
0.0
  0
ARC
  5
C8EF
  8
0
 10
4776.7878722348496012
 20
241.1325050391145908
 30
0.0
 40
0.0410671670137294
 50
139.6793619815694001
 51
184.3204678598928012
  0
ARC
  5
C8F0
  8
0
 10
4778.6620955744692765
 20
239.7265123139802938
 30
0.0
 40
2.383968580997391
 50
108.9356125205037955
 51
143.0644414570400897
  0
ARC
  5
C8F1
  8
0
 10
4777.9040797696852678
 20
241.9435101544227962
 30
0.0
 40
0.0410380983233764
 50
67.6552892395344827
 51
112.3342814440463968
  0
ARC
  5
C8F2
  8
0
 10
4777.1486502996922354
 20
239.7300522718294928
 30
0.0
 40
2.3797808186616511
 50
36.9047369932541969
 51
71.0954499512596811
  0
ARC
  5
C8F3
  8
0
 10
4779.0004977932403563
 20
241.1260724070799029
 30
0.0
 40
0.0608396680804154
 50
3.145908074998033
 51
32.8542274149082587
  0
ARC
  5
C8F4
  8
0
 10
4776.6838179742226203
 20
241.1663138317254891
 30
0.0
 40
2.377714188198651
 50
324.8892541691407132
 51
359.1107220342400979
  0
ARC
  5
C8F5
  8
0
 10
4778.594082642783178
 20
239.8201249374207009
 30
0.0
 40
0.0408441421604145
 50
283.5509854324980097
 51
328.4455792334595117
  0
ARC
  5
C8F6
  8
0
 10
4777.9040877995275878
 20
242.0528642538886004
 30
0.0
 40
2.3776888045690812
 50
252.8889997483238972
 51
287.1108077829936747
  0
ARC
  5
C8F7
  8
0
 10
4777.2142094810487833
 20
239.8202923237803077
 30
0.0
 40
0.0410337578256012
 50
211.6615677749232987
 51
256.3344721090384155
  0
ARC
  5
C8F8
  8
0
 10
4779.1279200820163169
 20
241.1670159067120096
 30
0.0
 40
2.3810350345814228
 50
197.3410946134875985
 51
215.0751385167777983
  0
ARC
  5
C8F9
  8
0
 10
4778.3042621740851246
 20
241.1528739316080134
 30
0.0
 40
0.0474440875452746
 50
4.1180099515130832
 51
40.4104976948292389
  0
ARC
  5
C8FA
  8
0
 10
4778.2742168557033438
 20
241.1878957997529085
 30
0.0
 40
0.0441595978150624
 50
47.3389465563719014
 51
87.3400482027315377
  0
LINE
  5
C8FB
  8
0
 10
4777.5040255055137095
 20
241.2203696817223033
 30
0.0
 11
4777.4677805227147473
 21
241.183630008222309
 31
0.0
  0
ARC
  5
C8FC
  8
0
 10
4777.5013678924487976
 20
241.1539127561057967
 30
0.0
 40
0.0448466997563715
 50
138.498413964546387
 51
176.9727879879376928
  0
ARC
  5
C8FD
  8
0
 10
4777.5335167786561215
 20
241.1889351261897048
 30
0.0
 40
0.043102975222476
 50
92.147884695935204
 51
133.1731205449605966
  0
LINE
  5
C8FE
  8
0
 10
4778.3041420469153309
 20
241.2203696817225023
 30
0.0
 11
4778.3041420469153309
 21
240.3192818465221023
 31
0.0
  0
LINE
  5
C8FF
  8
0
 10
4777.5040255055137095
 20
241.2203696817223033
 30
0.0
 11
4777.5040255055137095
 21
240.3192818465223013
 31
0.0
  0
LINE
  5
C900
  8
0
 10
4778.3041420469153309
 20
240.3192818465223013
 30
0.0
 11
4778.340387029714293
 21
240.3560215200222956
 31
0.0
  0
LINE
  5
C901
  8
0
 10
4778.2762662250152061
 20
240.3076437101223064
 30
0.0
 11
4777.5319013274147437
 21
240.3076437101223064
 31
0.0
  0
ARC
  5
C902
  8
0
 10
4778.3042621740851246
 20
240.3867775966365059
 30
0.0
 40
0.0474440875452746
 50
319.5895023051708108
 51
355.8819900484868981
  0
ARC
  5
C903
  8
0
 10
4778.2742168557033438
 20
240.3517557284916109
 30
0.0
 40
0.0441595978150624
 50
272.659951797268377
 51
312.6610534436280773
  0
LINE
  5
C904
  8
0
 10
4777.5040255055137095
 20
240.3192818465223013
 30
0.0
 11
4777.4677805227147473
 21
240.3560215200222956
 31
0.0
  0
ARC
  5
C905
  8
0
 10
4777.5013678924487976
 20
240.3857387721386942
 30
0.0
 40
0.0448466997563715
 50
183.0272120120623072
 51
221.5015860354534993
  0
ARC
  5
C906
  8
0
 10
4777.5335167786561215
 20
240.3507164020547862
 30
0.0
 40
0.043102975222476
 50
226.8268794550014036
 51
267.852115304064796
  0
LINE
  5
C907
  8
0
 10
4777.9040837762149749
 20
241.98454825255061
 30
0.0
 11
4777.9040837762149749
 21
241.2320078181222982
 31
0.0
  0
LINE
  5
C908
  8
0
 10
4779.0583597337872561
 20
241.1448729668632893
 30
0.0
 11
4778.3515837733139051
 21
240.9151293368448137
 31
0.0
  0
LINE
  5
C909
  8
0
 10
4778.6180892365646287
 20
239.7870806125849867
 30
0.0
 11
4778.2394271984012448
 21
240.3076437101223064
 31
0.0
  0
LINE
  5
C90A
  8
0
 10
4777.1900892961266436
 20
239.7870961498948077
 30
0.0
 11
4777.5671861448618074
 21
240.3076437101223064
 31
0.0
  0
LINE
  5
C90B
  8
0
 10
4776.7488150568997298
 20
241.1451955496293067
 30
0.0
 11
4776.9353933713300648
 21
241.0823259397222103
 31
0.0
  0
LINE
  5
C9F9
  8
0
 10
4778.3515837733148146
 20
240.7698259213179881
 30
0.0
 11
4777.4565837733152875
 21
240.7698259213179881
 31
0.0
  0
LINE
  5
C9FA
  8
0
 10
4760.3515837733148146
 20
240.7698259213179881
 30
0.0
 11
4759.456583773316197
 21
240.7698259213179881
 31
0.0
  0
ENDSEC
  0
EOF
