  0
SECTION
  2
HEADER
  9
$ACADVER
  1
AC1009
  9
$INSBASE
 10
4820.5787000387972512
 20
240.8166507627950921
 30
0.0
  9
$EXTMIN
 10
4807.3308886802988127
 20
237.3197193392144015
 30
-0.0015258207003583
  9
$EXTMAX
 10
4833.8833872089908255
 20
240.8290068193163052
 30
0.0000000349246037
  9
$LIMMIN
 10
0.0
 20
0.0
  9
$LIMMAX
 10
11.6929133858000007
 20
8.2677165353999982
  9
$ORTHOMODE
 70
     1
  9
$REGENMODE
 70
     1
  9
$FILLMODE
 70
     1
  9
$QTEXTMODE
 70
     0
  9
$MIRRTEXT
 70
     0
  9
$DRAGMODE
 70
     2
  9
$LTSCALE
 40
0.6431102362
  9
$OSMODE
 70
  4095
  9
$ATTMODE
 70
     1
  9
$TEXTSIZE
 40
0.2
  9
$TRACEWID
 40
0.05
  9
$TEXTSTYLE
  7
STANDARD
  9
$CLAYER
  8
0
  9
$CELTYPE
  6
BYLAYER
  9
$CECOLOR
 62
   256
  9
$DIMSCALE
 40
1.0
  9
$DIMASZ
 40
0.1875
  9
$DIMEXO
 40
0.0625
  9
$DIMDLI
 40
0.4443307087
  9
$DIMRND
 40
0.0
  9
$DIMDLE
 40
0.0
  9
$DIMEXE
 40
0.125
  9
$DIMTP
 40
0.01
  9
$DIMTM
 40
0.01
  9
$DIMTXT
 40
2.0
  9
$DIMCEN
 40
0.1052362205
  9
$DIMTSZ
 40
0.0
  9
$DIMTOL
 70
     1
  9
$DIMLIM
 70
     0
  9
$DIMTIH
 70
     1
  9
$DIMTOH
 70
     1
  9
$DIMSE1
 70
     0
  9
$DIMSE2
 70
     0
  9
$DIMTAD
 70
     0
  9
$DIMZIN
 70
     0
  9
$DIMBLK
  1

  9
$DIMASO
 70
     1
  9
$DIMSHO
 70
     1
  9
$DIMPOST
  1
\X
  9
$DIMAPOST
  1

  9
$DIMALT
 70
     1
  9
$DIMALTD
 70
     2
  9
$DIMALTF
 40
25.3999999999999986
  9
$DIMLFAC
 40
1.0
  9
$DIMTOFL
 70
     0
  9
$DIMTVP
 40
0.0
  9
$DIMTIX
 70
     0
  9
$DIMSOXD
 70
     0
  9
$DIMSAH
 70
     0
  9
$DIMBLK1
  1

  9
$DIMBLK2
  1

  9
$DIMSTYLE
  2
STANDARD
  9
$DIMCLRD
 70
     0
  9
$DIMCLRE
 70
     0
  9
$DIMCLRT
 70
     0
  9
$DIMTFAC
 40
1.0
  9
$DIMGAP
 40
0.09
  9
$LUNITS
 70
     2
  9
$LUPREC
 70
     4
  9
$SKETCHINC
 40
0.1
  9
$FILLETRAD
 40
0.0
  9
$AUNITS
 70
     0
  9
$AUPREC
 70
     0
  9
$MENU
  1
.
  9
$ELEVATION
 40
0.0
  9
$PELEVATION
 40
0.0
  9
$THICKNESS
 40
0.0
  9
$LIMCHECK
 70
     0
  9
$BLIPMODE
 70
     0
  9
$CHAMFERA
 40
0.0
  9
$CHAMFERB
 40
0.0
  9
$SKPOLY
 70
     0
  9
$TDCREATE
 40
2458060.468368056230247
  9
$TDUPDATE
 40
2460272.6220833328552544
  9
$TDINDWG
 40
0.3564422454
  9
$TDUSRTIMER
 40
0.3564422454
  9
$USRTIMER
 70
     1
  9
$ANGBASE
 50
0.0
  9
$ANGDIR
 70
     0
  9
$PDMODE
 70
     0
  9
$PDSIZE
 40
0.3125
  9
$PLINEWID
 40
0.0
  9
$COORDS
 70
     1
  9
$SPLFRAME
 70
     0
  9
$SPLINETYPE
 70
     6
  9
$SPLINESEGS
 70
     8
  9
$ATTDIA
 70
     1
  9
$ATTREQ
 70
     1
  9
$HANDLING
 70
     1
  9
$HANDSEED
  5
CC8F
  9
$SURFTAB1
 70
     6
  9
$SURFTAB2
 70
     6
  9
$SURFTYPE
 70
     6
  9
$SURFU
 70
     6
  9
$SURFV
 70
     6
  9
$UCSNAME
  2

  9
$UCSORG
 10
0.0
 20
0.0
 30
0.0
  9
$UCSXDIR
 10
1.0
 20
0.0
 30
0.0
  9
$UCSYDIR
 10
0.0
 20
1.0
 30
0.0
  9
$PUCSNAME
  2

  9
$PUCSORG
 10
0.0
 20
0.0
 30
0.0
  9
$PUCSXDIR
 10
1.0
 20
0.0
 30
0.0
  9
$PUCSYDIR
 10
0.0
 20
1.0
 30
0.0
  9
$USERI1
 70
     0
  9
$USERI2
 70
     0
  9
$USERI3
 70
     0
  9
$USERI4
 70
     0
  9
$USERI5
 70
     0
  9
$USERR1
 40
0.0
  9
$USERR2
 40
0.0
  9
$USERR3
 40
0.0
  9
$USERR4
 40
0.0
  9
$USERR5
 40
0.0
  9
$WORLDVIEW
 70
     1
  9
$SHADEDGE
 70
     3
  9
$SHADEDIF
 70
    70
  9
$TILEMODE
 70
     1
  9
$MAXACTVP
 70
    64
  9
$PLIMCHECK
 70
     0
  9
$PEXTMIN
 10
1.0000000000000000E+20
 20
1.0000000000000000E+20
 30
1.0000000000000000E+20
  9
$PEXTMAX
 10
-1.0000000000000000E+20
 20
-1.0000000000000000E+20
 30
-1.0000000000000000E+20
  9
$PLIMMIN
 10
0.0
 20
0.0
  9
$PLIMMAX
 10
12.0
 20
9.0
  9
$UNITMODE
 70
     0
  9
$VISRETAIN
 70
     1
  9
$PLINEGEN
 70
     0
  9
$PSLTSCALE
 70
     1
  0
ENDSEC
  0
SECTION
  2
TABLES
  0
TABLE
  2
VPORT
 70
     1
  0
VPORT
  2
*ACTIVE
 70
     0
 10
0.0
 20
0.0
 11
1.0
 21
1.0
 12
0.0285246633948191
 22
-0.0033507791463876
 13
0.0
 23
0.0
 14
1.0
 24
1.0
 15
0.0
 25
0.0
 16
0.0
 26
0.0
 36
75.7472808392681713
 17
4820.57861328125
 27
239.0777138584116983
 37
0.0
 40
10.8898786959949501
 41
2.4474358974358972
 42
50.0
 43
0.0
 44
0.0
 50
0.0
 51
0.0
 71
     0
 72
   100
 73
     1
 74
     1
 75
     0
 76
     0
 77
     0
 78
     0
  0
ENDTAB
  0
TABLE
  2
LTYPE
 70
     2
  0
LTYPE
  2
CONTINUOUS
 70
     0
  3
Solid line
 72
    65
 73
     0
 40
0.0
  0
LTYPE
  2
PHANTOM2
 70
     0
  3
___ _ _ ___ _ _ ___ _ _ ___ _ _
 72
    65
 73
     6
 40
1.25
 49
0.625
 49
-0.125
 49
0.125
 49
-0.125
 49
0.125
 49
-0.125
  0
ENDTAB
  0
TABLE
  2
LAYER
 70
     2
  0
LAYER
  2
0
 70
     0
 62
   255
  6
CONTINUOUS
  0
LAYER
  2
DEFPOINTS
 70
     0
 62
     7
  6
CONTINUOUS
  0
ENDTAB
  0
TABLE
  2
STYLE
 70
     1
  0
STYLE
  2
STANDARD
 70
     0
 40
0.0
 41
0.8
 50
0.0
 71
     0
 42
0.2
  3
txt
  4

  0
ENDTAB
  0
TABLE
  2
VIEW
 70
     0
  0
ENDTAB
  0
TABLE
  2
UCS
 70
     0
  0
ENDTAB
  0
TABLE
  2
APPID
 70
     9
  0
APPID
  2
ACAD
 70
     0
  0
APPID
  2
ACAD_MLEADERVER
 70
     0
  0
APPID
  2
ACAD_EXEMPT_FROM_CAD_STANDARDS
 70
     0
  0
APPID
  2
ACAD_NAV_VCDISPLAY
 70
     0
  0
APPID
  2
ACAECLAYERSTANDARD
 70
     0
  0
APPID
  2
ACCMTRANSPARENCY
 70
     0
  0
APPID
  2
ACAD_DSTYLE_DIMJAG
 70
     0
  0
APPID
  2
ACAD_DSTYLE_DIMTALN
 70
     0
  0
APPID
  2
ACDBATTR
 70
     0
  0
ENDTAB
  0
TABLE
  2
DIMSTYLE
 70
     1
  0
DIMSTYLE
  2
STANDARD
 70
     0
  3

  4

  5

  6

  7

 40
1.0
 41
0.1875
 42
0.0625
 43
0.38
 44
0.125
 45
0.0
 46
0.0
 47
0.01
 48
0.01
140
0.15625
141
0.09
142
0.0
143
25.3999999999999986
144
1.0
145
0.0
146
1.0
147
0.09
 71
     1
 72
     0
 73
     1
 74
     1
 75
     0
 76
     0
 77
     0
 78
     4
170
     0
171
     2
172
     0
173
     0
174
     0
175
     0
176
     0
177
     0
178
     0
  0
ENDTAB
  0
ENDSEC
  0
SECTION
  2
BLOCKS
  0
BLOCK
  8
0
  2
$MODEL_SPACE
 70
     0
 10
0.0
 20
0.0
 30
0.0
  3
$MODEL_SPACE
  1

  0
ENDBLK
  5
21
  8
0
  0
BLOCK
 67
     1
  8
0
  2
$PAPER_SPACE
 70
     0
 10
0.0
 20
0.0
 30
0.0
  3
$PAPER_SPACE
  1

  0
ENDBLK
  5
1D
 67
     1
  8
0
  0
ENDSEC
  0
SECTION
  2
ENTITIES
  0
ATTDEF
  5
3930
  8
DEFPOINTS
 10
4820.5753124744232991
 20
240.820656964870409
 30
0.0
 40
0.001
  1
K-EX27061T
  3

  2
MODELNUMBER
 70
     0
1001
ACDBATTR
1070
     0
1070
     1
  0
ATTDEF
  5
3931
  8
DEFPOINTS
 10
4820.5753124744232991
 20
240.818990298203687
 30
0.0
 40
0.001
  1
OCCASION
  3

  2
TRADENAME
 70
     0
1001
ACDBATTR
1070
     0
1070
     1
  0
ATTDEF
  5
3932
  8
DEFPOINTS
 10
4820.5753124744232991
 20
240.8173236315371071
 30
0.0
 40
0.001
  1
TOWEL BAR
  3

  2
PRODUCT
 70
     0
1001
ACDBATTR
1070
     0
1070
     1
  0
LINE
  5
CB00
  8
0
 10
4807.490165579596578
 20
240.7984363817951134
 30
0.0
 11
4807.4239738722972106
 21
240.6435159669950963
 31
0.0
  0
LINE
  5
CB01
  8
0
 10
4808.2634411985973202
 20
238.7463109136951118
 30
0.0
 11
4808.2631546095981321
 21
238.7791507627950978
 31
0.0
  0
LINE
  5
CB02
  8
0
 10
4808.2662000387972512
 20
238.6867295028951048
 30
0.0
 11
4808.2662000387972512
 21
238.293150865595095
 31
0.0
  0
LINE
  5
CB03
  8
0
 10
4808.2064653348970751
 20
237.6492025215951003
 30
0.0
 11
4808.9509346982968054
 21
237.6492025215951003
 31
0.0
  0
LINE
  5
CB04
  8
0
 10
4808.2933618265969926
 20
238.7166507627950978
 30
0.0
 11
4808.8640382451967525
 21
238.7166507627950978
 31
0.0
  0
LINE
  5
CB05
  8
0
 10
4809.6396589518981273
 20
240.8166507627950921
 30
0.0
 11
4807.5177411198956179
 21
240.8166507627950921
 31
0.0
  0
ARC
  5
CB06
  8
0
 10
4808.2987217135578248
 20
238.6841290881426971
 30
0.0
 40
0.0326254728646922
 50
94.5716120581240034
 51
175.4283881333799116
  0
ARC
  5
CB07
  8
0
 10
4808.2943368414316865
 20
238.7475561120178895
 30
0.0
 40
0.0309207254848747
 50
182.3079635795758975
 51
268.1930082164975033
  0
ARC
  5
CB08
  8
0
 10
4813.643612739974742
 20
254.2927918166211043
 30
0.0
 40
17.5131857462902794
 50
251.6931713541169984
 51
251.8172476560839925
  0
LINE
  5
CB09
  8
0
 10
4808.1312000387970329
 20
238.1824089376951008
 30
0.0
 11
4808.1312000387970329
 21
237.4094985908951116
 31
0.0
  0
LINE
  5
CB0A
  8
0
 10
4809.02620003879656
 20
237.4094984073950911
 30
0.0
 11
4809.02620003879656
 21
238.1824091211950929
 31
0.0
  0
LINE
  5
CB0B
  8
0
 10
4808.1786417651974261
 20
238.2464976818951072
 30
0.0
 11
4808.142396782396645
 21
238.2097580083951129
 31
0.0
  0
LINE
  5
CB0C
  8
0
 10
4809.02620003879656
 20
238.1291507627950921
 30
0.0
 11
4832.1312000387970329
 21
238.1291507627950921
 31
0.0
  0
LINE
  5
CB0D
  8
0
 10
4808.2065175870957319
 20
238.2581358182951021
 30
0.0
 11
4808.2443643144079033
 21
238.2581358182951021
 31
0.0
  0
LINE
  5
CB0E
  8
0
 10
4808.9130357573867514
 20
238.2581358182951021
 30
0.0
 11
4808.9508824846980133
 21
238.2581358182951021
 31
0.0
  0
ARC
  5
CB0F
  8
0
 10
4808.1785216380258134
 20
238.1790019317807889
 30
0.0
 40
0.0474440875452746
 50
139.5895023051706971
 51
175.8819900484868981
  0
ARC
  5
CB10
  8
0
 10
4808.2085669564094133
 20
238.2140237999257977
 30
0.0
 40
0.0441595978150624
 50
92.6599517972684623
 51
132.6610534436281057
  0
LINE
  5
CB11
  8
0
 10
4808.9787583065972285
 20
238.2464976818951072
 30
0.0
 11
4809.0150032893971002
 21
238.2097580083951129
 31
0.0
  0
ARC
  5
CB12
  8
0
 10
4808.9814159196621404
 20
238.1800407562786859
 30
0.0
 40
0.0448466997563715
 50
3.0272120120623081
 51
41.501586035453542
  0
ARC
  5
CB13
  8
0
 10
4808.9492670334548166
 20
238.2150631263625939
 30
0.0
 40
0.043102975222476
 50
46.8268794550393821
 51
87.8521153040647818
  0
LINE
  5
CB14
  8
0
 10
4808.1786417651983356
 20
238.2464976818951925
 30
0.0
 11
4808.1786417651983356
 21
237.3454098466949063
 31
0.0
  0
LINE
  5
CB15
  8
0
 10
4808.9787583065972285
 20
238.2464976818951072
 30
0.0
 11
4808.9787583065972285
 21
237.3454098466951052
 31
0.0
  0
LINE
  5
CB16
  8
0
 10
4808.1786417651974261
 20
237.3454098466951052
 30
0.0
 11
4808.142396782396645
 21
237.3821495201950995
 31
0.0
  0
LINE
  5
CB17
  8
0
 10
4809.02620003879656
 20
237.5041504115951057
 30
0.0
 11
4832.1312000387970329
 21
237.5041504115951057
 31
0.0
  0
LINE
  5
CB18
  8
0
 10
4808.2065175870957319
 20
237.3337717102951103
 30
0.0
 11
4808.9508824846980133
 21
237.3337717102951103
 31
0.0
  0
ARC
  5
CB19
  8
0
 10
4808.1785216380258134
 20
237.4129055968093098
 30
0.0
 40
0.0474440875452746
 50
184.1180099515113966
 51
220.4104976948291892
  0
ARC
  5
CB1A
  8
0
 10
4808.2085669564094133
 20
237.3778837286643864
 30
0.0
 40
0.0441595978150624
 50
227.3389465563718943
 51
267.340048202731623
  0
LINE
  5
CB1B
  8
0
 10
4808.9787583065972285
 20
237.3454098466951052
 30
0.0
 11
4809.0150032893971002
 21
237.3821495201950995
 31
0.0
  0
ARC
  5
CB1C
  8
0
 10
4808.9814159196621404
 20
237.4118667723114982
 30
0.0
 40
0.0448466997563715
 50
318.4984139645465007
 51
356.9727879879376928
  0
ARC
  5
CB1D
  8
0
 10
4808.9492670334548166
 20
237.3768444022275901
 30
0.0
 40
0.043102975222476
 50
272.1478846959353177
 51
313.173120544960625
  0
LINE
  5
CB1E
  8
0
 10
4808.5787000358968726
 20
238.7166507627950978
 30
0.0
 11
4808.5787000358968726
 21
240.8166507627950921
 31
0.0
  0
ARC
  5
CB1F
  8
0
 10
4808.2271518570150874
 20
238.2931856831056905
 30
0.0
 40
0.0390481973041463
 50
296.1549550756640201
 51
359.9489119392429757
  0
ARC
  5
CB20
  8
0
 10
4804.5504741885060866
 20
238.8883815961380037
 30
0.0
 40
3.714286914618218
 50
358.3147860298342948
 51
9.9313475182742721
  0
ARC
  5
CB21
  8
0
 10
4806.7056265198252731
 20
239.1840669979997926
 30
0.0
 40
1.542531851973624
 50
12.9205774021211592
 51
32.6306063820247729
  0
ARC
  5
CB22
  8
0
 10
4806.3083300623211471
 20
238.9677358842340027
 30
0.0
 40
1.9940285274786711
 50
31.7098215886124493
 51
48.3185049132969482
  0
ARC
  5
CB23
  8
0
 10
4806.5854447953779527
 20
239.266319692458012
 30
0.0
 40
1.586774299549337
 50
48.6221401452931801
 51
57.6073056321270727
  0
ARC
  5
CB24
  8
0
 10
4807.465320739692288
 20
240.6289007629702041
 30
0.0
 40
0.0438539351950012
 50
160.5326239560438921
 51
176.7339326026086042
  0
ARC
  5
CB25
  8
0
 10
4807.452615720423637
 20
240.632143126491286
 30
0.0
 40
0.0310865870492446
 50
181.3711850159247945
 51
236.6154389603835
  0
ARC
  5
CB26
  8
0
 10
4807.5206487488912899
 20
240.7822676844160981
 30
0.0
 40
0.0345058021958915
 50
94.8337567923560556
 51
152.0578983646962001
  0
LINE
  5
CB27
  8
0
 10
4807.4355101467972418
 20
240.6061859454950138
 30
0.0
 11
4809.7218899249974129
 21
240.6061859454950138
 31
0.0
  0
ARC
  5
CB28
  8
0
 10
4808.393204768745818
 20
238.4941302991958878
 30
0.0
 40
0.279010530022447
 50
237.7605895557593954
 51
263.6697076351555893
  0
ARC
  5
CB29
  8
0
 10
4808.2333552672153019
 20
237.5019332597240975
 30
0.0
 40
0.7264486016659216
 50
71.9155335617615634
 51
79.7645056314978831
  0
ARC
  5
CB2A
  8
0
 10
4808.5830705856833447
 20
238.4251371724537876
 30
0.0
 40
0.2637250553536741
 50
241.9013699937877107
 51
269.0504295453766872
  0
LINE
  5
CB2B
  8
0
 10
4809.6672344921971671
 20
240.7984363817951134
 30
0.0
 11
4809.733426199495625
 21
240.6435159669950963
 31
0.0
  0
LINE
  5
CB2C
  8
0
 10
4808.893958873198244
 20
238.7463109136951118
 30
0.0
 11
4808.8942454621956131
 21
238.7791507627950978
 31
0.0
  0
LINE
  5
CB2D
  8
0
 10
4808.8912000329974035
 20
238.6867295028951048
 30
0.0
 11
4808.8912000329974035
 21
238.293150865595095
 31
0.0
  0
ARC
  5
CB2E
  8
0
 10
4808.8586783582359203
 20
238.6841290881426971
 30
0.0
 40
0.0326254728646922
 50
4.5716118666200929
 51
85.4283879418759966
  0
ARC
  5
CB2F
  8
0
 10
4808.8630632303611492
 20
238.7475561120178895
 30
0.0
 40
0.0309207254848747
 50
271.806991783502383
 51
357.6920364204224256
  0
ARC
  5
CB30
  8
0
 10
4808.9302482147777482
 20
238.2931856831056905
 30
0.0
 40
0.0390481973041463
 50
180.0510880607569959
 51
243.8450449243358946
  0
ARC
  5
CB31
  8
0
 10
4812.606925883286749
 20
238.8883815961380037
 30
0.0
 40
3.714286914618218
 50
170.0686524817257066
 51
181.6852139701657052
  0
ARC
  5
CB32
  8
0
 10
4810.4517735519693815
 20
239.1840669979997926
 30
0.0
 40
1.542531851973624
 50
147.3693936179751915
 51
167.0794225978787892
  0
ARC
  5
CB33
  8
0
 10
4810.8490700094716885
 20
238.9677358842340027
 30
0.0
 40
1.9940285274786711
 50
131.681495086702995
 51
148.290178411387501
  0
ARC
  5
CB34
  8
0
 10
4810.571955276414883
 20
239.266319692458012
 30
0.0
 40
1.586774299549337
 50
122.392694367872906
 51
131.3778598547067986
  0
ARC
  5
CB35
  8
0
 10
4809.6920793321005476
 20
240.6289007629702041
 30
0.0
 40
0.0438539351950012
 50
3.2660673973914052
 51
19.4673760439560688
  0
ARC
  5
CB36
  8
0
 10
4809.7047843513701082
 20
240.632143126491286
 30
0.0
 40
0.0310865870492446
 50
303.3845610396164716
 51
358.6288149840751203
  0
ARC
  5
CB37
  8
0
 10
4809.6367513229015458
 20
240.7822676844160981
 30
0.0
 40
0.0345058021958915
 50
27.9421016353037786
 51
85.1662432076439586
  0
ARC
  5
CB38
  8
0
 10
4808.7641953030479272
 20
238.4941302991958878
 30
0.0
 40
0.279010530022447
 50
276.3302923648444107
 51
302.2394104442406046
  0
ARC
  5
CB39
  8
0
 10
4808.9240448045793528
 20
237.5019332597240975
 30
0.0
 40
0.7264486016659216
 50
100.2354943685021027
 51
108.0844664382383939
  0
ARC
  5
CB3A
  8
0
 10
4808.5743294861122195
 20
238.4251371724537876
 30
0.0
 40
0.2637250553536741
 50
270.9495704546234265
 51
298.0986300062123178
  0
ARC
  5
CB3B
  8
0
 10
4808.1528365992744511
 20
237.6851499181424003
 30
0.0
 40
0.02171881983076
 50
184.9882629149084892
 51
241.9481294982130066
  0
ARC
  5
CB3C
  8
0
 10
4808.2070796799325763
 20
237.7340309416437947
 30
0.0
 40
0.08483064462666
 50
250.4133765280975865
 51
269.5850593193919167
  0
ARC
  5
CB3D
  8
0
 10
4803.5137872932191385
 20
254.2927918166211043
 30
0.0
 40
17.5131857462902794
 50
288.1827523439159791
 51
288.3068286458830016
  0
ARC
  5
CB3E
  8
0
 10
4809.0045634339203389
 20
237.6851499181424003
 30
0.0
 40
0.02171881983076
 50
298.0518705017868797
 51
355.0117370850915108
  0
ARC
  5
CB3F
  8
0
 10
4808.9503203532613043
 20
237.7340309416437947
 30
0.0
 40
0.08483064462666
 50
270.4149406806080833
 51
289.5866234719023851
  0
LINE
  5
CB41
  8
0
 10
4833.6672344979979243
 20
240.7984363817951134
 30
0.0
 11
4833.7334262052982012
 21
240.6435159669950963
 31
0.0
  0
LINE
  5
CB42
  8
0
 10
4832.8939588789971822
 20
238.7463109136951118
 30
0.0
 11
4832.8942454679972798
 21
238.7791507627950978
 31
0.0
  0
LINE
  5
CB43
  8
0
 10
4832.8912000387981607
 20
238.6867295028951048
 30
0.0
 11
4832.8912000387981607
 21
238.293150865595095
 31
0.0
  0
LINE
  5
CB44
  8
0
 10
4832.9509347426956083
 20
237.6492025215951003
 30
0.0
 11
4832.2064653792967874
 21
237.6492025215951003
 31
0.0
  0
LINE
  5
CB45
  8
0
 10
4832.8640382509956908
 20
238.7166507627950978
 30
0.0
 11
4832.2933618323968403
 21
238.7166507627950978
 31
0.0
  0
LINE
  5
CB46
  8
0
 10
4831.5177411256972846
 20
240.8166507627950921
 30
0.0
 11
4833.6396589576970655
 21
240.8166507627950921
 31
0.0
  0
ARC
  5
CB47
  8
0
 10
4832.858678364035768
 20
238.6841290881426971
 30
0.0
 40
0.0326254728646922
 50
4.5716118666200929
 51
85.4283879418759966
  0
ARC
  5
CB48
  8
0
 10
4832.8630632361619064
 20
238.7475561120178895
 30
0.0
 40
0.0309207254848747
 50
271.806991783502383
 51
357.6920364204240173
  0
ARC
  5
CB49
  8
0
 10
4827.5137873376188509
 20
254.2927918166211043
 30
0.0
 40
17.5131857462902794
 50
288.1827523439159791
 51
288.3068286458830016
  0
LINE
  5
CB4A
  8
0
 10
4833.02620003879656
 20
238.1824089376951008
 30
0.0
 11
4833.02620003879656
 21
237.4094985908951116
 31
0.0
  0
LINE
  5
CB4B
  8
0
 10
4832.1312000387970329
 20
237.4094984073950911
 30
0.0
 11
4832.1312000387970329
 21
238.1824091211950929
 31
0.0
  0
LINE
  5
CB4C
  8
0
 10
4832.9787583123970762
 20
238.2464976818951072
 30
0.0
 11
4833.0150032951969479
 21
238.2097580083951129
 31
0.0
  0
LINE
  5
CB4D
  8
0
 10
4832.950882490496042
 20
238.2581358182951021
 30
0.0
 11
4832.9130357631865991
 21
238.2581358182951021
 31
0.0
  0
LINE
  5
CB4E
  8
0
 10
4832.2443643202068415
 20
238.2581358182951021
 30
0.0
 11
4832.2065175928973986
 21
238.2581358182951021
 31
0.0
  0
ARC
  5
CB4F
  8
0
 10
4832.9788784395668699
 20
238.1790019317807889
 30
0.0
 40
0.0474440875452746
 50
4.1180099515130832
 51
40.4104976948292389
  0
ARC
  5
CB50
  8
0
 10
4832.9488331211859986
 20
238.2140237999257977
 30
0.0
 40
0.0441595978150624
 50
47.3389465563719014
 51
87.3400482027315377
  0
LINE
  5
CB51
  8
0
 10
4832.1786417709972739
 20
238.2464976818951072
 30
0.0
 11
4832.1423967881974022
 21
238.2097580083951129
 31
0.0
  0
ARC
  5
CB52
  8
0
 10
4832.1759841579314525
 20
238.1800407562786859
 30
0.0
 40
0.0448466997563715
 50
138.498413964546387
 51
176.9727879879376928
  0
ARC
  5
CB53
  8
0
 10
4832.2081330441387763
 20
238.2150631263625939
 30
0.0
 40
0.043102975222476
 50
92.147884695935204
 51
133.1731205449985964
  0
LINE
  5
CB54
  8
0
 10
4832.9787583123970762
 20
238.2464976818951925
 30
0.0
 11
4832.9787583123970762
 21
237.3454098466949063
 31
0.0
  0
LINE
  5
CB55
  8
0
 10
4832.1786417709972739
 20
238.2464976818951072
 30
0.0
 11
4832.1786417709972739
 21
237.3454098466951052
 31
0.0
  0
LINE
  5
CB56
  8
0
 10
4832.9787583123970762
 20
237.3454098466951052
 30
0.0
 11
4833.0150032951969479
 21
237.3821495201950995
 31
0.0
  0
LINE
  5
CB57
  8
0
 10
4832.950882490496042
 20
237.3337717102951103
 30
0.0
 11
4832.2065175928973986
 21
237.3337717102951103
 31
0.0
  0
ARC
  5
CB58
  8
0
 10
4832.9788784395668699
 20
237.4129055968093098
 30
0.0
 40
0.0474440875452746
 50
319.5895023051708108
 51
355.8819900484884897
  0
ARC
  5
CB59
  8
0
 10
4832.9488331211859986
 20
237.3778837286643864
 30
0.0
 40
0.0441595978150624
 50
272.659951797268377
 51
312.6610534436280773
  0
LINE
  5
CB5A
  8
0
 10
4832.1786417709972739
 20
237.3454098466951052
 30
0.0
 11
4832.1423967881974022
 21
237.3821495201950995
 31
0.0
  0
ARC
  5
CB5B
  8
0
 10
4832.1759841579314525
 20
237.4118667723114982
 30
0.0
 40
0.0448466997563715
 50
183.0272120120623072
 51
221.5015860354534993
  0
ARC
  5
CB5C
  8
0
 10
4832.2081330441387763
 20
237.3768444022275901
 30
0.0
 40
0.043102975222476
 50
226.8268794550014036
 51
267.852115304064796
  0
LINE
  5
CB5D
  8
0
 10
4832.5787000416967203
 20
238.7166507627950978
 30
0.0
 11
4832.5787000416967203
 21
240.8166507627950921
 31
0.0
  0
ARC
  5
CB5E
  8
0
 10
4832.9302482205775959
 20
238.2931856831056905
 30
0.0
 40
0.0390481973041463
 50
180.0510880607569959
 51
243.8450449243358946
  0
ARC
  5
CB5F
  8
0
 10
4836.6069258890865967
 20
238.8883815961380037
 30
0.0
 40
3.714286914618218
 50
170.0686524817257066
 51
181.6852139701657052
  0
ARC
  5
CB60
  8
0
 10
4834.4517735577701387
 20
239.1840669979997926
 30
0.0
 40
1.542531851973624
 50
147.3693936179751915
 51
167.0794225978787892
  0
ARC
  5
CB61
  8
0
 10
4834.8490700152724457
 20
238.9677358842340027
 30
0.0
 40
1.9940285274786711
 50
131.681495086702995
 51
148.290178411387501
  0
ARC
  5
CB62
  8
0
 10
4834.5719552822156402
 20
239.266319692458012
 30
0.0
 40
1.586774299549337
 50
122.392694367872906
 51
131.3778598547067986
  0
ARC
  5
CB63
  8
0
 10
4833.6920793379013048
 20
240.6289007629702041
 30
0.0
 40
0.0438539351950012
 50
3.2660673973914052
 51
19.4673760439560688
  0
ARC
  5
CB64
  8
0
 10
4833.7047843571699559
 20
240.632143126491286
 30
0.0
 40
0.0310865870492446
 50
303.3845610396164716
 51
358.6288149840751203
  0
ARC
  5
CB65
  8
0
 10
4833.636751328702303
 20
240.7822676844160981
 30
0.0
 40
0.0345058021958915
 50
27.9421016353037786
 51
85.1662432076439586
  0
LINE
  5
CB66
  8
0
 10
4833.7218899307972606
 20
240.6061859454950138
 30
0.0
 11
4831.4355101525970895
 21
240.6061859454950138
 31
0.0
  0
ARC
  5
CB67
  8
0
 10
4832.7641953088477749
 20
238.4941302991958878
 30
0.0
 40
0.279010530022447
 50
276.3302923648444107
 51
302.2394104442406046
  0
ARC
  5
CB68
  8
0
 10
4832.9240448103792005
 20
237.5019332597240975
 30
0.0
 40
0.7264486016659216
 50
100.2354943685021027
 51
108.0844664382383939
  0
ARC
  5
CB69
  8
0
 10
4832.5743294919120672
 20
238.4251371724537876
 30
0.0
 40
0.2637250553536741
 50
270.9495704546234265
 51
298.0986300062123178
  0
LINE
  5
CB6A
  8
0
 10
4831.4901655853973352
 20
240.7984363817951134
 30
0.0
 11
4831.4239738780970583
 21
240.6435159669950963
 31
0.0
  0
LINE
  5
CB6B
  8
0
 10
4832.2634412043971679
 20
238.7463109136951118
 30
0.0
 11
4832.2631546153970703
 21
238.7791507627950978
 31
0.0
  0
LINE
  5
CB6C
  8
0
 10
4832.2662000445970989
 20
238.6867295028951048
 30
0.0
 11
4832.2662000445970989
 21
238.293150865595095
 31
0.0
  0
ARC
  5
CB6D
  8
0
 10
4832.2987217193567631
 20
238.6841290881426971
 30
0.0
 40
0.0326254728646922
 50
94.5716120581240034
 51
175.4283881333799116
  0
ARC
  5
CB6E
  8
0
 10
4832.2943368472306247
 20
238.7475561120178895
 30
0.0
 40
0.0309207254848747
 50
182.3079635795758975
 51
268.1930082164975033
  0
ARC
  5
CB6F
  8
0
 10
4832.2271518628158447
 20
238.2931856831056905
 30
0.0
 40
0.0390481973041463
 50
296.1549550756640201
 51
359.9489119392429757
  0
ARC
  5
CB70
  8
0
 10
4828.5504741943050249
 20
238.8883815961380037
 30
0.0
 40
3.714286914618218
 50
358.3147860298342948
 51
9.9313475182742721
  0
ARC
  5
CB71
  8
0
 10
4830.7056265256251208
 20
239.1840669979997926
 30
0.0
 40
1.542531851973624
 50
12.9205774021211592
 51
32.6306063820247729
  0
ARC
  5
CB72
  8
0
 10
4830.3083300681219043
 20
238.9677358842340027
 30
0.0
 40
1.9940285274786711
 50
31.7098215886124493
 51
48.3185049132969482
  0
ARC
  5
CB73
  8
0
 10
4830.5854448011778004
 20
239.266319692458012
 30
0.0
 40
1.586774299549337
 50
48.6221401452931801
 51
57.6073056321270727
  0
ARC
  5
CB74
  8
0
 10
4831.4653207454921358
 20
240.6289007629702041
 30
0.0
 40
0.0438539351950012
 50
160.5326239560438921
 51
176.7339326026086042
  0
ARC
  5
CB75
  8
0
 10
4831.4526157262243942
 20
240.632143126491286
 30
0.0
 40
0.0310865870492446
 50
181.3711850159247945
 51
236.6154389603835
  0
ARC
  5
CB76
  8
0
 10
4831.5206487546920471
 20
240.7822676844160981
 30
0.0
 40
0.0345058021958915
 50
94.8337567923560556
 51
152.0578983646962001
  0
ARC
  5
CB77
  8
0
 10
4832.3932047745456657
 20
238.4941302991958878
 30
0.0
 40
0.279010530022447
 50
237.7605895557593954
 51
263.6697076351555893
  0
ARC
  5
CB78
  8
0
 10
4832.2333552730151496
 20
237.5019332597240975
 30
0.0
 40
0.7264486016659216
 50
71.9155335617615634
 51
79.7645056314978831
  0
ARC
  5
CB79
  8
0
 10
4832.5830705914822829
 20
238.4251371724537876
 30
0.0
 40
0.2637250553536741
 50
241.9013699937877107
 51
269.0504295453766872
  0
ARC
  5
CB7A
  8
0
 10
4833.0045634783209607
 20
237.6851499181424003
 30
0.0
 40
0.02171881983076
 50
298.0518705017868797
 51
355.0117370850915108
  0
ARC
  5
CB7B
  8
0
 10
4832.9503203976610166
 20
237.7340309416437947
 30
0.0
 40
0.08483064462666
 50
270.4149406806080833
 51
289.5866234719023851
  0
ARC
  5
CB7C
  8
0
 10
4837.6436127843753638
 20
254.2927918166211043
 30
0.0
 40
17.5131857462902794
 50
251.6931713541169984
 51
251.8172476560839925
  0
ARC
  5
CB7D
  8
0
 10
4832.152836643673254
 20
237.6851499181424003
 30
0.0
 40
0.02171881983076
 50
184.9882629149084892
 51
241.9481294982130066
  0
ARC
  5
CB7E
  8
0
 10
4832.2070797243341076
 20
237.7340309416437947
 30
0.0
 40
0.08483064462666
 50
250.4133765280975865
 51
269.5850593193919167
  0
ENDSEC
  0
EOF
