  0
SECTION
  2
HEADER
  9
$ACADVER
  1
AC1009
  9
$INSBASE
 10
4088.8639580244148419
 20
145.0691312361257133
 30
0.0
  9
$EXTMIN
 10
4075.4805308894788141
 20
143.1413213289135058
 30
-0.0000000000112498
  9
$EXTMAX
 10
4102.0836965624248478
 20
146.8729285269222942
 30
0.0000000000002956
  9
$LIMMIN
 10
0.0
 20
0.0
  9
$LIMMAX
 10
11.6929133858000007
 20
8.2677165353999982
  9
$ORTHOMODE
 70
     0
  9
$REGENMODE
 70
     1
  9
$FILLMODE
 70
     1
  9
$QTEXTMODE
 70
     0
  9
$MIRRTEXT
 70
     0
  9
$DRAGMODE
 70
     2
  9
$LTSCALE
 40
0.6431102362
  9
$OSMODE
 70
  4095
  9
$ATTMODE
 70
     1
  9
$TEXTSIZE
 40
0.2
  9
$TRACEWID
 40
0.05
  9
$TEXTSTYLE
  7
STANDARD
  9
$CLAYER
  8
0
  9
$CELTYPE
  6
BYLAYER
  9
$CECOLOR
 62
   256
  9
$DIMSCALE
 40
1.0
  9
$DIMASZ
 40
0.1875
  9
$DIMEXO
 40
0.0625
  9
$DIMDLI
 40
0.4443307087
  9
$DIMRND
 40
0.0
  9
$DIMDLE
 40
0.0
  9
$DIMEXE
 40
0.125
  9
$DIMTP
 40
0.01
  9
$DIMTM
 40
0.01
  9
$DIMTXT
 40
2.0
  9
$DIMCEN
 40
0.1052362205
  9
$DIMTSZ
 40
0.0
  9
$DIMTOL
 70
     1
  9
$DIMLIM
 70
     0
  9
$DIMTIH
 70
     1
  9
$DIMTOH
 70
     1
  9
$DIMSE1
 70
     0
  9
$DIMSE2
 70
     0
  9
$DIMTAD
 70
     0
  9
$DIMZIN
 70
     0
  9
$DIMBLK
  1

  9
$DIMASO
 70
     1
  9
$DIMSHO
 70
     1
  9
$DIMPOST
  1
\X
  9
$DIMAPOST
  1

  9
$DIMALT
 70
     1
  9
$DIMALTD
 70
     2
  9
$DIMALTF
 40
25.3999999999999986
  9
$DIMLFAC
 40
1.0
  9
$DIMTOFL
 70
     0
  9
$DIMTVP
 40
0.0
  9
$DIMTIX
 70
     0
  9
$DIMSOXD
 70
     0
  9
$DIMSAH
 70
     0
  9
$DIMBLK1
  1

  9
$DIMBLK2
  1

  9
$DIMSTYLE
  2
STANDARD
  9
$DIMCLRD
 70
     0
  9
$DIMCLRE
 70
     0
  9
$DIMCLRT
 70
     0
  9
$DIMTFAC
 40
1.0
  9
$DIMGAP
 40
0.09
  9
$LUNITS
 70
     2
  9
$LUPREC
 70
     4
  9
$SKETCHINC
 40
0.1
  9
$FILLETRAD
 40
0.0
  9
$AUNITS
 70
     0
  9
$AUPREC
 70
     0
  9
$MENU
  1
.
  9
$ELEVATION
 40
0.0
  9
$PELEVATION
 40
0.0
  9
$THICKNESS
 40
0.0
  9
$LIMCHECK
 70
     0
  9
$BLIPMODE
 70
     0
  9
$CHAMFERA
 40
0.0
  9
$CHAMFERB
 40
0.0
  9
$SKPOLY
 70
     0
  9
$TDCREATE
 40
2458060.468368056230247
  9
$TDUPDATE
 40
2460281.8489120369777083
  9
$TDINDWG
 40
0.3649376157
  9
$TDUSRTIMER
 40
0.3649376157
  9
$USRTIMER
 70
     1
  9
$ANGBASE
 50
0.0
  9
$ANGDIR
 70
     0
  9
$PDMODE
 70
     0
  9
$PDSIZE
 40
0.3125
  9
$PLINEWID
 40
0.0
  9
$COORDS
 70
     1
  9
$SPLFRAME
 70
     0
  9
$SPLINETYPE
 70
     6
  9
$SPLINESEGS
 70
     8
  9
$ATTDIA
 70
     1
  9
$ATTREQ
 70
     1
  9
$HANDLING
 70
     1
  9
$HANDSEED
  5
8506
  9
$SURFTAB1
 70
     6
  9
$SURFTAB2
 70
     6
  9
$SURFTYPE
 70
     6
  9
$SURFU
 70
     6
  9
$SURFV
 70
     6
  9
$UCSNAME
  2

  9
$UCSORG
 10
0.0
 20
0.0
 30
0.0
  9
$UCSXDIR
 10
1.0
 20
0.0
 30
0.0
  9
$UCSYDIR
 10
0.0
 20
1.0
 30
0.0
  9
$PUCSNAME
  2

  9
$PUCSORG
 10
0.0
 20
0.0
 30
0.0
  9
$PUCSXDIR
 10
1.0
 20
0.0
 30
0.0
  9
$PUCSYDIR
 10
0.0
 20
1.0
 30
0.0
  9
$USERI1
 70
     0
  9
$USERI2
 70
     0
  9
$USERI3
 70
     0
  9
$USERI4
 70
     0
  9
$USERI5
 70
     0
  9
$USERR1
 40
0.0
  9
$USERR2
 40
0.0
  9
$USERR3
 40
0.0
  9
$USERR4
 40
0.0
  9
$USERR5
 40
0.0
  9
$WORLDVIEW
 70
     1
  9
$SHADEDGE
 70
     3
  9
$SHADEDIF
 70
    70
  9
$TILEMODE
 70
     1
  9
$MAXACTVP
 70
    64
  9
$PLIMCHECK
 70
     0
  9
$PEXTMIN
 10
1.0000000000000000E+20
 20
1.0000000000000000E+20
 30
1.0000000000000000E+20
  9
$PEXTMAX
 10
-1.0000000000000000E+20
 20
-1.0000000000000000E+20
 30
-1.0000000000000000E+20
  9
$PLIMMIN
 10
0.0
 20
0.0
  9
$PLIMMAX
 10
12.0
 20
9.0
  9
$UNITMODE
 70
     0
  9
$VISRETAIN
 70
     1
  9
$PLINEGEN
 70
     0
  9
$PSLTSCALE
 70
     1
  0
ENDSEC
  0
SECTION
  2
TABLES
  0
TABLE
  2
VPORT
 70
     1
  0
VPORT
  2
*ACTIVE
 70
     0
 10
0.0
 20
0.0
 11
1.0
 21
1.0
 12
285.2380463431400131
 22
19.0118627311680193
 13
0.0
 23
0.0
 14
1.0
 24
1.0
 15
0.0
 25
0.0
 16
0.0
 26
0.0
 36
17.1152628219792007
 17
3803.5440673828129547
 27
125.9952621967499056
 37
0.0
 40
10.9048778251612202
 41
2.4474358974358972
 42
50.0
 43
0.0
 44
0.0
 50
0.0
 51
0.0
 71
     0
 72
   100
 73
     1
 74
     1
 75
     0
 76
     0
 77
     0
 78
     0
  0
ENDTAB
  0
TABLE
  2
LTYPE
 70
     2
  0
LTYPE
  2
CONTINUOUS
 70
     0
  3
Solid line
 72
    65
 73
     0
 40
0.0
  0
LTYPE
  2
PHANTOM2
 70
     0
  3
___ _ _ ___ _ _ ___ _ _ ___ _ _
 72
    65
 73
     6
 40
1.25
 49
0.625
 49
-0.125
 49
0.125
 49
-0.125
 49
0.125
 49
-0.125
  0
ENDTAB
  0
TABLE
  2
LAYER
 70
     2
  0
LAYER
  2
0
 70
     0
 62
   255
  6
CONTINUOUS
  0
LAYER
  2
DEFPOINTS
 70
     0
 62
     7
  6
CONTINUOUS
  0
ENDTAB
  0
TABLE
  2
STYLE
 70
     1
  0
STYLE
  2
STANDARD
 70
     0
 40
0.0
 41
0.8
 50
0.0
 71
     0
 42
0.2
  3
txt
  4

  0
ENDTAB
  0
TABLE
  2
VIEW
 70
     0
  0
ENDTAB
  0
TABLE
  2
UCS
 70
     0
  0
ENDTAB
  0
TABLE
  2
APPID
 70
     9
  0
APPID
  2
ACAD
 70
     0
  0
APPID
  2
ACAD_MLEADERVER
 70
     0
  0
APPID
  2
ACAD_EXEMPT_FROM_CAD_STANDARDS
 70
     0
  0
APPID
  2
ACAD_NAV_VCDISPLAY
 70
     0
  0
APPID
  2
ACAECLAYERSTANDARD
 70
     0
  0
APPID
  2
ACCMTRANSPARENCY
 70
     0
  0
APPID
  2
ACAD_DSTYLE_DIMJAG
 70
     0
  0
APPID
  2
ACAD_DSTYLE_DIMTALN
 70
     0
  0
APPID
  2
ACDBATTR
 70
     0
  0
ENDTAB
  0
TABLE
  2
DIMSTYLE
 70
     1
  0
DIMSTYLE
  2
STANDARD
 70
     0
  3

  4

  5

  6

  7

 40
1.0
 41
0.1875
 42
0.0625
 43
0.38
 44
0.125
 45
0.0
 46
0.0
 47
0.01
 48
0.01
140
0.15625
141
0.09
142
0.0
143
25.3999999999999986
144
1.0
145
0.0
146
1.0
147
0.09
 71
     1
 72
     0
 73
     1
 74
     1
 75
     0
 76
     0
 77
     0
 78
     4
170
     0
171
     2
172
     0
173
     0
174
     0
175
     0
176
     0
177
     0
178
     0
  0
ENDTAB
  0
ENDSEC
  0
SECTION
  2
BLOCKS
  0
BLOCK
  8
0
  2
$MODEL_SPACE
 70
     0
 10
0.0
 20
0.0
 30
0.0
  3
$MODEL_SPACE
  1

  0
ENDBLK
  5
21
  8
0
  0
BLOCK
 67
     1
  8
0
  2
$PAPER_SPACE
 70
     0
 10
0.0
 20
0.0
 30
0.0
  3
$PAPER_SPACE
  1

  0
ENDBLK
  5
1D
 67
     1
  8
0
  0
ENDSEC
  0
SECTION
  2
ENTITIES
  0
ATTDEF
  5
3930
  8
DEFPOINTS
 10
4088.8607158058698587
 20
145.0738559115349915
 30
0.0
 40
0.001
  1
K-EX27062T
  3

  2
MODELNUMBER
 70
     0
1001
ACDBATTR
1070
     0
1070
     1
  0
ATTDEF
  5
3931
  8
DEFPOINTS
 10
4088.8607158058698587
 20
145.0721892448682979
 30
0.0
 40
0.001
  1
OCCASION
  3

  2
TRADENAME
 70
     0
1001
ACDBATTR
1070
     0
1070
     1
  0
ATTDEF
  5
3932
  8
DEFPOINTS
 10
4088.8607158058698587
 20
145.0705225782016896
 30
0.0
 40
0.001
  1
TOWEL BAR
  3

  2
PRODUCT
 70
     0
1001
ACDBATTR
1070
     0
1070
     1
  0
ARC
  5
8244
  8
0
 10
4100.8650306634208391
 20
146.3015516779016139
 30
0.0
 40
2.3854175940340649
 50
252.9170647518216981
 51
262.4463796078500764
  0
ARC
  5
8245
  8
0
 10
4100.1739504499073519
 20
144.0611938879789022
 30
0.0
 40
0.0409691189996407
 50
211.6266083121658994
 51
256.3768343001934227
  0
ARC
  5
8246
  8
0
 10
4101.978288417193653
 20
145.4049748253557937
 30
0.0
 40
2.2718329207822112
 50
180.757103378974989
 51
182.0606540125380945
  0
ARC
  5
8247
  8
0
 10
4102.0874016762227257
 20
145.4083346052661909
 30
0.0
 40
2.3809964949990472
 50
182.047038081859597
 51
215.0864323245963021
  0
ARC
  5
8248
  8
0
 10
4099.7465565952634279
 20
145.3739449497230112
 30
0.0
 40
0.0399155634962098
 50
139.1816665256529006
 51
178.5488172031500937
  0
ARC
  5
8249
  8
0
 10
4101.6207454229288487
 20
143.9690424760644021
 30
0.0
 40
2.3821143439996808
 50
116.7528595896350936
 51
143.078215954794814
  0
ARC
  5
824A
  8
0
 10
4100.8627068467603749
 20
146.3015516779016139
 30
0.0
 40
2.3854175940340649
 50
277.5579463049454034
 51
287.0829352481782735
  0
ARC
  5
824B
  8
0
 10
4101.5537870602747716
 20
144.0611938879789022
 30
0.0
 40
0.0409691189996407
 50
283.6231656998065773
 51
328.3733916878341006
  0
ARC
  5
824C
  8
0
 10
4099.640484136935811
 20
145.408260524394592
 30
0.0
 40
2.3808325583622452
 50
324.9129750176364837
 51
359.1983725438266219
  0
ARC
  5
824D
  8
0
 10
4101.9811819538153941
 20
145.3739455333335968
 30
0.0
 40
0.0399143957914288
 50
1.4438845540341769
 51
40.8186742807092031
  0
ARC
  5
824E
  8
0
 10
4100.1069920872541843
 20
143.9690424760644021
 30
0.0
 40
2.3821143439996808
 50
36.9217840452051718
 51
63.3496174758486816
  0
LINE
  5
824F
  8
0
 10
4101.5765999568156985
 20
144.0271638943991093
 30
0.0
 11
4101.1909202628603452
 21
144.5631867057757063
 31
0.0
  0
LINE
  5
8250
  8
0
 10
4100.1511375533673345
 20
144.0271638943991093
 30
0.0
 11
4100.5368172473226878
 21
144.5631867057757063
 31
0.0
  0
LINE
  5
8251
  8
0
 10
4101.3261399028151573
 20
145.1599482831418868
 30
0.0
 11
4102.0191101934624385
 21
145.3863796649297058
 31
0.0
  0
LINE
  5
8252
  8
0
 10
4100.4017761459135727
 20
145.1598899448115105
 30
0.0
 11
4099.7086273179584168
 21
145.3863796645254922
 31
0.0
  0
LINE
  5
8253
  8
0
 10
4101.249456261092746
 20
145.4581867057756881
 30
0.0
 11
4100.4783647338081209
 21
145.4581867057756881
 31
0.0
  0
LINE
  5
8254
  8
0
 10
4101.3138092945046083
 20
145.4113343540703909
 30
0.0
 11
4101.2783207060701898
 21
145.4463451031377019
 31
0.0
  0
LINE
  5
8255
  8
0
 10
4100.4495002928661052
 20
145.4463451071173949
 30
0.0
 11
4100.4140117049719265
 21
145.4113343682384141
 31
0.0
  0
LINE
  5
8256
  8
0
 10
4100.4017761459135727
 20
144.6392974568204011
 30
0.0
 11
4100.4017761459135727
 21
145.3820759668967071
 31
0.0
  0
LINE
  5
8257
  8
0
 10
4101.3260448495284436
 20
144.6392974665548081
 30
0.0
 11
4101.3260448495284436
 21
145.3820759567084053
 31
0.0
  0
LINE
  5
8258
  8
0
 10
4101.2783207560905794
 20
144.5750283262356106
 30
0.0
 11
4101.3138093125699015
 21
144.6100390870147123
 31
0.0
  0
LINE
  5
8259
  8
0
 10
4100.4495002885432768
 20
144.5750283092299071
 30
0.0
 11
4100.4140117001097678
 21
144.6100390602746018
 31
0.0
  0
LINE
  5
825A
  8
0
 10
4100.4783647343447228
 20
144.5631867057757063
 30
0.0
 11
4101.2494562930487518
 21
144.5631867057757063
 31
0.0
  0
ARC
  5
825B
  8
0
 10
4100.4783647343447228
 20
144.6042867057757064
 30
0.0
 40
0.0411
 50
225.3883390470043935
 51
270.0
  0
ARC
  5
825C
  8
0
 10
4100.4428761459148518
 20
144.6392974568204011
 30
0.0
 40
0.0411
 50
180.0000000000048885
 51
225.3883390470043935
  0
ARC
  5
825D
  8
0
 10
4101.2494562930487518
 20
144.6042867057757064
 30
0.0
 40
0.0411
 50
270.0
 51
314.6116947091704787
  0
ARC
  5
825E
  8
0
 10
4101.284944849528074
 20
144.6392974665548081
 30
0.0
 40
0.0411
 50
314.6116947091693987
 51
0.0000000000097707
  0
ARC
  5
825F
  8
0
 10
4101.284944849528074
 20
145.3820759567084053
 30
0.0
 40
0.0411
 50
359.9999999999919282
 51
45.3883406671482277
  0
ARC
  5
8260
  8
0
 10
4101.249456261092746
 20
145.417086705775688
 30
0.0
 40
0.0411
 50
45.3883406671356369
 51
90.0
  0
ARC
  5
8261
  8
0
 10
4100.4783647338081209
 20
145.417086705775688
 30
0.0
 40
0.0411
 50
90.0
 51
134.6116514332115912
  0
ARC
  5
8262
  8
0
 10
4100.4428761459148518
 20
145.3820759668967071
 30
0.0
 40
0.0411
 50
134.6116514332092891
 51
179.9999999999917861
  0
LINE
  5
8263
  8
0
 10
4101.3138092945046083
 20
145.4113343540703909
 30
0.0
 11
4100.4140116906100957
 21
145.4113343540703909
 31
0.0
  0
LINE
  5
8264
  8
0
 10
4101.3138093125699015
 20
144.6100390870147123
 30
0.0
 11
4100.4140116730059162
 21
144.6100390870147123
 31
0.0
  0
LINE
  5
8265
  8
0
 10
4100.3639580244152967
 20
146.8706867057757108
 30
0.0
 11
4100.187107630715218
 21
146.8706867057757108
 31
0.0
  0
LINE
  5
8266
  8
0
 10
4100.3689580244135868
 20
146.2456867057757108
 30
0.0
 11
4100.187107630715218
 21
146.2456867057757108
 31
0.0
  0
LINE
  5
8267
  8
0
 10
4100.8639580244143872
 20
143.775686705775712
 30
0.0
 11
4100.187107630715218
 21
143.775686705775712
 31
0.0
  0
LINE
  5
8268
  8
0
 10
4100.8639580244143872
 20
143.150686705775712
 30
0.0
 11
4100.187107630715218
 21
143.150686705775712
 31
0.0
  0
LINE
  5
8269
  8
0
 10
4101.1764580244143872
 20
146.0581867057757108
 30
0.0
 11
4101.1764580244143872
 21
145.4581867057756881
 31
0.0
  0
LINE
  5
826A
  8
0
 10
4101.1764580244143872
 20
144.5631867057757063
 30
0.0
 11
4101.1764580244143872
 21
143.463186705775712
 31
0.0
  0
LINE
  5
826B
  8
0
 10
4100.5514580244152967
 20
146.0631867057757063
 30
0.0
 11
4100.5514580244152967
 21
145.4581867057756881
 31
0.0
  0
LINE
  5
826C
  8
0
 10
4100.5514580244152967
 20
144.5631867057757063
 30
0.0
 11
4100.5514580244152967
 21
143.775686705775712
 31
0.0
  0
ARC
  5
826D
  8
0
 10
4100.3639580244152967
 20
146.0581867057757108
 30
0.0
 40
0.8125
 50
0.0
 51
90.0
  0
ARC
  5
826E
  8
0
 10
4100.8639580244143872
 20
143.463186705775712
 30
0.0
 40
0.3125000000000071
 50
270.0
 51
90.0
  0
ARC
  5
826F
  8
0
 10
4100.3689580244135868
 20
146.0631867057757063
 30
0.0
 40
0.1825
 50
0.0
 51
90.0
  0
LINE
  5
8270
  8
0
 10
4100.1671076307138719
 20
146.2456867057757108
 30
0.0
 11
4100.1671076307138719
 21
146.8706867057757108
 31
0.0
  0
ARC
  5
8271
  8
0
 10
4100.187107630715218
 20
146.2656867057756926
 30
0.0
 40
0.02
 50
180.0000000000146088
 51
269.9999999999739089
  0
ARC
  5
8272
  8
0
 10
4100.187107630715218
 20
146.8506867057757006
 30
0.0
 40
0.02
 50
90.0000000000260485
 51
179.999999999985306
  0
LINE
  5
8273
  8
0
 10
4100.1671076307138719
 20
146.8706867057757108
 30
0.0
 11
4077.5608084181149025
 21
146.8706867057757108
 31
0.0
  0
LINE
  5
8274
  8
0
 10
4100.1671076307138719
 20
146.2456867057757108
 30
0.0
 11
4077.5608084181149025
 21
146.2456867057757108
 31
0.0
  0
LINE
  5
8275
  8
0
 10
4100.1671076307138719
 20
143.150686705775712
 30
0.0
 11
4100.1671076307138719
 21
143.775686705775712
 31
0.0
  0
ARC
  5
8276
  8
0
 10
4100.187107630715218
 20
143.1706867057756938
 30
0.0
 40
0.02
 50
180.0000000000129887
 51
270.0
  0
ARC
  5
8277
  8
0
 10
4100.187107630715218
 20
143.7556867057757017
 30
0.0
 40
0.02
 50
90.0
 51
179.9999999999951115
  0
LINE
  5
8278
  8
0
 10
4100.1671076307138719
 20
143.775686705775712
 30
0.0
 11
4077.5608084181149025
 21
143.775686705775712
 31
0.0
  0
LINE
  5
8279
  8
0
 10
4100.1671076307138719
 20
143.150686705775712
 30
0.0
 11
4077.5608084181149025
 21
143.150686705775712
 31
0.0
  0
LINE
  5
827A
  8
0
 10
4100.8639105136971921
 20
144.5631867057757063
 30
0.0
 11
4100.8639105136971921
 21
145.4581867057756881
 31
0.0
  0
ARC
  5
827B
  8
0
 10
4076.8628853854070258
 20
146.3015516779016139
 30
0.0
 40
2.3854175940340649
 50
277.5536203921499236
 51
287.0829352481782735
  0
ARC
  5
827C
  8
0
 10
4077.5539655989218772
 20
144.0611938879789022
 30
0.0
 40
0.0409691189996407
 50
283.6231656998065773
 51
328.3733916878341006
  0
ARC
  5
827D
  8
0
 10
4075.7496276316360309
 20
145.4049748253557937
 30
0.0
 40
2.2718329207822112
 50
357.939345987461877
 51
359.2428966210248973
  0
ARC
  5
827E
  8
0
 10
4075.6405143726060487
 20
145.4083346052661909
 30
0.0
 40
2.3809964949990472
 50
324.9135676754037263
 51
357.9529619181403746
  0
ARC
  5
827F
  8
0
 10
4077.9813594535648917
 20
145.3739449497230112
 30
0.0
 40
0.0399155634962098
 50
1.451182796849851
 51
40.8183334743470283
  0
ARC
  5
8280
  8
0
 10
4076.1071706258999257
 20
143.9690424760644021
 30
0.0
 40
2.3821143439996808
 50
36.9217840452051718
 51
63.2471404103648709
  0
ARC
  5
8281
  8
0
 10
4076.8652092020679447
 20
146.3015516779016139
 30
0.0
 40
2.3854175940340649
 50
252.9170647518216981
 51
262.4420536950545966
  0
ARC
  5
8282
  8
0
 10
4076.1741289885540027
 20
144.0611938879789022
 30
0.0
 40
0.0409691189996407
 50
211.6266083121658994
 51
256.3768343001934227
  0
ARC
  5
8283
  8
0
 10
4078.0874319118929634
 20
145.408260524394592
 30
0.0
 40
2.3808325583622452
 50
180.8016274561732928
 51
215.0870249823634026
  0
ARC
  5
8284
  8
0
 10
4075.7467340950151993
 20
145.3739455333335968
 30
0.0
 40
0.0399143957914288
 50
139.1813257192908111
 51
178.5561154459657871
  0
ARC
  5
8285
  8
0
 10
4077.6209239615750448
 20
143.9690424760644021
 30
0.0
 40
2.3821143439996808
 50
116.650382524151297
 51
143.078215954794814
  0
LINE
  5
8286
  8
0
 10
4076.1513160920139853
 20
144.0271638943991093
 30
0.0
 11
4076.5369957859688839
 21
144.5631867057757063
 31
0.0
  0
LINE
  5
8287
  8
0
 10
4077.5767784954609851
 20
144.0271638943991093
 30
0.0
 11
4077.1910988015069961
 21
144.5631867057757063
 31
0.0
  0
LINE
  5
8288
  8
0
 10
4076.4017761460149814
 20
145.1599482831418868
 30
0.0
 11
4075.7088058553658811
 21
145.3863796649297058
 31
0.0
  0
LINE
  5
8289
  8
0
 10
4077.3261399029138374
 20
145.1598899448115105
 30
0.0
 11
4078.0192887308721765
 21
145.3863796645254922
 31
0.0
  0
LINE
  5
828A
  8
0
 10
4076.4784597877351189
 20
145.4581867057756881
 30
0.0
 11
4077.2495513150211082
 21
145.4581867057756881
 31
0.0
  0
LINE
  5
828B
  8
0
 10
4076.4141067543250756
 20
145.4113343540703909
 30
0.0
 11
4076.4495953427590393
 21
145.4463451031377019
 31
0.0
  0
LINE
  5
828C
  8
0
 10
4077.2784157559640335
 20
145.4463451071173949
 30
0.0
 11
4077.3139043438568478
 21
145.4113343682384141
 31
0.0
  0
LINE
  5
828D
  8
0
 10
4077.3261399029138374
 20
144.6392974568204011
 30
0.0
 11
4077.3261399029138374
 21
145.3820759668967071
 31
0.0
  0
LINE
  5
828E
  8
0
 10
4076.4018711993007855
 20
144.6392974665548081
 30
0.0
 11
4076.4018711993007855
 21
145.3820759567084053
 31
0.0
  0
LINE
  5
828F
  8
0
 10
4076.4495952927368307
 20
144.5750283262356106
 30
0.0
 11
4076.4141067362597823
 21
144.6100390870147123
 31
0.0
  0
LINE
  5
8290
  8
0
 10
4077.2784157602868618
 20
144.5750283092299071
 30
0.0
 11
4077.313904348718097
 21
144.6100390602746018
 31
0.0
  0
LINE
  5
8291
  8
0
 10
4077.2495513144831421
 20
144.5631867057757063
 30
0.0
 11
4076.478459755779113
 21
144.5631867057757063
 31
0.0
  0
ARC
  5
8292
  8
0
 10
4077.2495513144831421
 20
144.6042867057757064
 30
0.0
 40
0.0411
 50
270.0
 51
314.6116609529955781
  0
ARC
  5
8293
  8
0
 10
4077.2850399029139226
 20
144.6392974568204011
 30
0.0
 40
0.0411
 50
314.6116609529955781
 51
359.9999999999951115
  0
ARC
  5
8294
  8
0
 10
4076.478459755779113
 20
144.6042867057757064
 30
0.0
 40
0.0411
 50
225.3883052908294928
 51
270.0
  0
ARC
  5
8295
  8
0
 10
4076.4429711993011551
 20
144.6392974665548081
 30
0.0
 40
0.0411
 50
179.9999999999901945
 51
225.3883052908306865
  0
ARC
  5
8296
  8
0
 10
4076.4429711993011551
 20
145.3820759567084053
 30
0.0
 40
0.0411
 50
134.6116593328517865
 51
180.0000000000081002
  0
ARC
  5
8297
  8
0
 10
4076.4784597877351189
 20
145.417086705775688
 30
0.0
 40
0.0411
 50
90.0
 51
134.6116593328642921
  0
ARC
  5
8298
  8
0
 10
4077.2495513150211082
 20
145.417086705775688
 30
0.0
 40
0.0411
 50
45.3883485667883875
 51
90.0
  0
ARC
  5
8299
  8
0
 10
4077.2850399029139226
 20
145.3820759668967071
 30
0.0
 40
0.0411
 50
0.0000000000081422
 51
45.3883485667906825
  0
LINE
  5
829A
  8
0
 10
4076.4141067543250756
 20
145.4113343540703909
 30
0.0
 11
4077.3139043582191334
 21
145.4113343540703909
 31
0.0
  0
LINE
  5
829B
  8
0
 10
4076.4141067362597823
 20
144.6100390870147123
 30
0.0
 11
4077.3139043758242224
 21
144.6100390870147123
 31
0.0
  0
LINE
  5
829C
  8
0
 10
4077.3639580244148419
 20
146.8706867057757108
 30
0.0
 11
4077.5408084181149206
 21
146.8706867057757108
 31
0.0
  0
LINE
  5
829D
  8
0
 10
4077.3589580244138233
 20
146.2456867057757108
 30
0.0
 11
4077.5408084181149206
 21
146.2456867057757108
 31
0.0
  0
LINE
  5
829E
  8
0
 10
4076.8639580244139324
 20
143.775686705775712
 30
0.0
 11
4077.5408084181149206
 21
143.775686705775712
 31
0.0
  0
LINE
  5
829F
  8
0
 10
4076.8639580244139324
 20
143.150686705775712
 30
0.0
 11
4077.5408084181149206
 21
143.150686705775712
 31
0.0
  0
LINE
  5
82A0
  8
0
 10
4076.5514580244148419
 20
146.0581867057757108
 30
0.0
 11
4076.5514580244148419
 21
145.4581867057756881
 31
0.0
  0
LINE
  5
82A1
  8
0
 10
4076.5514580244148419
 20
144.5631867057757063
 30
0.0
 11
4076.5514580244148419
 21
143.463186705775712
 31
0.0
  0
LINE
  5
82A2
  8
0
 10
4077.1764580244148419
 20
146.0631867057757063
 30
0.0
 11
4077.1764580244148419
 21
145.4581867057756881
 31
0.0
  0
LINE
  5
82A3
  8
0
 10
4077.1764580244148419
 20
144.5631867057757063
 30
0.0
 11
4077.1764580244148419
 21
143.775686705775712
 31
0.0
  0
ARC
  5
82A4
  8
0
 10
4077.3639580244148419
 20
146.0581867057757108
 30
0.0
 40
0.8125
 50
90.0
 51
180.0
  0
ARC
  5
82A5
  8
0
 10
4076.8639580244139324
 20
143.463186705775712
 30
0.0
 40
0.3125000000000071
 50
90.0
 51
270.0
  0
ARC
  5
82A6
  8
0
 10
4077.3589580244138233
 20
146.0631867057757063
 30
0.0
 40
0.1825
 50
90.0
 51
180.0
  0
LINE
  5
82A7
  8
0
 10
4077.5608084181149025
 20
146.2456867057757108
 30
0.0
 11
4077.5608084181149025
 21
146.8706867057757108
 31
0.0
  0
ARC
  5
82A8
  8
0
 10
4077.5408084181149206
 20
146.2656867057756926
 30
0.0
 40
0.02
 50
270.0000000000259774
 51
359.9999999999852776
  0
ARC
  5
82A9
  8
0
 10
4077.5408084181149206
 20
146.8506867057757006
 30
0.0
 40
0.02
 50
0.000000000014656
 51
89.9999999999739515
  0
LINE
  5
82AA
  8
0
 10
4077.5608084181149025
 20
143.150686705775712
 30
0.0
 11
4077.5608084181149025
 21
143.775686705775712
 31
0.0
  0
ARC
  5
82AB
  8
0
 10
4077.5408084181149206
 20
143.1706867057756938
 30
0.0
 40
0.02
 50
270.0
 51
359.9999999999869829
  0
ARC
  5
82AC
  8
0
 10
4077.5408084181149206
 20
143.7556867057757017
 30
0.0
 40
0.02
 50
0.0000000000048853
 51
90.0
  0
LINE
  5
82AD
  8
0
 10
4076.8640055351311275
 20
144.5631867057757063
 30
0.0
 11
4076.8640055351311275
 21
145.4581867057756881
 31
0.0
  0
ENDSEC
  0
EOF
