  0
SECTION
  2
HEADER
  9
$ACADVER
  1
AC1009
  9
$INSBASE
 10
4077.0290131762030796
 20
145.7890259532568962
 30
0.0
  9
$EXTMIN
 10
4073.5461354220187786
 20
141.4181869027902962
 30
0.0
  9
$EXTMAX
 10
4077.0406277306210541
 20
146.9453673919229004
 30
0.0
  9
$LIMMIN
 10
0.0
 20
0.0
  9
$LIMMAX
 10
11.6929133858000007
 20
8.2677165353999982
  9
$ORTHOMODE
 70
     0
  9
$REGENMODE
 70
     1
  9
$FILLMODE
 70
     1
  9
$QTEXTMODE
 70
     0
  9
$MIRRTEXT
 70
     0
  9
$DRAGMODE
 70
     2
  9
$LTSCALE
 40
0.6431102362
  9
$OSMODE
 70
  4095
  9
$ATTMODE
 70
     1
  9
$TEXTSIZE
 40
0.2
  9
$TRACEWID
 40
0.05
  9
$TEXTSTYLE
  7
STANDARD
  9
$CLAYER
  8
0
  9
$CELTYPE
  6
BYLAYER
  9
$CECOLOR
 62
   256
  9
$DIMSCALE
 40
1.0
  9
$DIMASZ
 40
0.1875
  9
$DIMEXO
 40
0.0625
  9
$DIMDLI
 40
0.4443307087
  9
$DIMRND
 40
0.0
  9
$DIMDLE
 40
0.0
  9
$DIMEXE
 40
0.125
  9
$DIMTP
 40
0.01
  9
$DIMTM
 40
0.01
  9
$DIMTXT
 40
2.0
  9
$DIMCEN
 40
0.1052362205
  9
$DIMTSZ
 40
0.0
  9
$DIMTOL
 70
     1
  9
$DIMLIM
 70
     0
  9
$DIMTIH
 70
     1
  9
$DIMTOH
 70
     1
  9
$DIMSE1
 70
     0
  9
$DIMSE2
 70
     0
  9
$DIMTAD
 70
     0
  9
$DIMZIN
 70
     0
  9
$DIMBLK
  1

  9
$DIMASO
 70
     1
  9
$DIMSHO
 70
     1
  9
$DIMPOST
  1
\X
  9
$DIMAPOST
  1

  9
$DIMALT
 70
     1
  9
$DIMALTD
 70
     2
  9
$DIMALTF
 40
25.3999999999999986
  9
$DIMLFAC
 40
1.0
  9
$DIMTOFL
 70
     0
  9
$DIMTVP
 40
0.0
  9
$DIMTIX
 70
     0
  9
$DIMSOXD
 70
     0
  9
$DIMSAH
 70
     0
  9
$DIMBLK1
  1

  9
$DIMBLK2
  1

  9
$DIMSTYLE
  2
STANDARD
  9
$DIMCLRD
 70
     0
  9
$DIMCLRE
 70
     0
  9
$DIMCLRT
 70
     0
  9
$DIMTFAC
 40
1.0
  9
$DIMGAP
 40
0.09
  9
$LUNITS
 70
     2
  9
$LUPREC
 70
     4
  9
$SKETCHINC
 40
0.1
  9
$FILLETRAD
 40
0.0
  9
$AUNITS
 70
     0
  9
$AUPREC
 70
     0
  9
$MENU
  1
.
  9
$ELEVATION
 40
0.0
  9
$PELEVATION
 40
0.0
  9
$THICKNESS
 40
0.0
  9
$LIMCHECK
 70
     0
  9
$BLIPMODE
 70
     0
  9
$CHAMFERA
 40
0.0
  9
$CHAMFERB
 40
0.0
  9
$SKPOLY
 70
     0
  9
$TDCREATE
 40
2458060.468368056230247
  9
$TDUPDATE
 40
2460307.6402083341963589
  9
$TDINDWG
 40
0.3652501157
  9
$TDUSRTIMER
 40
0.3652501157
  9
$USRTIMER
 70
     1
  9
$ANGBASE
 50
0.0
  9
$ANGDIR
 70
     0
  9
$PDMODE
 70
     0
  9
$PDSIZE
 40
0.3125
  9
$PLINEWID
 40
0.0
  9
$COORDS
 70
     1
  9
$SPLFRAME
 70
     0
  9
$SPLINETYPE
 70
     6
  9
$SPLINESEGS
 70
     8
  9
$ATTDIA
 70
     1
  9
$ATTREQ
 70
     1
  9
$HANDLING
 70
     1
  9
$HANDSEED
  5
877B
  9
$SURFTAB1
 70
     6
  9
$SURFTAB2
 70
     6
  9
$SURFTYPE
 70
     6
  9
$SURFU
 70
     6
  9
$SURFV
 70
     6
  9
$UCSNAME
  2

  9
$UCSORG
 10
0.0
 20
0.0
 30
0.0
  9
$UCSXDIR
 10
1.0
 20
0.0
 30
0.0
  9
$UCSYDIR
 10
0.0
 20
1.0
 30
0.0
  9
$PUCSNAME
  2

  9
$PUCSORG
 10
0.0
 20
0.0
 30
0.0
  9
$PUCSXDIR
 10
1.0
 20
0.0
 30
0.0
  9
$PUCSYDIR
 10
0.0
 20
1.0
 30
0.0
  9
$USERI1
 70
     0
  9
$USERI2
 70
     0
  9
$USERI3
 70
     0
  9
$USERI4
 70
     0
  9
$USERI5
 70
     0
  9
$USERR1
 40
0.0
  9
$USERR2
 40
0.0
  9
$USERR3
 40
0.0
  9
$USERR4
 40
0.0
  9
$USERR5
 40
0.0
  9
$WORLDVIEW
 70
     1
  9
$SHADEDGE
 70
     3
  9
$SHADEDIF
 70
    70
  9
$TILEMODE
 70
     1
  9
$MAXACTVP
 70
    64
  9
$PLIMCHECK
 70
     0
  9
$PEXTMIN
 10
1.0000000000000000E+20
 20
1.0000000000000000E+20
 30
1.0000000000000000E+20
  9
$PEXTMAX
 10
-1.0000000000000000E+20
 20
-1.0000000000000000E+20
 30
-1.0000000000000000E+20
  9
$PLIMMIN
 10
0.0
 20
0.0
  9
$PLIMMAX
 10
12.0
 20
9.0
  9
$UNITMODE
 70
     0
  9
$VISRETAIN
 70
     1
  9
$PLINEGEN
 70
     0
  9
$PSLTSCALE
 70
     1
  0
ENDSEC
  0
SECTION
  2
TABLES
  0
TABLE
  2
VPORT
 70
     1
  0
VPORT
  2
*ACTIVE
 70
     0
 10
0.0
 20
0.0
 11
1.0
 21
1.0
 12
271.7493141935079279
 22
18.1865149506067212
 13
0.0
 23
0.0
 14
1.0
 24
1.0
 15
0.0
 25
0.0
 16
0.0
 26
0.0
 36
17.1152628219792007
 17
3803.5440673828129547
 27
125.9952621967499056
 37
0.0
 40
5.5769749079535913
 41
2.8481203007518792
 42
50.0
 43
0.0
 44
0.0
 50
0.0
 51
0.0
 71
     0
 72
   100
 73
     1
 74
     1
 75
     0
 76
     0
 77
     0
 78
     0
  0
ENDTAB
  0
TABLE
  2
LTYPE
 70
     3
  0
LTYPE
  2
CONTINUOUS
 70
     0
  3
Solid line
 72
    65
 73
     0
 40
0.0
  0
LTYPE
  2
PHANTOM2
 70
     0
  3
___ _ _ ___ _ _ ___ _ _ ___ _ _
 72
    65
 73
     6
 40
1.25
 49
0.625
 49
-0.125
 49
0.125
 49
-0.125
 49
0.125
 49
-0.125
  0
ENDTAB
  0
TABLE
  2
LAYER
 70
     2
  0
LAYER
  2
0
 70
     0
 62
   255
  6
CONTINUOUS
  0
LAYER
  2
DEFPOINTS
 70
     0
 62
     7
  6
CONTINUOUS
  0
ENDTAB
  0
TABLE
  2
STYLE
 70
     1
  0
STYLE
  2
STANDARD
 70
     0
 40
0.0
 41
0.8
 50
0.0
 71
     0
 42
0.2
  3
txt
  4

  0
ENDTAB
  0
TABLE
  2
VIEW
 70
     0
  0
ENDTAB
  0
TABLE
  2
UCS
 70
     0
  0
ENDTAB
  0
TABLE
  2
APPID
 70
     9
  0
APPID
  2
ACAD
 70
     0
  0
APPID
  2
ACAD_MLEADERVER
 70
     0
  0
APPID
  2
ACAD_EXEMPT_FROM_CAD_STANDARDS
 70
     0
  0
APPID
  2
ACAD_NAV_VCDISPLAY
 70
     0
  0
APPID
  2
ACAECLAYERSTANDARD
 70
     0
  0
APPID
  2
ACCMTRANSPARENCY
 70
     0
  0
APPID
  2
ACAD_DSTYLE_DIMJAG
 70
     0
  0
APPID
  2
ACAD_DSTYLE_DIMTALN
 70
     0
  0
APPID
  2
ACDBATTR
 70
     0
  0
ENDTAB
  0
TABLE
  2
DIMSTYLE
 70
     2
  0
DIMSTYLE
  2
STANDARD
 70
     0
  3

  4

  5

  6

  7

 40
1.0
 41
0.1875
 42
0.0625
 43
0.38
 44
0.125
 45
0.0
 46
0.0
 47
0.01
 48
0.01
140
0.15625
141
0.09
142
0.0
143
25.3999999999999986
144
1.0
145
0.0
146
1.0
147
0.09
 71
     1
 72
     0
 73
     1
 74
     1
 75
     0
 76
     0
 77
     0
 78
     4
170
     0
171
     2
172
     0
173
     0
174
     0
175
     0
176
     0
177
     0
178
     0
  0
ENDTAB
  0
ENDSEC
  0
SECTION
  2
BLOCKS
  0
BLOCK
  8
0
  2
$MODEL_SPACE
 70
     0
 10
0.0
 20
0.0
 30
0.0
  3
$MODEL_SPACE
  1

  0
ENDBLK
  5
21
  8
0
  0
BLOCK
 67
     1
  8
0
  2
$PAPER_SPACE
 70
     0
 10
0.0
 20
0.0
 30
0.0
  3
$PAPER_SPACE
  1

  0
ENDBLK
  5
1D
 67
     1
  8
0
  0
BLOCK
  8
0
  2
_FILLED
 70
     0
 10
0.0
 20
0.0
 30
0.0
  3
_FILLED
  1

  0
SOLID
  5
857E
  8
0
  6
BYBLOCK
 62
     0
 10
0.0
 20
0.0
 30
0.0
 11
-1.0
 21
0.1666666667
 31
0.0
 12
-1.0
 22
-0.1666666667
 32
0.0
 13
-1.0
 23
-0.1666666667
 33
0.0
  0
ENDBLK
  5
857F
  8
0
  6
BYBLOCK
 62
     0
  0
ENDSEC
  0
SECTION
  2
ENTITIES
  0
ATTDEF
  5
3930
  8
DEFPOINTS
 10
4077.0299610639522143
 20
145.7895908455896006
 30
0.0
 40
0.001
  1
K-EX27063T
  3

  2
MODELNUMBER
 70
     0
1001
ACDBATTR
1070
     0
1070
     1
  0
ATTDEF
  5
3931
  8
DEFPOINTS
 10
4077.0299610639522143
 20
145.787924178922907
 30
0.0
 40
0.001
  1
OCCASION
  3

  2
TRADENAME
 70
     0
1001
ACDBATTR
1070
     0
1070
     1
  0
ATTDEF
  5
3932
  8
DEFPOINTS
 10
4077.0299610639522143
 20
145.7862575122562134
 30
0.0
 40
0.001
  1
TOWEL ARM
  3

  2
PRODUCT
 70
     0
1001
ACDBATTR
1070
     0
1070
     1
  0
LINE
  5
821A
  8
0
 10
4077.0290131762030796
 20
146.8457627791516984
 30
0.0
 11
4077.0290131762030796
 21
144.732289127362094
 31
0.0
  0
ARC
  5
821B
  8
0
 10
4076.9990131762028795
 20
144.732289127362094
 30
0.0
 40
0.03
 50
292.9999920236429034
 51
0.0
  0
LINE
  5
821C
  8
0
 10
4074.9290131762040801
 20
146.0160400315683944
 30
0.0
 11
4074.9290131762040801
 21
145.4453204420026964
 31
0.0
  0
LINE
  5
821D
  8
0
 10
4074.9915131739030585
 20
146.0462256659940863
 30
0.0
 11
4074.9586522527811212
 21
146.0459388930678983
 31
0.0
  0
LINE
  5
821E
  8
0
 10
4074.8991131762031728
 20
146.043180236790306
 30
0.0
 11
4074.3945725526828028
 21
146.043180236790306
 31
0.0
  0
LINE
  5
821F
  8
0
 10
4076.8567526322049162
 20
146.9427094645421903
 30
0.0
 11
4077.011123084394967
 21
146.8734048517709994
 31
0.0
  0
ARC
  5
8220
  8
0
 10
4075.3539809864701056
 20
147.8193803313625097
 30
0.0
 40
1.712961311786662
 50
321.5087905849172785
 51
328.7517073651317219
  0
ARC
  5
8221
  8
0
 10
4075.1707570707080777
 20
147.9650773229026015
 30
0.0
 40
1.947052355295934
 50
312.5654812421635143
 51
321.5087905849172785
  0
ARC
  5
8222
  8
0
 10
4075.0568199552808437
 20
148.0891329267018079
 30
0.0
 40
2.1154906499493009
 50
296.8403518282834739
 51
312.5654812421635143
  0
ARC
  5
8223
  8
0
 10
4075.4195693974102142
 20
147.4215704830099867
 30
0.0
 40
1.356245146294867
 50
278.7055283322678179
 51
295.8998630769424949
  0
ARC
  5
8224
  8
0
 10
4075.1500499574558489
 20
149.5628416563189091
 30
0.0
 40
3.5141141979816219
 50
270.6575057149236727
 51
277.7650395809423003
  0
ARC
  5
8225
  8
0
 10
4075.6936171712359283
 20
102.1978691747873995
 30
0.0
 40
43.8539772084929567
 50
90.6575057149237864
 51
90.9173470028825648
  0
ARC
  5
8226
  8
0
 10
4074.8991131762031728
 20
146.0132802367903082
 30
0.0
 40
0.0299
 50
0.0
 51
90.0
  0
ARC
  5
8227
  8
0
 10
4074.9589131762040779
 20
146.0160400315683944
 30
0.0
 40
0.0299
 50
90.5000000210188347
 51
180.0
  0
ARC
  5
8228
  8
0
 10
4076.8443427240140409
 20
146.9150673919228893
 30
0.0
 40
0.0303
 50
65.8223044512649125
 51
148.7517073651316935
  0
ARC
  5
8229
  8
0
 10
4076.9987131762031822
 20
146.8457627791516984
 30
0.0
 40
0.0303
 50
359.9999999999836859
 51
65.8223044512920126
  0
ARC
  5
822A
  8
0
 10
4074.4442310428039491
 20
146.0323536752902953
 30
0.0
 40
0.9507375086999791
 50
199.9616329454395895
 51
232.0383619393830941
  0
ARC
  5
822B
  8
0
 10
4073.6069384251441079
 20
145.7306802418227107
 30
0.0
 40
0.0608030031254874
 50
157.875443877502704
 51
202.1244703309162105
  0
ARC
  5
822C
  8
0
 10
4074.4442349173068578
 20
145.4290039832985997
 30
0.0
 40
0.9507421114419711
 50
127.9617125359515057
 51
160.0382812629802913
  0
ARC
  5
822D
  8
0
 10
4073.8985800768400622
 20
146.1321120469974062
 30
0.0
 40
0.0607885211097668
 50
85.8699445090005753
 51
130.1300148411040141
  0
ARC
  5
822E
  8
0
 10
4073.8704118826772174
 20
145.2425556469349033
 30
0.0
 40
0.9507442922840796
 50
55.9617502807786309
 51
88.0382468141422549
  0
ARC
  5
822F
  8
0
 10
4074.3704922351421374
 20
145.9787792928017893
 30
0.0
 40
0.0607876457211057
 50
13.8696122760452205
 51
58.1303496715933932
  0
ARC
  5
8230
  8
0
 10
4073.5157664850321453
 20
145.730680236790505
 30
0.0
 40
0.9507463337649715
 50
343.9617856990902283
 51
16.0382116668565295
  0
ARC
  5
8231
  8
0
 10
4074.3704892922760337
 20
145.4825833132667867
 30
0.0
 40
0.060791012331631
 50
301.8708993497947972
 51
346.1290601637231248
  0
ARC
  5
8232
  8
0
 10
4073.8704105277211056
 20
146.2188089967912958
 30
0.0
 40
0.9507485063235076
 50
271.9618234101399139
 51
304.0381738144063775
  0
ARC
  5
8233
  8
0
 10
4073.8985808078700757
 20
145.3292506983445094
 30
0.0
 40
0.0607907325382462
 50
229.8707561275234923
 51
274.1291706281527922
  0
ARC
  5
8234
  8
0
 10
4073.9172707900052046
 20
145.3867724723064896
 30
0.0
 40
0.0701141708453503
 50
236.2769135946057872
 51
267.7226319122790983
  0
ARC
  5
8235
  8
0
 10
4074.4442310503609406
 20
146.032353682574211
 30
0.0
 40
0.9031603546121022
 50
200.7969404076389139
 51
231.2030526873647034
  0
ARC
  5
8236
  8
0
 10
4073.6674066957079958
 20
145.7306802321411965
 30
0.0
 40
0.0701137286354366
 50
164.2771672055010868
 51
195.7230795003864898
  0
ARC
  5
8237
  8
0
 10
4074.4442307460171833
 20
145.4290070843958915
 30
0.0
 40
0.9031599359262841
 50
128.7969371812637007
 51
159.2030897654204864
  0
ARC
  5
8238
  8
0
 10
4073.917271146011899
 20
146.0745871589828937
 30
0.0
 40
0.0701150791180567
 50
92.277252902860937
 51
123.7228597411828019
  0
ARC
  5
8239
  8
0
 10
4073.8704137140020975
 20
145.2425616333829907
 30
0.0
 40
0.9031611445385316
 50
56.7969472116744782
 51
87.2030367421331221
  0
ARC
  5
823A
  8
0
 10
4074.3215574316568564
 20
145.9432259568511085
 30
0.0
 40
0.0701156493508123
 50
20.2773873412159311
 51
51.7227310509527314
  0
ARC
  5
823B
  8
0
 10
4073.5157749035638517
 20
145.7306803469402041
 30
0.0
 40
0.903161111266373
 50
344.7969464565018143
 51
15.2030373645112906
  0
ARC
  5
823C
  8
0
 10
4074.3215572141498342
 20
145.5181345676816989
 30
0.0
 40
0.0701158172453449
 50
308.2773294795750871
 51
339.7225964797996767
  0
ARC
  5
823D
  8
0
 10
4073.8704142765291181
 20
146.2187976778396035
 30
0.0
 40
0.9031598628507636
 50
272.7969022362158853
 51
303.2030591556326726
  0
LINE
  5
823E
  8
0
 10
4074.2687998053438605
 20
142.5583402367902863
 30
0.0
 11
4073.7892174143507873
 21
142.5583402367902863
 31
0.0
  0
LINE
  5
823F
  8
0
 10
4074.3415131762039891
 20
145.3929851554852917
 30
0.0
 11
4074.3415131762039891
 21
141.7306869027902962
 31
0.0
  0
LINE
  5
8240
  8
0
 10
4073.7165131762030796
 20
145.4205297487557118
 30
0.0
 11
4073.7165131762030796
 21
141.7306869027902962
 31
0.0
  0
LINE
  5
8241
  8
0
 10
4073.7676784972759378
 20
142.5495163665038092
 30
0.0
 11
4073.7256742591289367
 21
142.5081596085175022
 31
0.0
  0
LINE
  5
8242
  8
0
 10
4074.2903345395038741
 20
142.5495204841535895
 30
0.0
 11
4074.3323479103628415
 21
142.5081705506912044
 31
0.0
  0
ARC
  5
8243
  8
0
 10
4074.2687998053438605
 20
142.5276402367902904
 30
0.0
 40
0.0307
 50
45.4559723330488978
 51
90.0
  0
ARC
  5
8244
  8
0
 10
4073.7892174143507873
 20
142.5276402367902904
 30
0.0
 40
0.0307
 50
90.0
 51
134.5549821111326878
  0
ARC
  5
8245
  8
0
 10
4073.7472131762028766
 20
142.4862834788040118
 30
0.0
 40
0.0307
 50
134.5549821111349047
 51
180.0000000000032117
  0
ARC
  5
8246
  8
0
 10
4074.3108131762028279
 20
142.4862903033279053
 30
0.0
 40
0.0307
 50
0.0
 51
45.4559723330454801
  0
ARC
  5
8247
  8
0
 10
4074.0290131762030796
 20
141.7306869027902962
 30
0.0
 40
0.3125
 50
180.0
 51
0.0
  0
LINE
  5
8248
  8
0
 10
4073.7256742591289367
 20
142.5081596085175022
 30
0.0
 11
4074.3323590224508735
 21
142.5081596085175022
 31
0.0
  0
ARC
  5
8249
  8
0
 10
4075.442834256767128
 20
143.6697929029334944
 30
0.0
 40
1.6883452726772941
 50
35.4340048045345597
 51
57.6317020466223866
  0
ARC
  5
824A
  8
0
 10
4075.2513504550861398
 20
143.4760295076225987
 30
0.0
 40
1.955375565758886
 50
55.9319912292426125
 51
69.1180907372578446
  0
ARC
  5
824B
  8
0
 10
4075.4050821291280045
 20
143.809694902427907
 30
0.0
 40
1.589021716316162
 50
70.0087925793581434
 51
83.1329761246868202
  0
ARC
  5
824C
  8
0
 10
4075.59623004257719
 20
145.4027738403387104
 30
0.0
 40
0.0154995087878139
 50
241.2302583394125008
 51
265.723388784184408
  0
ARC
  5
824D
  8
0
 10
4075.4693558215749363
 20
145.143886682314502
 30
0.0
 40
0.2728229080025594
 50
64.0428081139973386
 51
106.0870550512481998
  0
ARC
  5
824E
  8
0
 10
4075.3901041147510114
 20
145.4166965222640044
 30
0.0
 40
0.0112782266888316
 50
270.3913387799590282
 51
288.8996048258586029
  0
ARC
  5
824F
  8
0
 10
4074.9746149190041251
 20
136.5380391050597098
 30
0.0
 40
8.8771117861038764
 50
87.3168191784492791
 51
89.8909330616993429
  0
LINE
  5
8250
  8
0
 10
4074.9915131762040801
 20
145.4151348075903059
 30
0.0
 11
4074.958652252812044
 21
145.4154215805029082
 31
0.0
  0
LINE
  5
8251
  8
0
 10
4074.8991131762031728
 20
145.418180236790306
 30
0.0
 11
4074.3945724749719375
 21
145.418180236790306
 31
0.0
  0
ARC
  5
8252
  8
0
 10
4074.9589131762040779
 20
145.4453204420026964
 30
0.0
 40
0.0299
 50
180.0000000000098055
 51
269.5000000372687055
  0
ARC
  5
8253
  8
0
 10
4074.8991131762031728
 20
145.4480802367903038
 30
0.0
 40
0.0299
 50
270.0
 51
0.0000000000032569
  0
ARC
  5
8254
  8
0
 10
4074.394572474972847
 20
145.3787802367901918
 30
0.0
 40
0.0394
 50
90.0000000000260485
 51
121.9633778044516959
  0
ARC
  5
8255
  8
0
 10
4074.3945725526828028
 20
146.0825802367905055
 30
0.0
 40
0.0394
 50
238.0365571551425035
 51
269.9999999999739089
  0
LINE
  5
8256
  8
0
 10
4077.010735106213815
 20
144.7046739801266995
 30
0.0
 11
4076.8546361658200112
 21
144.6384139367391128
 31
0.0
  0
ARC
  5
8257
  8
0
 10
4076.8429142358099853
 20
144.6660290839745073
 30
0.0
 40
0.03
 50
215.4340048045008871
 51
292.9999920236442108
  0
ARC
  5
8258
  8
0
 10
4074.8494729667850152
 20
206.2926668719981933
 30
0.0
 40
60.4646368536607568
 50
270.0753716527913184
 51
270.3010307523048823
  0
ARC
  5
8259
  8
0
 10
4075.0891796169821646
 20
160.6692450171568112
 30
0.0
 40
14.8405852906642099
 50
270.3010307523048823
 51
272.1111663898794859
  0
ARC
  5
825A
  8
0
 10
4075.526365728554083
 20
148.8096483736925109
 30
0.0
 40
2.9729332801854689
 50
272.1111663898794859
 51
284.0980322091168091
  0
ARC
  5
825B
  8
0
 10
4075.1184387954931481
 20
150.4339096639374986
 30
0.0
 40
4.647635976697666
 50
284.0980322091168091
 51
291.657650689495199
  0
LINE
  5
825C
  8
0
 10
4076.8488923412842269
 20
146.116203503506398
 30
0.0
 11
4077.0031388467400575
 21
146.0947876824955074
 31
0.0
  0
ARC
  5
825D
  8
0
 10
4076.8447666707479584
 20
146.08648854359339
 30
0.0
 40
0.03
 50
82.0954993547043159
 51
111.6576506894674026
  0
ARC
  5
825E
  8
0
 10
4076.9990131762028795
 20
146.0650727225824994
 30
0.0
 40
0.03
 50
359.9999999999902229
 51
82.095499354704117
  0
LINE
  5
825F
  8
0
 10
4076.8567526322049162
 20
146.9427094645421903
 30
0.0
 11
4076.8567526322049162
 21
144.6393123230712092
 31
0.0
  0
LINE
  5
8261
  8
0
 10
4073.8797954014598872
 20
145.271435288040891
 30
0.0
 11
4073.8956040551911428
 21
145.3200900191735059
 31
0.0
  0
LINE
  5
8262
  8
0
 10
4074.4196702417330016
 20
145.4468512353701044
 30
0.0
 11
4074.3782820894430188
 21
145.4769215072406894
 31
0.0
  0
LINE
  5
8263
  8
0
 10
4074.3782821409731696
 20
145.9844389601005048
 30
0.0
 11
4074.4196705653707795
 21
146.0145092481361928
 31
0.0
  0
LINE
  5
8264
  8
0
 10
4073.8956043294529081
 20
146.1412705405701047
 30
0.0
 11
4073.8797955481268218
 21
146.1899254172481903
 31
0.0
  0
LINE
  5
8265
  8
0
 10
4073.5972929670738267
 20
145.730680081192304
 30
0.0
 11
4073.5461354220187786
 21
145.7306802873441995
 31
0.0
  0
LINE
  5
8266
  8
0
 10
4074.0290166407899051
 20
142.5081596085175022
 30
0.0
 11
4074.0290166407899051
 21
141.4181869028095093
 31
0.0
  0
LINE
  5
8626
  8
0
 10
4075.399359938816815
 20
145.4075776293109072
 30
0.0
 11
4075.4148399500040796
 21
145.3920976177251987
 31
0.0
  0
LINE
  5
8627
  8
0
 10
4075.4148399500040796
 20
145.3920976177251987
 30
0.0
 11
4075.5723202606041013
 21
145.3920976177251987
 31
0.0
  0
LINE
  5
8628
  8
0
 10
4075.5723202606041013
 20
145.3920976177251987
 30
0.0
 11
4075.575455916537976
 21
145.395233273658306
 31
0.0
  0
ENDSEC
  0
EOF
