  0
SECTION
  2
HEADER
  9
$ACADVER
  1
AC1009
  9
$INSBASE
 10
3207.2725156786709704
 20
195.382645711984793
 30
0.0
  9
$EXTMIN
 10
3205.9162295419309885
 20
193.3497774295964007
 30
0.0
  9
$EXTMAX
 10
3208.6288018154109523
 20
196.7317457119847859
 30
0.0
  9
$LIMMIN
 10
0.0
 20
0.0
  9
$LIMMAX
 10
11.6929133858000007
 20
8.2677165353999982
  9
$ORTHOMODE
 70
     0
  9
$REGENMODE
 70
     1
  9
$FILLMODE
 70
     1
  9
$QTEXTMODE
 70
     0
  9
$MIRRTEXT
 70
     0
  9
$DRAGMODE
 70
     2
  9
$LTSCALE
 40
0.6431102362
  9
$OSMODE
 70
  2039
  9
$ATTMODE
 70
     1
  9
$TEXTSIZE
 40
0.2
  9
$TRACEWID
 40
0.05
  9
$TEXTSTYLE
  7
STANDARD
  9
$CLAYER
  8
0
  9
$CELTYPE
  6
BYLAYER
  9
$CECOLOR
 62
   256
  9
$DIMSCALE
 40
1.0
  9
$DIMASZ
 40
0.1875
  9
$DIMEXO
 40
0.0625
  9
$DIMDLI
 40
0.4443307087
  9
$DIMRND
 40
0.0
  9
$DIMDLE
 40
0.0
  9
$DIMEXE
 40
0.125
  9
$DIMTP
 40
0.01
  9
$DIMTM
 40
0.01
  9
$DIMTXT
 40
2.0
  9
$DIMCEN
 40
0.1052362205
  9
$DIMTSZ
 40
0.0
  9
$DIMTOL
 70
     1
  9
$DIMLIM
 70
     0
  9
$DIMTIH
 70
     1
  9
$DIMTOH
 70
     1
  9
$DIMSE1
 70
     0
  9
$DIMSE2
 70
     0
  9
$DIMTAD
 70
     0
  9
$DIMZIN
 70
     0
  9
$DIMBLK
  1

  9
$DIMASO
 70
     1
  9
$DIMSHO
 70
     1
  9
$DIMPOST
  1
\X
  9
$DIMAPOST
  1

  9
$DIMALT
 70
     1
  9
$DIMALTD
 70
     2
  9
$DIMALTF
 40
25.3999999999999986
  9
$DIMLFAC
 40
1.0
  9
$DIMTOFL
 70
     0
  9
$DIMTVP
 40
0.0
  9
$DIMTIX
 70
     0
  9
$DIMSOXD
 70
     0
  9
$DIMSAH
 70
     0
  9
$DIMBLK1
  1

  9
$DIMBLK2
  1

  9
$DIMSTYLE
  2
STANDARD
  9
$DIMCLRD
 70
     0
  9
$DIMCLRE
 70
     0
  9
$DIMCLRT
 70
     0
  9
$DIMTFAC
 40
1.0
  9
$DIMGAP
 40
0.09
  9
$LUNITS
 70
     2
  9
$LUPREC
 70
     4
  9
$SKETCHINC
 40
0.1
  9
$FILLETRAD
 40
0.0
  9
$AUNITS
 70
     0
  9
$AUPREC
 70
     0
  9
$MENU
  1
.
  9
$ELEVATION
 40
0.0
  9
$PELEVATION
 40
0.0
  9
$THICKNESS
 40
0.0
  9
$LIMCHECK
 70
     0
  9
$BLIPMODE
 70
     0
  9
$CHAMFERA
 40
0.0
  9
$CHAMFERB
 40
0.0
  9
$SKPOLY
 70
     0
  9
$TDCREATE
 40
2458060.468368056230247
  9
$TDUPDATE
 40
2459341.4095833338797092
  9
$TDINDWG
 40
0.4086413194
  9
$TDUSRTIMER
 40
0.4086413194
  9
$USRTIMER
 70
     1
  9
$ANGBASE
 50
0.0
  9
$ANGDIR
 70
     0
  9
$PDMODE
 70
     0
  9
$PDSIZE
 40
0.3125
  9
$PLINEWID
 40
0.0
  9
$COORDS
 70
     1
  9
$SPLFRAME
 70
     0
  9
$SPLINETYPE
 70
     6
  9
$SPLINESEGS
 70
     8
  9
$ATTDIA
 70
     1
  9
$ATTREQ
 70
     1
  9
$HANDLING
 70
     1
  9
$HANDSEED
  5
9046
  9
$SURFTAB1
 70
     6
  9
$SURFTAB2
 70
     6
  9
$SURFTYPE
 70
     6
  9
$SURFU
 70
     6
  9
$SURFV
 70
     6
  9
$UCSNAME
  2

  9
$UCSORG
 10
0.0
 20
0.0
 30
0.0
  9
$UCSXDIR
 10
1.0
 20
0.0
 30
0.0
  9
$UCSYDIR
 10
0.0
 20
1.0
 30
0.0
  9
$PUCSNAME
  2

  9
$PUCSORG
 10
0.0
 20
0.0
 30
0.0
  9
$PUCSXDIR
 10
1.0
 20
0.0
 30
0.0
  9
$PUCSYDIR
 10
0.0
 20
1.0
 30
0.0
  9
$USERI1
 70
     0
  9
$USERI2
 70
     0
  9
$USERI3
 70
     0
  9
$USERI4
 70
     0
  9
$USERI5
 70
     0
  9
$USERR1
 40
0.0
  9
$USERR2
 40
0.0
  9
$USERR3
 40
0.0
  9
$USERR4
 40
0.0
  9
$USERR5
 40
0.0
  9
$WORLDVIEW
 70
     1
  9
$SHADEDGE
 70
     3
  9
$SHADEDIF
 70
    70
  9
$TILEMODE
 70
     1
  9
$MAXACTVP
 70
    64
  9
$PLIMCHECK
 70
     0
  9
$PEXTMIN
 10
1.0000000000000000E+20
 20
1.0000000000000000E+20
 30
1.0000000000000000E+20
  9
$PEXTMAX
 10
-1.0000000000000000E+20
 20
-1.0000000000000000E+20
 30
-1.0000000000000000E+20
  9
$PLIMMIN
 10
0.0
 20
0.0
  9
$PLIMMAX
 10
12.0
 20
9.0
  9
$UNITMODE
 70
     0
  9
$VISRETAIN
 70
     1
  9
$PLINEGEN
 70
     0
  9
$PSLTSCALE
 70
     1
  0
ENDSEC
  0
SECTION
  2
TABLES
  0
TABLE
  2
VPORT
 70
     1
  0
VPORT
  2
*ACTIVE
 70
     0
 10
0.0
 20
0.0
 11
1.0
 21
1.0
 12
-0.000067329141757
 22
-0.0000099135844209
 13
0.0
 23
0.0
 14
1.0
 24
1.0
 15
0.0
 25
0.0
 16
0.0
 26
0.0
 36
12.3715646525850804
 17
3207.2725830078129547
 27
195.040771484375
 37
0.0
 40
3.4101122625469849
 41
2.6486111111111108
 42
50.0
 43
0.0
 44
0.0
 50
0.0
 51
0.0
 71
     0
 72
   100
 73
     1
 74
     1
 75
     0
 76
     0
 77
     0
 78
     0
  0
ENDTAB
  0
TABLE
  2
LTYPE
 70
     2
  0
LTYPE
  2
CONTINUOUS
 70
     0
  3
Solid line
 72
    65
 73
     0
 40
0.0
  0
LTYPE
  2
PHANTOM2
 70
     0
  3
___ _ _ ___ _ _ ___ _ _ ___ _ _
 72
    65
 73
     6
 40
1.25
 49
0.625
 49
-0.125
 49
0.125
 49
-0.125
 49
0.125
 49
-0.125
  0
ENDTAB
  0
TABLE
  2
LAYER
 70
     2
  0
LAYER
  2
0
 70
     0
 62
   255
  6
CONTINUOUS
  0
LAYER
  2
DEFPOINTS
 70
     0
 62
     7
  6
CONTINUOUS
  0
ENDTAB
  0
TABLE
  2
STYLE
 70
     1
  0
STYLE
  2
STANDARD
 70
     0
 40
0.0
 41
0.8
 50
0.0
 71
     0
 42
0.2
  3
txt
  4

  0
ENDTAB
  0
TABLE
  2
VIEW
 70
     0
  0
ENDTAB
  0
TABLE
  2
UCS
 70
     0
  0
ENDTAB
  0
TABLE
  2
APPID
 70
     9
  0
APPID
  2
ACAD
 70
     0
  0
APPID
  2
ACAD_MLEADERVER
 70
     0
  0
APPID
  2
ACAD_EXEMPT_FROM_CAD_STANDARDS
 70
     0
  0
APPID
  2
ACAD_NAV_VCDISPLAY
 70
     0
  0
APPID
  2
ACAECLAYERSTANDARD
 70
     0
  0
APPID
  2
ACCMTRANSPARENCY
 70
     0
  0
APPID
  2
ACAD_DSTYLE_DIMJAG
 70
     0
  0
APPID
  2
ACAD_DSTYLE_DIMTALN
 70
     0
  0
APPID
  2
ACDBATTR
 70
     0
  0
ENDTAB
  0
TABLE
  2
DIMSTYLE
 70
     1
  0
DIMSTYLE
  2
STANDARD
 70
     0
  3

  4

  5

  6

  7

 40
1.0
 41
0.1875
 42
0.0625
 43
0.38
 44
0.125
 45
0.0
 46
0.0
 47
0.01
 48
0.01
140
0.15625
141
0.09
142
0.0
143
25.3999999999999986
144
1.0
145
0.0
146
1.0
147
0.09
 71
     1
 72
     0
 73
     1
 74
     1
 75
     0
 76
     0
 77
     0
 78
     4
170
     0
171
     2
172
     0
173
     0
174
     0
175
     0
176
     0
177
     0
178
     0
  0
ENDTAB
  0
ENDSEC
  0
SECTION
  2
BLOCKS
  0
BLOCK
  8
0
  2
$MODEL_SPACE
 70
     0
 10
0.0
 20
0.0
 30
0.0
  3
$MODEL_SPACE
  1

  0
ENDBLK
  5
21
  8
0
  0
BLOCK
 67
     1
  8
0
  2
$PAPER_SPACE
 70
     0
 10
0.0
 20
0.0
 30
0.0
  3
$PAPER_SPACE
  1

  0
ENDBLK
  5
1D
 67
     1
  8
0
  0
ENDSEC
  0
SECTION
  2
ENTITIES
  0
ATTDEF
  5
3930
  8
DEFPOINTS
 10
3207.2741699958651225
 20
195.3871878343171034
 30
0.0
 40
0.001
  1
K-EX27073T
  3

  2
MODELNUMBER
 70
     0
1001
ACDBATTR
1070
     0
1070
     1
  0
ATTDEF
  5
3931
  8
DEFPOINTS
 10
3207.2741699958651225
 20
195.3855211676504098
 30
0.0
 40
0.001
  1
OCCASSION
  3

  2
TRADENAME
 70
     0
1001
ACDBATTR
1070
     0
1070
     1
  0
ATTDEF
  5
3932
  8
DEFPOINTS
 10
3207.2741699958651225
 20
195.3838545009836878
 30
0.0
 40
0.001
  1
SOAP DISPENSER
  3

  2
PRODUCT
 70
     0
1001
ACDBATTR
1070
     0
1070
     1
  0
CIRCLE
  5
8DCB
  8
0
 10
3207.2725162638721486
 20
195.3182898392090863
 30
0.0
 40
0.3937007874000002
  0
ARC
  5
8DCC
  8
0
 10
3207.2725162638721486
 20
195.3182898392090863
 30
0.0
 40
0.6889763780000006
 50
278.2132107053300274
 51
261.7867892946699726
  0
ARC
  5
8DCD
  8
0
 10
3206.4520757346940627
 20
195.5848662128142905
 30
0.0
 40
0.2370114795334944
 50
145.2061104763043033
 51
178.919874923862011
  0
ARC
  5
8DCE
  8
0
 10
3207.7178482387548684
 20
194.7053429990411928
 30
0.0
 40
1.778355411169767
 50
106.8104348073131007
 51
145.2064123346009126
  0
ARC
  5
8DCF
  8
0
 10
3207.9929490585000167
 20
195.5523955810936911
 30
0.0
 40
1.778226384861348
 50
178.8097301394938086
 51
217.1915279379628032
  0
ARC
  5
8DD0
  8
0
 10
3206.7653825795550802
 20
194.6202383241908933
 30
0.0
 40
0.2368521683486921
 50
217.0624828050318911
 51
250.9256020374994023
  0
ARC
  5
8DD1
  8
0
 10
3207.2724994578861697
 20
196.0758714945083909
 30
0.0
 40
1.778291024954642
 50
250.810285208180602
 51
266.8277030183235752
  0
LINE
  5
8DD2
  8
0
 10
3207.1740910669718687
 20
194.9370906909747134
 30
0.0
 11
3207.1740910669718687
 21
193.4066117160089959
 31
0.0
  0
LINE
  5
8DD3
  8
0
 10
3207.3709414607719737
 20
194.9370906909747134
 30
0.0
 11
3207.3709414607719737
 21
193.4066117160089959
 31
0.0
  0
ARC
  5
8DD4
  8
0
 10
3207.2110084655159881
 20
193.40713892132149
 30
0.0
 40
0.0369211627757121
 50
180.8181667008753948
 51
218.0547597644705036
  0
ARC
  5
8DD5
  8
0
 10
3207.2709229307070018
 20
193.4996025368903929
 30
0.0
 40
0.1498251072940471
 50
245.9736307748119089
 51
270.6093303610225007
  0
ARC
  5
8DD6
  8
0
 10
3207.2392905240089931
 20
193.4296926888092969
 30
0.0
 40
0.0730942691214522
 50
218.3101947254504012
 51
246.3086786973917981
  0
ARC
  5
8DD7
  8
0
 10
3207.3340240622910642
 20
193.4071389212903966
 30
0.0
 40
0.0369211627116769
 50
321.9452402192231943
 51
359.181833346125984
  0
ARC
  5
8DD8
  8
0
 10
3207.274109597043207
 20
193.4996025368903929
 30
0.0
 40
0.1498251072940471
 50
269.3906696389773856
 51
294.0263692251880911
  0
ARC
  5
8DD9
  8
0
 10
3207.3057420037421252
 20
193.4296926888092969
 30
0.0
 40
0.0730942691214522
 50
293.6913213026081735
 51
321.6898052745495988
  0
ARC
  5
8DDA
  8
0
 10
3206.2434620053481922
 20
195.649688205235492
 30
0.0
 40
0.3285132883103162
 50
145.0928038052983027
 51
174.9388728937969972
  0
ARC
  5
8DDB
  8
0
 10
3208.1868003124927782
 20
194.0597178950827981
 30
0.0
 40
2.838554261592344
 50
110.5950509747444954
 51
141.2177975033879989
  0
ARC
  5
8DDC
  8
0
 10
3208.7175891668662189
 20
195.7874534585855031
 30
0.0
 40
2.8034710222863501
 50
182.2238313147765894
 51
213.5914546736410102
  0
ARC
  5
8DDD
  8
0
 10
3206.5878821677310953
 20
194.3757794435501012
 30
0.0
 40
0.2483952573561343
 50
214.1375610864895123
 51
255.8900661849407925
  0
ARC
  5
8DDE
  8
0
 10
3207.2814268825050021
 20
196.8932758034202095
 30
0.0
 40
2.8596192701652621
 50
254.7099115664026101
 51
267.8488974831694804
  0
ARC
  5
8DDF
  8
0
 10
3208.0929567930497797
 20
195.5848662128142905
 30
0.0
 40
0.2370114795334944
 50
1.080125076137985
 51
34.7938895236956824
  0
ARC
  5
8DE0
  8
0
 10
3206.8271845542071787
 20
194.7053432586941142
 30
0.0
 40
1.778355045205122
 50
34.7935856713797875
 51
73.189615696424724
  0
ARC
  5
8DE1
  8
0
 10
3206.5520834692438257
 20
195.5523955810936911
 30
0.0
 40
1.778226384861348
 50
322.8084720620373105
 51
1.1902698605062341
  0
ARC
  5
8DE2
  8
0
 10
3207.779649948189217
 20
194.6202383241908933
 30
0.0
 40
0.2368521683486921
 50
289.0743979625005977
 51
322.9375171949681089
  0
ARC
  5
8DE3
  8
0
 10
3207.2725330698581274
 20
196.0758714945083909
 30
0.0
 40
1.778291024954642
 50
273.1722969816764248
 51
289.1897147918194264
  0
ARC
  5
8DE4
  8
0
 10
3208.3546899517878046
 20
195.6690074865711892
 30
0.0
 40
0.2742820840418987
 50
2.0186787015840491
 51
37.9488996578540565
  0
ARC
  5
8DE5
  8
0
 10
3206.35832996422414
 20
194.0598206776151073
 30
0.0
 40
2.838413684105495
 50
38.7818210625003701
 51
69.4060744598704247
  0
ARC
  5
8DE6
  8
0
 10
3205.8274576408489338
 20
195.7874465709085996
 30
0.0
 40
2.8034553162908118
 50
326.408501116228706
 51
357.776297093621281
  0
ARC
  5
8DE7
  8
0
 10
3207.9571503600141114
 20
194.3757794435501012
 30
0.0
 40
0.2483952573561343
 50
284.1099338150592075
 51
325.8624389135105162
  0
ARC
  5
8DE8
  8
0
 10
3207.2636056452402045
 20
196.8932758034202095
 30
0.0
 40
2.8596192701652621
 50
272.1511025168305196
 51
285.2900884335974183
  0
ARC
  5
8DE9
  8
0
 10
3207.27250171937294
 20
196.4862048463866984
 30
0.0
 40
0.2455408655980974
 50
69.9406944499601337
 51
110.0530462017549951
  0
ARC
  5
8DEA
  8
0
 10
3207.2725161893940822
 20
196.180946713595489
 30
0.0
 40
0.237016569987364
 50
73.0805887495935877
 51
106.9197124947691009
  0
LINE
  5
8DEB
  8
0
 10
3207.27250171937294
 20
196.7317457119847859
 30
0.0
 11
3207.2725162640717826
 21
196.4179632844090122
 31
0.0
  0
LINE
  5
8DEC
  8
0
 10
3205.9347294449698893
 20
195.761961028120794
 30
0.0
 11
3206.2265840360078073
 21
195.6578589196737994
 31
0.0
  0
LINE
  5
8DED
  8
0
 10
3206.6263443145589918
 20
194.4284902850394872
 30
0.0
 11
3206.4454575614690839
 21
194.1722716171447871
 31
0.0
  0
LINE
  5
8DEE
  8
0
 10
3208.6124573337278889
 20
195.7627445573301941
 30
0.0
 11
3208.3184484917351256
 21
195.6578589196737994
 31
0.0
  0
LINE
  5
8DEF
  8
0
 10
3207.9188880832239192
 20
194.4286353716993005
 30
0.0
 11
3208.0995749662752132
 21
194.1722716171447871
 31
0.0
  0
ENDSEC
  0
EOF
