  0
SECTION
  2
HEADER
  9
$ACADVER
  1
AC1009
  9
$INSBASE
 10
3216.598046272690226
 20
185.66518180948799
 30
0.0
  9
$EXTMIN
 10
3214.5651524005120336
 20
185.6651818094784119
 30
0.0
  9
$EXTMAX
 10
3217.9471524005120955
 20
194.7525736831626944
 30
0.0
  9
$LIMMIN
 10
0.0
 20
0.0
  9
$LIMMAX
 10
11.6929133858000007
 20
8.2677165353999982
  9
$ORTHOMODE
 70
     0
  9
$REGENMODE
 70
     1
  9
$FILLMODE
 70
     1
  9
$QTEXTMODE
 70
     0
  9
$MIRRTEXT
 70
     0
  9
$DRAGMODE
 70
     2
  9
$LTSCALE
 40
0.6431102362
  9
$OSMODE
 70
  2039
  9
$ATTMODE
 70
     1
  9
$TEXTSIZE
 40
0.2
  9
$TRACEWID
 40
0.05
  9
$TEXTSTYLE
  7
STANDARD
  9
$CLAYER
  8
0
  9
$CELTYPE
  6
BYLAYER
  9
$CECOLOR
 62
   256
  9
$DIMSCALE
 40
1.0
  9
$DIMASZ
 40
0.1875
  9
$DIMEXO
 40
0.0625
  9
$DIMDLI
 40
0.4443307087
  9
$DIMRND
 40
0.0
  9
$DIMDLE
 40
0.0
  9
$DIMEXE
 40
0.125
  9
$DIMTP
 40
0.01
  9
$DIMTM
 40
0.01
  9
$DIMTXT
 40
2.0
  9
$DIMCEN
 40
0.1052362205
  9
$DIMTSZ
 40
0.0
  9
$DIMTOL
 70
     1
  9
$DIMLIM
 70
     0
  9
$DIMTIH
 70
     1
  9
$DIMTOH
 70
     1
  9
$DIMSE1
 70
     0
  9
$DIMSE2
 70
     0
  9
$DIMTAD
 70
     0
  9
$DIMZIN
 70
     0
  9
$DIMBLK
  1

  9
$DIMASO
 70
     1
  9
$DIMSHO
 70
     1
  9
$DIMPOST
  1
\X
  9
$DIMAPOST
  1

  9
$DIMALT
 70
     1
  9
$DIMALTD
 70
     2
  9
$DIMALTF
 40
25.3999999999999986
  9
$DIMLFAC
 40
1.0
  9
$DIMTOFL
 70
     0
  9
$DIMTVP
 40
0.0
  9
$DIMTIX
 70
     0
  9
$DIMSOXD
 70
     0
  9
$DIMSAH
 70
     0
  9
$DIMBLK1
  1

  9
$DIMBLK2
  1

  9
$DIMSTYLE
  2
STANDARD
  9
$DIMCLRD
 70
     0
  9
$DIMCLRE
 70
     0
  9
$DIMCLRT
 70
     0
  9
$DIMTFAC
 40
1.0
  9
$DIMGAP
 40
0.09
  9
$LUNITS
 70
     2
  9
$LUPREC
 70
     4
  9
$SKETCHINC
 40
0.1
  9
$FILLETRAD
 40
0.0
  9
$AUNITS
 70
     0
  9
$AUPREC
 70
     0
  9
$MENU
  1
.
  9
$ELEVATION
 40
0.0
  9
$PELEVATION
 40
0.0
  9
$THICKNESS
 40
0.0
  9
$LIMCHECK
 70
     0
  9
$BLIPMODE
 70
     0
  9
$CHAMFERA
 40
0.0
  9
$CHAMFERB
 40
0.0
  9
$SKPOLY
 70
     0
  9
$TDCREATE
 40
2458060.468368056230247
  9
$TDUPDATE
 40
2459341.4094097218476236
  9
$TDINDWG
 40
0.4095556713
  9
$TDUSRTIMER
 40
0.4095556713
  9
$USRTIMER
 70
     1
  9
$ANGBASE
 50
0.0
  9
$ANGDIR
 70
     0
  9
$PDMODE
 70
     0
  9
$PDSIZE
 40
0.3125
  9
$PLINEWID
 40
0.0
  9
$COORDS
 70
     1
  9
$SPLFRAME
 70
     0
  9
$SPLINETYPE
 70
     6
  9
$SPLINESEGS
 70
     8
  9
$ATTDIA
 70
     1
  9
$ATTREQ
 70
     1
  9
$HANDLING
 70
     1
  9
$HANDSEED
  5
90AA
  9
$SURFTAB1
 70
     6
  9
$SURFTAB2
 70
     6
  9
$SURFTYPE
 70
     6
  9
$SURFU
 70
     6
  9
$SURFV
 70
     6
  9
$UCSNAME
  2

  9
$UCSORG
 10
0.0
 20
0.0
 30
0.0
  9
$UCSXDIR
 10
1.0
 20
0.0
 30
0.0
  9
$UCSYDIR
 10
0.0
 20
1.0
 30
0.0
  9
$PUCSNAME
  2

  9
$PUCSORG
 10
0.0
 20
0.0
 30
0.0
  9
$PUCSXDIR
 10
1.0
 20
0.0
 30
0.0
  9
$PUCSYDIR
 10
0.0
 20
1.0
 30
0.0
  9
$USERI1
 70
     0
  9
$USERI2
 70
     0
  9
$USERI3
 70
     0
  9
$USERI4
 70
     0
  9
$USERI5
 70
     0
  9
$USERR1
 40
0.0
  9
$USERR2
 40
0.0
  9
$USERR3
 40
0.0
  9
$USERR4
 40
0.0
  9
$USERR5
 40
0.0
  9
$WORLDVIEW
 70
     1
  9
$SHADEDGE
 70
     3
  9
$SHADEDIF
 70
    70
  9
$TILEMODE
 70
     1
  9
$MAXACTVP
 70
    64
  9
$PLIMCHECK
 70
     0
  9
$PEXTMIN
 10
1.0000000000000000E+20
 20
1.0000000000000000E+20
 30
1.0000000000000000E+20
  9
$PEXTMAX
 10
-1.0000000000000000E+20
 20
-1.0000000000000000E+20
 30
-1.0000000000000000E+20
  9
$PLIMMIN
 10
0.0
 20
0.0
  9
$PLIMMAX
 10
12.0
 20
9.0
  9
$UNITMODE
 70
     0
  9
$VISRETAIN
 70
     1
  9
$PLINEGEN
 70
     0
  9
$PSLTSCALE
 70
     1
  0
ENDSEC
  0
SECTION
  2
TABLES
  0
TABLE
  2
VPORT
 70
     1
  0
VPORT
  2
*ACTIVE
 70
     0
 10
0.0
 20
0.0
 11
1.0
 21
1.0
 12
-0.0000731854249807
 22
0.0000001828440332
 13
0.0
 23
0.0
 14
1.0
 24
1.0
 15
0.0
 25
0.0
 16
0.0
 26
0.0
 36
27.6693830590575409
 17
3216.2562255859379547
 27
190.2088775634765909
 37
0.0
 40
9.1630151070297536
 41
2.6486111111111108
 42
50.0
 43
0.0
 44
0.0
 50
0.0
 51
0.0
 71
     0
 72
   100
 73
     1
 74
     1
 75
     0
 76
     0
 77
     0
 78
     0
  0
ENDTAB
  0
TABLE
  2
LTYPE
 70
     2
  0
LTYPE
  2
CONTINUOUS
 70
     0
  3
Solid line
 72
    65
 73
     0
 40
0.0
  0
LTYPE
  2
PHANTOM2
 70
     0
  3
___ _ _ ___ _ _ ___ _ _ ___ _ _
 72
    65
 73
     6
 40
1.25
 49
0.625
 49
-0.125
 49
0.125
 49
-0.125
 49
0.125
 49
-0.125
  0
ENDTAB
  0
TABLE
  2
LAYER
 70
     2
  0
LAYER
  2
0
 70
     0
 62
   255
  6
CONTINUOUS
  0
LAYER
  2
DEFPOINTS
 70
     0
 62
     7
  6
CONTINUOUS
  0
ENDTAB
  0
TABLE
  2
STYLE
 70
     1
  0
STYLE
  2
STANDARD
 70
     0
 40
0.0
 41
0.8
 50
0.0
 71
     0
 42
0.2
  3
txt
  4

  0
ENDTAB
  0
TABLE
  2
VIEW
 70
     0
  0
ENDTAB
  0
TABLE
  2
UCS
 70
     0
  0
ENDTAB
  0
TABLE
  2
APPID
 70
     9
  0
APPID
  2
ACAD
 70
     0
  0
APPID
  2
ACAD_MLEADERVER
 70
     0
  0
APPID
  2
ACAD_EXEMPT_FROM_CAD_STANDARDS
 70
     0
  0
APPID
  2
ACAD_NAV_VCDISPLAY
 70
     0
  0
APPID
  2
ACAECLAYERSTANDARD
 70
     0
  0
APPID
  2
ACCMTRANSPARENCY
 70
     0
  0
APPID
  2
ACAD_DSTYLE_DIMJAG
 70
     0
  0
APPID
  2
ACAD_DSTYLE_DIMTALN
 70
     0
  0
APPID
  2
ACDBATTR
 70
     0
  0
ENDTAB
  0
TABLE
  2
DIMSTYLE
 70
     1
  0
DIMSTYLE
  2
STANDARD
 70
     0
  3

  4

  5

  6

  7

 40
1.0
 41
0.1875
 42
0.0625
 43
0.38
 44
0.125
 45
0.0
 46
0.0
 47
0.01
 48
0.01
140
0.15625
141
0.09
142
0.0
143
25.3999999999999986
144
1.0
145
0.0
146
1.0
147
0.09
 71
     1
 72
     0
 73
     1
 74
     1
 75
     0
 76
     0
 77
     0
 78
     4
170
     0
171
     2
172
     0
173
     0
174
     0
175
     0
176
     0
177
     0
178
     0
  0
ENDTAB
  0
ENDSEC
  0
SECTION
  2
BLOCKS
  0
BLOCK
  8
0
  2
$MODEL_SPACE
 70
     0
 10
0.0
 20
0.0
 30
0.0
  3
$MODEL_SPACE
  1

  0
ENDBLK
  5
21
  8
0
  0
BLOCK
 67
     1
  8
0
  2
$PAPER_SPACE
 70
     0
 10
0.0
 20
0.0
 30
0.0
  3
$PAPER_SPACE
  1

  0
ENDBLK
  5
1D
 67
     1
  8
0
  0
ENDSEC
  0
SECTION
  2
ENTITIES
  0
ATTDEF
  5
3930
  8
DEFPOINTS
 10
3216.5992819232101283
 20
185.668723526217093
 30
0.0
 40
0.001
  1
K-EX27073T
  3

  2
MODELNUMBER
 70
     0
1001
ACDBATTR
1070
     0
1070
     1
  0
ATTDEF
  5
3931
  8
DEFPOINTS
 10
3216.5992819232101283
 20
185.6670568595503994
 30
0.0
 40
0.001
  1
OCCASSION
  3

  2
TRADENAME
 70
     0
1001
ACDBATTR
1070
     0
1070
     1
  0
ATTDEF
  5
3932
  8
DEFPOINTS
 10
3216.5992819232101283
 20
185.6653901928837058
 30
0.0
 40
0.001
  1
SOAP DISPENSER
  3

  2
PRODUCT
 70
     0
1001
ACDBATTR
1070
     0
1070
     1
  0
ARC
  5
8E16
  8
0
 10
3216.159954155052219
 20
194.732888643762692
 30
0.0
 40
0.019685039400001
 50
90.0
 51
180.000001746370998
  0
ARC
  5
8E17
  8
0
 10
3216.1520801394231057
 20
193.8259690805334117
 30
0.0
 40
0.0118110237707132
 50
180.0000003430236006
 51
270.0
  0
LINE
  5
8E18
  8
0
 10
3216.1402691156517903
 20
193.8259690805334117
 30
0.0
 11
3216.1400572992019988
 21
194.3791186867626948
 31
0.0
  0
LINE
  5
8E19
  8
0
 10
3216.1400572992019988
 20
194.5877801040626878
 30
0.0
 11
3216.1402691156517903
 21
194.7328886431627097
 31
0.0
  0
LINE
  5
8E1A
  8
0
 10
3216.159954155052219
 20
194.7525736831626944
 30
0.0
 11
3216.9079856509520141
 21
194.7525736831626944
 31
0.0
  0
LINE
  5
8E1B
  8
0
 10
3216.1520801394231057
 20
193.8141580567626931
 30
0.0
 11
3216.9158596667521124
 21
193.8141580567626931
 31
0.0
  0
LINE
  5
8E1C
  8
0
 10
3216.2190092731520963
 20
193.8141580567626931
 30
0.0
 11
3216.2190092731520963
 21
193.5582525449626985
 31
0.0
  0
LINE
  5
8E1D
  8
0
 10
3215.8843636038518525
 20
193.5188824661626938
 30
0.0
 11
3217.1835762021528353
 21
193.5188824661626938
 31
0.0
  0
ARC
  5
8E1E
  8
0
 10
3216.1796391943521485
 20
193.5582525449626985
 30
0.0
 40
0.0393700787000007
 50
270.0
 51
359.9999999999968168
  0
ARC
  5
8E1F
  8
0
 10
3215.884351611411148
 20
193.4795413397787911
 30
0.0
 40
0.0393411282117188
 50
89.9825344025866087
 51
180.0421656862949931
  0
LINE
  5
8E20
  8
0
 10
3215.8450104938519871
 20
193.4795123874627052
 30
0.0
 11
3215.8450104938519871
 21
192.6330556945626995
 31
0.0
  0
LINE
  5
8E21
  8
0
 10
3215.8450104938519871
 20
192.6330556945626995
 30
0.0
 11
3217.2229462809518736
 21
192.6330556945626995
 31
0.0
  0
ARC
  5
8E22
  8
0
 10
3216.0735044738148645
 20
192.5847927056053948
 30
0.0
 40
0.0556582405223092
 50
119.8730577563276967
 51
133.476198623073401
  0
ARC
  5
8E23
  8
0
 10
3216.9931247439749313
 20
192.6715435252756947
 30
0.0
 40
0.0574991362128407
 50
306.2635158963216213
 51
317.9820313195975245
  0
ARC
  5
8E24
  8
0
 10
3215.5547425965141883
 20
192.583445930330214
 30
0.0
 40
0.0417357489664935
 50
90.0082631734336331
 51
180.0264708590875102
  0
LINE
  5
8E25
  8
0
 10
3215.5547365774018544
 20
192.6251816788627025
 30
0.0
 11
3217.5918209376691266
 21
192.6251816788627025
 31
0.0
  0
LINE
  5
8E26
  8
0
 10
3215.5130068520020359
 20
192.5834266482627015
 30
0.0
 11
3215.5136388726100449
 21
190.0513337462778054
 31
0.0
  0
ARC
  5
8E27
  8
0
 10
3129.2599712018081846
 20
189.8168199396683065
 30
0.0
 40
86.2539864782528127
 50
359.3272036573878836
 51
0.1557802538712036
  0
ARC
  5
8E28
  8
0
 10
3203.8017341130830573
 20
188.2758114030579009
 30
0.0
 40
11.6825808498153698
 50
348.5254704605512188
 51
357.0786381115840982
  0
ARC
  5
8E29
  8
0
 10
3190.5697952162831825
 20
189.1044389944148918
 30
0.0
 40
24.9400255196513001
 50
356.7267265309333197
 51
359.3097830719394778
  0
ARC
  5
8E2A
  8
0
 10
3215.3358947763840661
 20
185.933795320906512
 30
0.0
 40
0.0869546315162076
 50
168.0710122512354019
 51
207.7363107072563082
  0
ARC
  5
8E2B
  8
0
 10
3215.4146522868218199
 20
185.7224570270772972
 30
0.0
 40
0.0572752175988579
 50
208.2696251097630125
 51
270.0009831657416726
  0
ARC
  5
8E2C
  8
0
 10
22057.0095973036113719
 20
10204.1634920978303853
 30
0.0
 40
21339.5713469647489546
 50
207.9998426527106972
 51
208.0004447397078877
  0
LINE
  5
8E2D
  8
0
 10
3215.4146532696349823
 20
185.66518180948691
 30
0.0
 11
3217.773168356001861
 21
185.66518180948691
 31
0.0
  0
LINE
  5
8E2E
  8
0
 10
3215.714637467664943
 20
185.9517335698917861
 30
0.0
 11
3215.2508020367690733
 21
185.9516931868948859
 31
0.0
  0
LINE
  5
8E2F
  8
0
 10
3215.6778103835072216
 20
185.9517690635013878
 30
0.0
 11
3217.4637770734962032
 21
185.951768996358112
 31
0.0
  0
ARC
  5
8E30
  8
0
 10
3215.6552571150778022
 20
192.5835952230715122
 30
0.0
 40
0.0432264039533775
 50
141.4825643137776012
 51
180.1871112915468132
  0
ARC
  5
8E31
  8
0
 10
3215.6518578921841254
 20
192.5864341211571116
 30
0.0
 40
0.0387989971010408
 50
92.9506880773049033
 51
141.6366342327598886
  0
LINE
  5
8E32
  8
0
 10
3215.612030941626017
 20
192.5834540585047137
 30
0.0
 11
3215.6110260147488589
 21
189.2633097148338095
 31
0.0
  0
ARC
  5
8E33
  8
0
 10
3188.9123210044458574
 20
189.1952459366366952
 30
0.0
 40
26.6987917686379816
 50
356.1008266117202083
 51
0.1460654656715428
  0
ARC
  5
8E34
  8
0
 10
3205.2588683505377958
 20
188.0688545133814102
 30
0.0
 40
10.3134940233168404
 50
348.1541186120037992
 51
356.1686262821427249
  0
ARC
  5
8E35
  8
0
 10
3215.4360907467539619
 20
185.9321344956620976
 30
0.0
 40
0.0856370750350184
 50
166.7915719990311061
 51
207.0204346506320974
  0
ARC
  5
8E36
  8
0
 10
3215.5001645830948291
 20
185.7203850760012926
 30
0.0
 40
0.0552045395365793
 50
206.7542162851486012
 51
269.610892999245209
  0
LINE
  5
8E37
  8
0
 10
3215.3598014251019777
 20
185.8932288659626977
 30
0.0
 11
3215.4508699203202013
 21
185.6955339712519049
 31
0.0
  0
ARC
  5
8E38
  8
0
 10
3216.9079856509520141
 20
194.732888643762692
 30
0.0
 40
0.019685039400001
 50
359.9999982536289735
 51
90.0
  0
ARC
  5
8E39
  8
0
 10
3216.9158596665811274
 20
193.8259690805334117
 30
0.0
 40
0.0118110237707105
 50
270.0000008281353985
 51
359.9999996569894165
  0
LINE
  5
8E3A
  8
0
 10
3216.927670690351988
 20
193.8259690805334117
 30
0.0
 11
3216.927670690351988
 21
194.7328886431627097
 31
0.0
  0
LINE
  5
8E3B
  8
0
 10
3216.8489305328521368
 20
193.8141580567626931
 30
0.0
 11
3216.8489305328521368
 21
193.5582525449626985
 31
0.0
  0
ARC
  5
8E3C
  8
0
 10
3216.8883006116520846
 20
193.5582525449626985
 30
0.0
 40
0.0393700787000007
 50
180.0000000000032117
 51
270.0
  0
ARC
  5
8E3D
  8
0
 10
3217.1835881945939946
 20
193.4795413397787911
 30
0.0
 40
0.0393411282117188
 50
359.9578343137050069
 51
90.0174655974134055
  0
LINE
  5
8E3E
  8
0
 10
3217.2229293121517912
 20
193.4795123874627052
 30
0.0
 11
3217.2229462809518736
 21
192.6330556945626995
 31
0.0
  0
ARC
  5
8E3F
  8
0
 10
3217.5917127306270231
 20
192.5834630175444033
 30
0.0
 40
0.0417188016481354
 50
359.9497947281001871
 51
89.8513904146620632
  0
LINE
  5
8E40
  8
0
 10
3217.6334315162580424
 20
192.5834264615619134
 30
0.0
 11
3217.6332827340429503
 21
190.0513330561823011
 31
0.0
  0
ARC
  5
8E41
  8
0
 10
3294.4111799654319839
 20
189.8253522355423115
 30
0.0
 40
76.7782297959861779
 50
179.8313614939752938
 51
180.7621047042588884
  0
ARC
  5
8E42
  8
0
 10
3227.4977613997771186
 20
188.2699106347724012
 30
0.0
 40
9.8300388533278031
 50
183.432608540600512
 51
193.6400964204385957
  0
ARC
  5
8E43
  8
0
 10
3240.1635988890211593
 20
189.1569039993746912
 30
0.0
 40
22.5266192432028092
 50
180.8972890242482947
 51
183.7557364415744132
  0
ARC
  5
8E44
  8
0
 10
3217.8680691823401503
 20
185.9333055208456926
 30
0.0
 40
0.079083218172808
 50
330.4328795621121913
 51
13.5012247212742
  0
ARC
  5
8E45
  8
0
 10
3217.7728804847020001
 20
185.7243283530550002
 30
0.0
 40
0.059147244111112
 50
270.2788612705464857
 51
330.1336370868220911
  0
ARC
  5
8E46
  8
0
 10
3297.1104720277471642
 20
141.023263466464897
 30
0.0
 40
91.0047808161219933
 50
150.4579482726304036
 51
150.6021518270252102
  0
LINE
  5
8E47
  8
0
 10
3217.4637770734962032
 20
185.951768996358112
 30
0.0
 11
3217.9449669302571237
 21
185.9517687752127131
 31
0.0
  0
ARC
  5
8E48
  8
0
 10
3216.8701951677489888
 20
192.5840084060388051
 30
0.0
 40
0.0653863500191809
 50
359.5624795610323758
 51
22.5192500796921493
  0
ARC
  5
8E49
  8
0
 10
3216.9083592140868859
 20
192.6023831205685894
 30
0.0
 40
0.0232148451864457
 50
16.69181390098489
 51
79.1331862209711687
  0
LINE
  5
8E4A
  8
0
 10
3216.9355796114018631
 20
192.5835091094627103
 30
0.0
 11
3216.9363546075919658
 21
189.2633258137070982
 31
0.0
  0
ARC
  5
8E4B
  8
0
 10
3280.4344802760551829
 20
189.1945632437465861
 30
0.0
 40
63.4981629001903869
 50
179.9379540188683109
 51
181.6396260047191902
  0
ARC
  5
8E4C
  8
0
 10
3235.2635346818619837
 20
187.8039658858000109
 30
0.0
 40
18.3061826763074897
 50
181.3342966207476934
 51
185.8070636311963142
  0
ARC
  5
8E4D
  8
0
 10
3216.943990304664112
 20
185.930514744913296
 30
0.0
 40
0.1093900316808599
 50
340.1263016614378216
 51
11.2232883791859592
  0
ARC
  5
8E4E
  8
0
 10
3216.9730662479109924
 20
185.7045990955072909
 30
0.0
 40
0.0400157891332454
 50
279.9219705716769795
 51
346.9685604402143895
  0
LINE
  5
8E4F
  8
0
 10
3217.046865534176959
 20
185.8933278361471082
 30
0.0
 11
3217.0120514897021167
 21
185.6955761080627099
 31
0.0
  0
LINE
  5
8E50
  8
0
 10
3216.1416314310590678
 20
194.5818745922626931
 30
0.0
 11
3214.5651524005120336
 21
194.5818745922626931
 31
0.0
  0
LINE
  5
8E51
  8
0
 10
3214.5651524005120336
 20
194.5818745922626931
 30
0.0
 11
3214.6789057774021785
 21
194.3850241984627019
 31
0.0
  0
LINE
  5
8E52
  8
0
 10
3214.6789057774021785
 20
194.3850241984627019
 30
0.0
 11
3216.1416314310331472
 21
194.3850241984627019
 31
0.0
  0
ARC
  5
8E53
  8
0
 10
3215.7605149197170249
 20
194.4834493954126913
 30
0.0
 40
0.3936207751023255
 50
344.6298463810376802
 51
15.3701536189639008
  0
ENDSEC
  0
EOF
