  0
SECTION
  2
HEADER
  9
$ACADVER
  1
AC1009
  9
$INSBASE
 10
4282.974366243831355
 20
181.5972658908719097
 30
0.0
  9
$EXTMIN
 10
4277.5309027817083916
 20
181.5972658908719097
 30
0.0
  9
$EXTMAX
 10
4288.4178297059534088
 20
191.1689147596528073
 30
0.0
  9
$LIMMIN
 10
0.0
 20
0.0
  9
$LIMMAX
 10
11.6929133858000007
 20
8.2677165353999982
  9
$ORTHOMODE
 70
     1
  9
$REGENMODE
 70
     1
  9
$FILLMODE
 70
     1
  9
$QTEXTMODE
 70
     0
  9
$MIRRTEXT
 70
     0
  9
$DRAGMODE
 70
     2
  9
$LTSCALE
 40
0.6431102362
  9
$OSMODE
 70
  4095
  9
$ATTMODE
 70
     1
  9
$TEXTSIZE
 40
0.2
  9
$TRACEWID
 40
0.05
  9
$TEXTSTYLE
  7
STANDARD
  9
$CLAYER
  8
0
  9
$CELTYPE
  6
BYLAYER
  9
$CECOLOR
 62
   256
  9
$DIMSCALE
 40
1.0
  9
$DIMASZ
 40
0.1875
  9
$DIMEXO
 40
0.0625
  9
$DIMDLI
 40
0.4443307087
  9
$DIMRND
 40
0.0
  9
$DIMDLE
 40
0.0
  9
$DIMEXE
 40
0.125
  9
$DIMTP
 40
0.01
  9
$DIMTM
 40
0.01
  9
$DIMTXT
 40
2.0
  9
$DIMCEN
 40
0.1052362205
  9
$DIMTSZ
 40
0.0
  9
$DIMTOL
 70
     1
  9
$DIMLIM
 70
     0
  9
$DIMTIH
 70
     1
  9
$DIMTOH
 70
     1
  9
$DIMSE1
 70
     0
  9
$DIMSE2
 70
     0
  9
$DIMTAD
 70
     0
  9
$DIMZIN
 70
     0
  9
$DIMBLK
  1

  9
$DIMASO
 70
     1
  9
$DIMSHO
 70
     1
  9
$DIMPOST
  1
\X
  9
$DIMAPOST
  1

  9
$DIMALT
 70
     1
  9
$DIMALTD
 70
     2
  9
$DIMALTF
 40
25.3999999999999986
  9
$DIMLFAC
 40
1.0
  9
$DIMTOFL
 70
     0
  9
$DIMTVP
 40
0.0
  9
$DIMTIX
 70
     0
  9
$DIMSOXD
 70
     0
  9
$DIMSAH
 70
     0
  9
$DIMBLK1
  1

  9
$DIMBLK2
  1

  9
$DIMSTYLE
  2
STANDARD
  9
$DIMCLRD
 70
     0
  9
$DIMCLRE
 70
     0
  9
$DIMCLRT
 70
     0
  9
$DIMTFAC
 40
1.0
  9
$DIMGAP
 40
0.09
  9
$LUNITS
 70
     2
  9
$LUPREC
 70
     4
  9
$SKETCHINC
 40
0.1
  9
$FILLETRAD
 40
0.0
  9
$AUNITS
 70
     0
  9
$AUPREC
 70
     0
  9
$MENU
  1
.
  9
$ELEVATION
 40
0.0
  9
$PELEVATION
 40
0.0
  9
$THICKNESS
 40
0.0
  9
$LIMCHECK
 70
     0
  9
$BLIPMODE
 70
     0
  9
$CHAMFERA
 40
0.0
  9
$CHAMFERB
 40
0.0
  9
$SKPOLY
 70
     0
  9
$TDCREATE
 40
2458060.468368056230247
  9
$TDUPDATE
 40
2459564.5636458331719041
  9
$TDINDWG
 40
0.4150417824
  9
$TDUSRTIMER
 40
0.4150417824
  9
$USRTIMER
 70
     1
  9
$ANGBASE
 50
0.0
  9
$ANGDIR
 70
     0
  9
$PDMODE
 70
     0
  9
$PDSIZE
 40
0.3125
  9
$PLINEWID
 40
0.0
  9
$COORDS
 70
     1
  9
$SPLFRAME
 70
     0
  9
$SPLINETYPE
 70
     6
  9
$SPLINESEGS
 70
     8
  9
$ATTDIA
 70
     1
  9
$ATTREQ
 70
     1
  9
$HANDLING
 70
     1
  9
$HANDSEED
  5
A215
  9
$SURFTAB1
 70
     6
  9
$SURFTAB2
 70
     6
  9
$SURFTYPE
 70
     6
  9
$SURFU
 70
     6
  9
$SURFV
 70
     6
  9
$UCSNAME
  2

  9
$UCSORG
 10
0.0
 20
0.0
 30
0.0
  9
$UCSXDIR
 10
1.0
 20
0.0
 30
0.0
  9
$UCSYDIR
 10
0.0
 20
1.0
 30
0.0
  9
$PUCSNAME
  2

  9
$PUCSORG
 10
0.0
 20
0.0
 30
0.0
  9
$PUCSXDIR
 10
1.0
 20
0.0
 30
0.0
  9
$PUCSYDIR
 10
0.0
 20
1.0
 30
0.0
  9
$USERI1
 70
     0
  9
$USERI2
 70
     0
  9
$USERI3
 70
     0
  9
$USERI4
 70
     0
  9
$USERI5
 70
     0
  9
$USERR1
 40
0.0
  9
$USERR2
 40
0.0
  9
$USERR3
 40
0.0
  9
$USERR4
 40
0.0
  9
$USERR5
 40
0.0
  9
$WORLDVIEW
 70
     1
  9
$SHADEDGE
 70
     3
  9
$SHADEDIF
 70
    70
  9
$TILEMODE
 70
     1
  9
$MAXACTVP
 70
    64
  9
$PLIMCHECK
 70
     0
  9
$PEXTMIN
 10
1.0000000000000000E+20
 20
1.0000000000000000E+20
 30
1.0000000000000000E+20
  9
$PEXTMAX
 10
-1.0000000000000000E+20
 20
-1.0000000000000000E+20
 30
-1.0000000000000000E+20
  9
$PLIMMIN
 10
0.0
 20
0.0
  9
$PLIMMAX
 10
12.0
 20
9.0
  9
$UNITMODE
 70
     0
  9
$VISRETAIN
 70
     1
  9
$PLINEGEN
 70
     0
  9
$PSLTSCALE
 70
     1
  0
ENDSEC
  0
SECTION
  2
TABLES
  0
TABLE
  2
VPORT
 70
     1
  0
VPORT
  2
*ACTIVE
 70
     0
 10
0.0
 20
0.0
 11
1.0
 21
1.0
 12
479.442581562504472
 22
60.5915476012955097
 13
0.0
 23
0.0
 14
1.0
 24
1.0
 15
0.0
 25
0.0
 16
0.0
 26
0.0
 36
17.1152628219792007
 17
3803.5440673828129547
 27
125.9952621967499056
 37
0.0
 40
9.6775284839117628
 41
2.8393393393393391
 42
50.0
 43
0.0
 44
0.0
 50
0.0
 51
0.0
 71
     0
 72
   100
 73
     1
 74
     1
 75
     0
 76
     1
 77
     0
 78
     0
  0
ENDTAB
  0
TABLE
  2
LTYPE
 70
     2
  0
LTYPE
  2
CONTINUOUS
 70
     0
  3
Solid line
 72
    65
 73
     0
 40
0.0
  0
LTYPE
  2
PHANTOM2
 70
     0
  3
___ _ _ ___ _ _ ___ _ _ ___ _ _
 72
    65
 73
     6
 40
1.25
 49
0.625
 49
-0.125
 49
0.125
 49
-0.125
 49
0.125
 49
-0.125
  0
ENDTAB
  0
TABLE
  2
LAYER
 70
     2
  0
LAYER
  2
0
 70
     0
 62
   255
  6
CONTINUOUS
  0
LAYER
  2
DEFPOINTS
 70
     0
 62
     7
  6
CONTINUOUS
  0
ENDTAB
  0
TABLE
  2
STYLE
 70
     1
  0
STYLE
  2
STANDARD
 70
     0
 40
0.0
 41
0.8
 50
0.0
 71
     0
 42
0.2
  3
txt
  4

  0
ENDTAB
  0
TABLE
  2
VIEW
 70
     0
  0
ENDTAB
  0
TABLE
  2
UCS
 70
     0
  0
ENDTAB
  0
TABLE
  2
APPID
 70
     9
  0
APPID
  2
ACAD
 70
     0
  0
APPID
  2
ACAD_MLEADERVER
 70
     0
  0
APPID
  2
ACAD_EXEMPT_FROM_CAD_STANDARDS
 70
     0
  0
APPID
  2
ACAD_NAV_VCDISPLAY
 70
     0
  0
APPID
  2
ACAECLAYERSTANDARD
 70
     0
  0
APPID
  2
ACCMTRANSPARENCY
 70
     0
  0
APPID
  2
ACAD_DSTYLE_DIMJAG
 70
     0
  0
APPID
  2
ACAD_DSTYLE_DIMTALN
 70
     0
  0
APPID
  2
ACDBATTR
 70
     0
  0
ENDTAB
  0
TABLE
  2
DIMSTYLE
 70
     1
  0
DIMSTYLE
  2
STANDARD
 70
     0
  3

  4

  5

  6

  7

 40
1.0
 41
0.1875
 42
0.0625
 43
0.38
 44
0.125
 45
0.0
 46
0.0
 47
0.01
 48
0.01
140
0.15625
141
0.09
142
0.0
143
25.3999999999999986
144
1.0
145
0.0
146
1.0
147
0.09
 71
     1
 72
     0
 73
     1
 74
     1
 75
     0
 76
     0
 77
     0
 78
     4
170
     0
171
     2
172
     0
173
     0
174
     0
175
     0
176
     0
177
     0
178
     0
  0
ENDTAB
  0
ENDSEC
  0
SECTION
  2
BLOCKS
  0
BLOCK
  8
0
  2
$MODEL_SPACE
 70
     0
 10
0.0
 20
0.0
 30
0.0
  3
$MODEL_SPACE
  1

  0
ENDBLK
  5
21
  8
0
  0
BLOCK
 67
     1
  8
0
  2
$PAPER_SPACE
 70
     0
 10
0.0
 20
0.0
 30
0.0
  3
$PAPER_SPACE
  1

  0
ENDBLK
  5
1D
 67
     1
  8
0
  0
ENDSEC
  0
SECTION
  2
ENTITIES
  0
ATTDEF
  5
3930
  8
DEFPOINTS
 10
4282.9713118892577768
 20
181.6020278650331079
 30
0.0
 40
0.001
  1
K-EX27100K-3
  3

  2
MODELNUMBER
 70
     0
1001
ACDBATTR
1070
     0
1070
     1
  0
ATTDEF
  5
3931
  8
DEFPOINTS
 10
4282.9713118892577768
 20
181.6003611983664996
 30
0.0
 40
0.001
  1

  3

  2
TRADENAME
 70
     0
1001
ACDBATTR
1070
     0
1070
     1
  0
ATTDEF
  5
3932
  8
DEFPOINTS
 10
4282.9713118892577768
 20
181.598694531699806
 30
0.0
 40
0.001
  1
BATHROOM SINK FAUCET
  3

  2
PRODUCT
 70
     0
1001
ACDBATTR
1070
     0
1070
     1
  0
LINE
  5
9DFD
  8
0
 10
4281.9195932987267952
 20
181.5972658908719097
 30
0.0
 11
4284.0291391889340957
 21
181.5972658908719097
 31
0.0
  0
LINE
  5
9DFE
  8
0
 10
4281.8218009627844367
 20
181.7652669328051047
 30
0.0
 11
4281.8833618629942066
 21
181.621185481809988
 31
0.0
  0
LINE
  5
9DFF
  8
0
 10
4282.4918736428871853
 20
183.4719481860581141
 30
0.0
 11
4282.4918736428871853
 21
190.807435884857199
 31
0.0
  0
LINE
  5
9E00
  8
0
 10
4282.5671971730553196
 20
187.6771863908718956
 30
0.0
 11
4283.3815353146073903
 21
187.6771863908718956
 31
0.0
  0
LINE
  5
9E01
  8
0
 10
4282.5393369773755694
 20
187.6887265721942128
 30
0.0
 11
4282.5034134472089136
 21
187.7246505884814098
 31
0.0
  0
ARC
  5
9E02
  8
0
 10
4280.8370194529661603
 20
183.1850607592606934
 30
0.0
 40
1.6968498694760761
 50
306.0192094109480081
 51
318.4328291575554886
  0
ARC
  5
9E03
  8
0
 10
4281.0597641307422236
 20
182.9875268957738115
 30
0.0
 40
1.3991338660401029
 50
318.4328291575554886
 51
339.0097774282589853
  0
ARC
  5
9E04
  8
0
 10
4280.7828277404960318
 20
183.0937785971553922
 30
0.0
 40
1.695753468037384
 50
339.0097774282589853
 51
357.3613583071655171
  0
ARC
  5
9E05
  8
0
 10
4264.92330405971461
 20
183.8246737945370057
 30
0.0
 40
17.572110076869091
 50
357.3613583071655171
 51
358.8498224731918071
  0
ARC
  5
9E06
  8
0
 10
4281.8580323985170253
 20
181.7807473418669133
 30
0.0
 40
0.0394
 50
126.0192094109490029
 51
203.1353023700388007
  0
ARC
  5
9E07
  8
0
 10
4281.9195932987267952
 20
181.6366658908719103
 30
0.0
 40
0.0394
 50
203.1353023700388007
 51
270.0
  0
ARC
  5
9E08
  8
0
 10
4282.5671971730553196
 20
187.7165863908718961
 30
0.0
 40
0.0394
 50
224.9996123376203059
 51
270.0
  0
ARC
  5
9E09
  8
0
 10
4282.5312736428868448
 20
187.7525104071592068
 30
0.0
 40
0.0394
 50
179.9999999999917861
 51
224.9996123376583057
  0
ARC
  5
9E0A
  8
0
 10
4283.2144197420329874
 20
190.3334006629135047
 30
0.0
 40
0.8709034482320406
 50
106.7717264039896037
 51
145.2432111023258017
  0
ARC
  5
9E0B
  8
0
 10
4282.5312736428868448
 20
190.807435884857199
 30
0.0
 40
0.0394
 50
145.2432111023688037
 51
179.9999999999901945
  0
LINE
  5
9E0C
  8
0
 10
4282.6701330982814397
 20
183.4719481860581141
 30
0.0
 11
4282.6701330982814397
 21
187.6771863908718956
 31
0.0
  0
ARC
  5
9E0D
  8
0
 10
4265.1015635151088645
 20
183.8246737945370057
 30
0.0
 40
17.572110076869091
 50
357.3613583071655171
 51
358.8498224731918071
  0
ARC
  5
9E0E
  8
0
 10
4280.5008174933745977
 20
183.0034919482966131
 30
0.0
 40
2.1542599033737551
 50
348.971205348958506
 51
0.3250041230507733
  0
ARC
  5
9E0F
  8
0
 10
4280.5728513457952431
 20
182.9894524128582987
 30
0.0
 40
2.0808706367897161
 50
335.4488981181294207
 51
348.971205348958506
  0
ARC
  5
9E10
  8
0
 10
4281.2954116572391285
 20
182.6593840990815067
 30
0.0
 40
1.286491322208738
 50
318.7041856673989741
 51
335.4488981181294207
  0
LINE
  5
9E11
  8
0
 10
4282.2924765492061852
 20
181.6266069812481021
 30
0.0
 11
4282.2534758437459459
 21
181.774307475973103
 31
0.0
  0
ARC
  5
9E12
  8
0
 10
4282.330570883918881
 20
181.6366658908719103
 30
0.0
 40
0.0394
 50
194.7914970801492984
 51
270.0
  0
ARC
  5
9E13
  8
0
 10
4282.2915701784577323
 20
181.7843663855969112
 30
0.0
 40
0.0394
 50
138.7041856673990878
 51
194.79149708015089
  0
ARC
  5
9E14
  8
0
 10
4282.9748989917088693
 20
191.1262549313676971
 30
0.0
 40
0.0426631547076939
 50
90.7154885404744675
 51
106.0377652248389069
  0
LINE
  5
9E15
  8
0
 10
4284.1269315248773637
 20
181.7652669328051047
 30
0.0
 11
4284.0653706246666843
 21
181.621185481809988
 31
0.0
  0
LINE
  5
9E16
  8
0
 10
4283.4568588447746151
 20
183.4719079096855125
 30
0.0
 11
4283.4568588447746151
 21
190.807435884857199
 31
0.0
  0
LINE
  5
9E17
  8
0
 10
4283.4093955102853215
 20
187.6887265721942128
 30
0.0
 11
4283.4453190404537963
 21
187.7246505884814098
 31
0.0
  0
ARC
  5
9E18
  8
0
 10
4285.1117130346947306
 20
183.1850607592606934
 30
0.0
 40
1.6968498694760761
 50
221.5671708424432893
 51
233.9807905890519919
  0
ARC
  5
9E19
  8
0
 10
4284.8889683569186673
 20
182.9875268957738115
 30
0.0
 40
1.3991338660401029
 50
200.990222571740901
 51
221.5671708424432893
  0
ARC
  5
9E1A
  8
0
 10
4285.1659047471657686
 20
183.0937785971553922
 30
0.0
 40
1.695753468037384
 50
182.6386416928343976
 51
200.990222571740901
  0
ARC
  5
9E1B
  8
0
 10
4301.025427629097976
 20
183.8246733049489023
 30
0.0
 40
17.572110076869091
 50
181.1503072821004992
 51
182.6386416928343976
  0
ARC
  5
9E1C
  8
0
 10
4284.0907000891438656
 20
181.7807473418669133
 30
0.0
 40
0.0394
 50
336.8646976299610856
 51
53.9807905890519635
  0
ARC
  5
9E1D
  8
0
 10
4284.0291391889340957
 20
181.6366658908719103
 30
0.0
 40
0.0394
 50
270.0
 51
336.8646976299610856
  0
ARC
  5
9E1E
  8
0
 10
4283.3815353146073903
 20
187.7165863908718961
 30
0.0
 40
0.0394
 50
270.0
 51
315.0003876623796941
  0
ARC
  5
9E1F
  8
0
 10
4283.4174588447749557
 20
187.7525104071592068
 30
0.0
 40
0.0394
 50
315.0003876623417227
 51
0.0000000000081422
  0
ARC
  5
9E20
  8
0
 10
4282.7343127456279035
 20
190.3334006629135047
 30
0.0
 40
0.8709034482320406
 50
34.7567888976729122
 51
73.2282735960104105
  0
ARC
  5
9E21
  8
0
 10
4283.4174588447749557
 20
190.807435884857199
 30
0.0
 40
0.0394
 50
0.0000000000097707
 51
34.7567888976311608
  0
LINE
  5
9E22
  8
0
 10
4283.2785993893812702
 20
183.4719481860581141
 30
0.0
 11
4283.2785993893812702
 21
187.6771863908718956
 31
0.0
  0
ARC
  5
9E23
  8
0
 10
4300.8471689725511169
 20
183.8246737945370057
 30
0.0
 40
17.572110076869091
 50
181.1501775268081929
 51
182.6386416928343976
  0
ARC
  5
9E24
  8
0
 10
4285.4479149942862932
 20
183.0034919482966131
 30
0.0
 40
2.1542599033737551
 50
179.6749958769491968
 51
191.028794651041494
  0
ARC
  5
9E25
  8
0
 10
4285.3758811418683763
 20
182.9894524128582987
 30
0.0
 40
2.0808706367897161
 50
191.028794651041494
 51
204.5511018818706077
  0
ARC
  5
9E26
  8
0
 10
4284.6533208304226719
 20
182.6593840990815067
 30
0.0
 40
1.286491322208738
 50
204.5511018818706077
 51
221.2958143326009122
  0
LINE
  5
9E27
  8
0
 10
4283.6562559384547058
 20
181.6266069812481021
 30
0.0
 11
4283.695256643914945
 21
181.774307475973103
 31
0.0
  0
ARC
  5
9E28
  8
0
 10
4283.6181616037429194
 20
181.6366658908719103
 30
0.0
 40
0.0394
 50
270.0
 51
345.2085029198506732
  0
ARC
  5
9E29
  8
0
 10
4283.6571623092040682
 20
181.7843663855969112
 30
0.0
 40
0.0394
 50
345.2085029198474899
 51
41.2958143326009193
  0
ARC
  5
9E2A
  8
0
 10
4282.9734360965458109
 20
191.1235561301616031
 30
0.0
 40
0.045368165527061
 50
74.4215181794627654
 51
88.8252280551540991
  0
LINE
  5
9E42
  8
0
 10
4281.8348629741376499
 20
181.8126148452822122
 30
0.0
 11
4284.1138695135241505
 21
181.8126148452822122
 31
0.0
  0
LINE
  5
9E44
  8
0
 10
4282.974366243831355
 20
187.6771863908718956
 30
0.0
 11
4282.974366243831355
 21
191.1689147596528073
 31
0.0
  0
LINE
  5
9E46
  8
0
 10
4277.9827628757911953
 20
181.5972658908719097
 30
0.0
 11
4280.0919526694460728
 21
181.5972658908719097
 31
0.0
  0
LINE
  5
9E47
  8
0
 10
4277.8849705398470178
 20
181.7652669328051047
 30
0.0
 11
4277.9465314400567877
 21
181.621185481809988
 31
0.0
  0
ARC
  5
9E48
  8
0
 10
4276.7063064918402233
 20
183.5590466783179124
 30
0.0
 40
2.114293061049477
 50
304.3087539972034961
 51
314.64986452760661
  0
ARC
  5
9E49
  8
0
 10
4276.7756407490751371
 20
183.4669743906250119
 30
0.0
 40
2.000124412884531
 50
315.0904591602812275
 51
330.0925219649705014
  0
ARC
  5
9E4A
  8
0
 10
4277.9212019755823349
 20
181.7807473418669133
 30
0.0
 40
0.0394
 50
126.0192094109490029
 51
203.1353023700388007
  0
ARC
  5
9E4B
  8
0
 10
4277.9827628757911953
 20
181.6366658908719103
 30
0.0
 40
0.0394
 50
203.1353023700388007
 51
270.0
  0
ARC
  5
9E4C
  8
0
 10
4276.030413821034017
 20
183.503607875899803
 30
0.0
 40
2.8729237541933101
 50
331.226921947269318
 51
341.0592030720071079
  0
ARC
  5
9E4D
  8
0
 10
4276.9907558194836383
 20
183.0068336008679069
 30
0.0
 40
1.79223468814417
 50
318.1192116482471874
 51
330.3696825174209835
  0
LINE
  5
9E4E
  8
0
 10
4278.3556461262696757
 20
181.6266069812481021
 30
0.0
 11
4278.3166454208094365
 21
181.774307475973103
 31
0.0
  0
ARC
  5
9E4F
  8
0
 10
4278.3937404609823716
 20
181.6366658908719103
 30
0.0
 40
0.0394
 50
194.7914970801492984
 51
270.0
  0
ARC
  5
9E50
  8
0
 10
4278.3547397555221323
 20
181.7843663855969112
 30
0.0
 40
0.0394
 50
138.7041856673990878
 51
194.79149708015089
  0
LINE
  5
9E51
  8
0
 10
4277.8980325512011404
 20
181.8126148452822122
 30
0.0
 11
4280.1766829940352181
 21
181.8126148452822122
 31
0.0
  0
ARC
  5
9E52
  8
0
 10
4277.1790928280197477
 20
183.23386392283291
 30
0.0
 40
1.5341705523844049
 50
330.1263569701147276
 51
355.5908445564469957
  0
LINE
  5
9E53
  8
0
 10
4278.7223575503812754
 20
183.3467545458620123
 30
0.0
 11
4278.7223575503812754
 21
183.9003958908718914
 31
0.0
  0
LINE
  5
9E54
  8
0
 10
4278.7223575503812754
 20
183.9594809301719067
 30
0.0
 11
4278.7223575503812754
 21
183.964680930178389
 31
0.0
  0
ARC
  5
9E55
  8
0
 10
4271.3458335618261117
 20
183.6666383329624921
 30
0.0
 40
7.3834566289079948
 50
355.7224370536782203
 51
357.5169178446585079
  0
ARC
  5
9E57
  8
0
 10
4275.9977602008093527
 20
183.3228197405715889
 30
0.0
 40
2.850916752418204
 50
344.7113151150127237
 51
356.0374816226234884
  0
ARC
  5
9E58
  8
0
 10
4274.0758883331645848
 20
183.4559467774579105
 30
0.0
 40
4.777393921655074
 50
356.0374816226234884
 51
1.369132420552241
  0
LINE
  5
9E59
  8
0
 10
4278.7420575503801956
 20
183.9200958908718917
 30
0.0
 11
4279.332657994856163
 21
183.9200958908718917
 31
0.0
  0
LINE
  5
9E5A
  8
0
 10
4278.7420575503801956
 20
183.9397809301719064
 30
0.0
 11
4279.332657994856163
 21
183.9397809301719064
 31
0.0
  0
LINE
  5
9E5B
  8
0
 10
4278.2412575503813059
 20
184.4457809301783868
 30
0.0
 11
4277.570302781708051
 21
184.4457809301783868
 31
0.0
  0
LINE
  5
9E5C
  8
0
 10
4277.5309162831035792
 20
184.4862123019476883
 30
0.0
 11
4277.5344801830397046
 21
184.6223121487855963
 31
0.0
  0
LINE
  5
9E5D
  8
0
 10
4277.5463737375166602
 20
184.6495030735783018
 30
0.0
 11
4277.5824050525761777
 21
184.6846032267339979
 31
0.0
  0
LINE
  5
9E5E
  8
0
 10
4277.6098979967027844
 20
184.6957809301719067
 30
0.0
 11
4280.4648175485335742
 21
184.695780930170713
 31
0.0
  0
ARC
  5
9E5F
  8
0
 10
4278.2412575503813059
 20
183.964680930178389
 30
0.0
 40
0.4811
 50
0.0
 51
90.0
  0
ARC
  5
9E60
  8
0
 10
4278.7420575503801956
 20
183.9003958908718914
 30
0.0
 40
0.0197
 50
90.0
 51
180.0000000000098055
  0
ARC
  5
9E61
  8
0
 10
4278.7420575503801956
 20
183.9594809301719067
 30
0.0
 40
0.0197
 50
179.9999999999951115
 51
270.0
  0
LINE
  5
9E62
  8
0
 10
4278.7617669992796436
 20
183.9397809301719064
 30
0.0
 11
4278.7617669992796436
 21
183.9200958908718917
 31
0.0
  0
ARC
  5
9E63
  8
0
 10
4277.570302781708051
 20
184.4851809301783874
 30
0.0
 40
0.0394
 50
178.4999999912890019
 51
270.0
  0
ARC
  5
9E64
  8
0
 10
4277.5738666816432669
 20
184.6212807770162954
 30
0.0
 40
0.0394
 50
134.2500000184801081
 51
178.4999999912971873
  0
ARC
  5
9E65
  8
0
 10
4277.6098979967027844
 20
184.6563809301719061
 30
0.0
 40
0.0394
 50
90.0
 51
134.2500000184766975
  0
LINE
  5
9E66
  8
0
 10
4278.7688737375574419
 20
184.6495030736168133
 30
0.0
 11
4278.8049050527151849
 21
184.6846032267719977
 31
0.0
  0
LINE
  5
9E67
  8
0
 10
4278.7501854302254287
 20
184.362831005749797
 30
0.0
 11
4278.7569801830386496
 21
184.6223121487728065
 31
0.0
  0
LINE
  5
9E68
  8
0
 10
4278.7928027817506518
 20
184.4457809301719067
 30
0.0
 11
4279.2819127634847973
 21
184.4457809301719919
 31
0.0
  0
ARC
  5
9E69
  8
0
 10
4278.7928027817506518
 20
184.4851809301719072
 30
0.0
 40
0.0394
 50
178.5000000098787041
 51
270.0
  0
ARC
  5
9E6A
  8
0
 10
4278.7963666816431214
 20
184.6212807770162954
 30
0.0
 40
0.0394
 50
134.2499999382287115
 51
178.5000000098754924
  0
ARC
  5
9E6B
  8
0
 10
4278.8323979968026833
 20
184.6563809301713945
 30
0.0
 40
0.0394
 50
89.9999999999478888
 51
134.249999938227603
  0
ARC
  5
9E6C
  8
0
 10
4278.6996821062748495
 20
184.3590157789946034
 30
0.0
 40
0.0506472278117632
 50
317.6947050614351724
 51
4.320150746386064
  0
ARC
  5
9E6D
  8
0
 10
4278.7112177969638651
 20
184.347240783568509
 30
0.0
 40
0.034203294341663
 50
234.2484713553103006
 51
319.2761970199226766
  0
ARC
  5
9E6E
  8
0
 10
4278.8518423319774229
 20
184.5935721009468011
 30
0.0
 40
0.3176791471896818
 50
225.7846462709406978
 51
239.6309085562344023
  0
ARC
  5
9E6F
  8
0
 10
4278.2572847933697631
 20
183.5297990619770019
 30
0.0
 40
0.9155233798913558
 50
65.9558206659484654
 51
89.6668889337031345
  0
LINE
  5
9E70
  8
0
 10
4280.1897450053884313
 20
181.7652669328051047
 30
0.0
 11
4280.1281841051786614
 21
181.621185481809988
 31
0.0
  0
ARC
  5
9E71
  8
0
 10
4281.3684090533961353
 20
183.5590466783179124
 30
0.0
 40
2.114293061049477
 50
225.35013547239339
 51
235.6912460027965039
  0
ARC
  5
9E72
  8
0
 10
4281.2990747961612215
 20
183.4669743906250119
 30
0.0
 40
2.000124412884531
 50
209.9074780350294986
 51
224.909540839718801
  0
ARC
  5
9E73
  8
0
 10
4280.1535135696558427
 20
181.7807473418669133
 30
0.0
 40
0.0394
 50
336.8646976299610856
 51
53.9807905890510114
  0
ARC
  5
9E74
  8
0
 10
4280.0919526694460728
 20
181.6366658908719103
 30
0.0
 40
0.0394
 50
270.0
 51
336.8646976299610856
  0
ARC
  5
9E75
  8
0
 10
4282.0443017242032511
 20
183.503607875899803
 30
0.0
 40
2.8729237541933101
 50
198.9407969279928068
 51
208.7730780527307957
  0
ARC
  5
9E76
  8
0
 10
4281.0839597257509013
 20
183.0068336008679069
 30
0.0
 40
1.79223468814417
 50
209.6303174825789881
 51
221.8807883517528126
  0
LINE
  5
9E77
  8
0
 10
4279.7190694189657734
 20
181.6266069812481021
 30
0.0
 11
4279.7580701244278316
 21
181.774307475973103
 31
0.0
  0
ARC
  5
9E78
  8
0
 10
4279.6809750842548965
 20
181.6366658908719103
 30
0.0
 40
0.0394
 50
270.0
 51
345.2085029198506732
  0
ARC
  5
9E79
  8
0
 10
4279.7199757897151358
 20
181.7843663855969112
 30
0.0
 40
0.0394
 50
345.2085029198490815
 51
41.2958143326009193
  0
ARC
  5
9E7A
  8
0
 10
4280.8956227172157014
 20
183.23386392283291
 30
0.0
 40
1.5341705523844049
 50
184.4091554435530043
 51
209.8736430298853008
  0
LINE
  5
9E7B
  8
0
 10
4279.3523579948559927
 20
183.3467545458620123
 30
0.0
 11
4279.3523579948559927
 21
183.9003958908718914
 31
0.0
  0
LINE
  5
9E7C
  8
0
 10
4279.3523579948559927
 20
183.9594809301719067
 30
0.0
 11
4279.3523579948559927
 21
183.964680930178389
 31
0.0
  0
ARC
  5
9E7D
  8
0
 10
4286.7288819834093374
 20
183.6666383329624921
 30
0.0
 40
7.3834566289079948
 50
182.4830821553414921
 51
184.2775629463218081
  0
ARC
  5
9E7E
  8
0
 10
4282.0769553444270059
 20
183.3228197405715889
 30
0.0
 40
2.850916752418204
 50
183.9625183773763979
 51
195.2886848849873047
  0
ARC
  5
9E7F
  8
0
 10
4283.9988272120699548
 20
183.4559467774579105
 30
0.0
 40
4.777393921655074
 50
178.6308675794460896
 51
183.9625183773763979
  0
LINE
  5
9E80
  8
0
 10
4279.8334579948559622
 20
184.4457809301783868
 30
0.0
 11
4280.504412763529217
 21
184.4457809301783868
 31
0.0
  0
LINE
  5
9E81
  8
0
 10
4280.5437992621318699
 20
184.4862123019476883
 30
0.0
 11
4280.5402353621975635
 21
184.6223121487855963
 31
0.0
  0
LINE
  5
9E82
  8
0
 10
4280.5283418077206079
 20
184.6495030735783018
 30
0.0
 11
4280.4923104926601809
 21
184.6846032267339979
 31
0.0
  0
ARC
  5
9E83
  8
0
 10
4279.8334579948559622
 20
183.964680930178389
 30
0.0
 40
0.4811
 50
90.0
 51
180.0
  0
ARC
  5
9E84
  8
0
 10
4279.332657994856163
 20
183.9003958908718914
 30
0.0
 40
0.0197
 50
359.9999999999902229
 51
90.0
  0
ARC
  5
9E85
  8
0
 10
4279.332657994856163
 20
183.9594809301719067
 30
0.0
 40
0.0197
 50
270.0
 51
0.0000000000048853
  0
LINE
  5
9E86
  8
0
 10
4279.3129485459558055
 20
183.9397809301719064
 30
0.0
 11
4279.3129485459558055
 21
183.9200958908718917
 31
0.0
  0
ARC
  5
9E87
  8
0
 10
4280.504412763529217
 20
184.4851809301783874
 30
0.0
 40
0.0394
 50
270.0
 51
1.5000000087109571
  0
ARC
  5
9E88
  8
0
 10
4280.5008488635930917
 20
184.6212807770162954
 30
0.0
 40
0.0394
 50
1.500000008702818
 51
45.7499999815199132
  0
ARC
  5
9E89
  8
0
 10
4280.4648175485335742
 20
184.6563809301719061
 30
0.0
 40
0.0394
 50
45.7499999815233096
 51
90.0
  0
LINE
  5
9E8A
  8
0
 10
4279.3058418076807357
 20
184.6495030736168133
 30
0.0
 11
4279.2698104925211737
 21
184.6846032267719977
 31
0.0
  0
LINE
  5
9E8B
  8
0
 10
4279.3245301150127489
 20
184.362831005749797
 30
0.0
 11
4279.3177353621967995
 21
184.6223121487728065
 31
0.0
  0
ARC
  5
9E8C
  8
0
 10
4279.2819127634847973
 20
184.4851809301719072
 30
0.0
 40
0.0394
 50
270.0
 51
1.499999990121246
  0
ARC
  5
9E8D
  8
0
 10
4279.2783488635932372
 20
184.6212807770162954
 30
0.0
 40
0.0394
 50
1.499999990124502
 51
45.750000061771253
  0
ARC
  5
9E8E
  8
0
 10
4279.2423175484327658
 20
184.6563809301713945
 30
0.0
 40
0.0394
 50
45.750000061772397
 51
90.0000000000521254
  0
ARC
  5
9E8F
  8
0
 10
4279.3750334389596901
 20
184.3590157789946034
 30
0.0
 40
0.0506472278117632
 50
175.6798492536138951
 51
222.3052949385647992
  0
ARC
  5
9E90
  8
0
 10
4279.363497748271584
 20
184.347240783568509
 30
0.0
 40
0.034203294341663
 50
220.7238029800772949
 51
305.7515286446895857
  0
ARC
  5
9E91
  8
0
 10
4279.2228732132598452
 20
184.5935721009468011
 30
0.0
 40
0.3176791471896818
 50
300.3690914437656261
 51
314.2153537290593022
  0
ARC
  5
9E92
  8
0
 10
4279.8174307518684145
 20
183.5297990619770019
 30
0.0
 40
0.9155233798913558
 50
90.3331110662968655
 51
114.0441793340515062
  0
LINE
  5
9E93
  8
0
 10
4280.5283418077206079
 20
184.6495030735783018
 30
0.0
 11
4277.5463737375166602
 21
184.6495030735783018
 31
0.0
  0
LINE
  5
9E94
  8
0
 10
4287.9659696118696957
 20
181.5972658908719097
 30
0.0
 11
4285.8567798182157276
 21
181.5972658908719097
 31
0.0
  0
LINE
  5
9E95
  8
0
 10
4288.0637619478129636
 20
181.7652669328051047
 30
0.0
 11
4288.0022010476031937
 21
181.621185481809988
 31
0.0
  0
ARC
  5
9E96
  8
0
 10
4289.2424259958215771
 20
183.5590466783179124
 30
0.0
 40
2.114293061049477
 50
225.35013547239339
 51
235.6912460027965039
  0
ARC
  5
9E97
  8
0
 10
4289.1730917385848443
 20
183.4669743906250119
 30
0.0
 40
2.000124412884531
 50
209.9074780350294986
 51
224.909540839718801
  0
ARC
  5
9E98
  8
0
 10
4288.027530512080375
 20
181.7807473418669133
 30
0.0
 40
0.0394
 50
336.8646976299610856
 51
53.9807905890510114
  0
ARC
  5
9E99
  8
0
 10
4287.9659696118696957
 20
181.6366658908719103
 30
0.0
 40
0.0394
 50
270.0
 51
336.8646976299610856
  0
ARC
  5
9E9A
  8
0
 10
4289.9183186666277834
 20
183.503607875899803
 30
0.0
 40
2.8729237541933101
 50
198.9407969279928068
 51
208.7730780527307957
  0
ARC
  5
9E9B
  8
0
 10
4288.9579766681772526
 20
183.0068336008679069
 30
0.0
 40
1.79223468814417
 50
209.6303174825789881
 51
221.8807883517528126
  0
LINE
  5
9E9C
  8
0
 10
4287.5930863613921247
 20
181.6266069812481021
 30
0.0
 11
4287.6320870668523639
 21
181.774307475973103
 31
0.0
  0
ARC
  5
9E9D
  8
0
 10
4287.5549920266794288
 20
181.6366658908719103
 30
0.0
 40
0.0394
 50
270.0
 51
345.2085029198506732
  0
ARC
  5
9E9E
  8
0
 10
4287.5939927321396681
 20
181.7843663855969112
 30
0.0
 40
0.0394
 50
345.2085029198490815
 51
41.2958143326009193
  0
LINE
  5
9E9F
  8
0
 10
4288.0506999364597505
 20
181.8126148452822122
 30
0.0
 11
4285.7720494936256728
 21
181.8126148452822122
 31
0.0
  0
ARC
  5
9EA0
  8
0
 10
4288.7696396596411432
 20
183.23386392283291
 30
0.0
 40
1.5341705523844049
 50
184.4091554435530043
 51
209.8736430298853008
  0
LINE
  5
9EA1
  8
0
 10
4287.2263749372814345
 20
183.3467545458620123
 30
0.0
 11
4287.2263749372814345
 21
183.9003958908718914
 31
0.0
  0
LINE
  5
9EA2
  8
0
 10
4287.2263749372814345
 20
183.9594809301719067
 30
0.0
 11
4287.2263749372814345
 21
183.964680930178389
 31
0.0
  0
ARC
  5
9EA3
  8
0
 10
4294.6028989258347792
 20
183.6666383329624921
 30
0.0
 40
7.3834566289079948
 50
182.4830821553414921
 51
184.2775629463218081
  0
ARC
  5
9EA5
  8
0
 10
4289.9509722868524477
 20
183.3228197405715889
 30
0.0
 40
2.850916752418204
 50
183.9625183773763979
 51
195.2886848849873047
  0
ARC
  5
9EA6
  8
0
 10
4291.8728441544963061
 20
183.4559467774579105
 30
0.0
 40
4.777393921655074
 50
178.6308675794460896
 51
183.9625183773763979
  0
LINE
  5
9EA7
  8
0
 10
4287.2066749372797858
 20
183.9200958908718917
 30
0.0
 11
4286.6160744928065469
 21
183.9200958908718917
 31
0.0
  0
LINE
  5
9EA8
  8
0
 10
4287.2066749372797858
 20
183.9397809301719064
 30
0.0
 11
4286.6160744928065469
 21
183.9397809301719064
 31
0.0
  0
LINE
  5
9EA9
  8
0
 10
4287.707474937281404
 20
184.4457809301783868
 30
0.0
 11
4288.3784297059537494
 21
184.4457809301783868
 31
0.0
  0
LINE
  5
9EAA
  8
0
 10
4288.4178162045582212
 20
184.4862123019476883
 30
0.0
 11
4288.4142523046220958
 21
184.6223121487855963
 31
0.0
  0
LINE
  5
9EAB
  8
0
 10
4288.4023587501451402
 20
184.6495030735783018
 30
0.0
 11
4288.3663274350856227
 21
184.6846032267339979
 31
0.0
  0
LINE
  5
9EAC
  8
0
 10
4288.3388344909599255
 20
184.6957809301719067
 30
0.0
 11
4285.4839149391273168
 21
184.695780930170713
 31
0.0
  0
ARC
  5
9EAD
  8
0
 10
4287.707474937281404
 20
183.964680930178389
 30
0.0
 40
0.4811
 50
90.0
 51
180.0
  0
ARC
  5
9EAE
  8
0
 10
4287.2066749372797858
 20
183.9003958908718914
 30
0.0
 40
0.0197
 50
359.9999999999902229
 51
90.0
  0
ARC
  5
9EAF
  8
0
 10
4287.2066749372797858
 20
183.9594809301719067
 30
0.0
 40
0.0197
 50
270.0
 51
0.0000000000048853
  0
LINE
  5
9EB0
  8
0
 10
4287.1869654883812473
 20
183.9397809301719064
 30
0.0
 11
4287.1869654883812473
 21
183.9200958908718917
 31
0.0
  0
ARC
  5
9EB1
  8
0
 10
4288.3784297059537494
 20
184.4851809301783874
 30
0.0
 40
0.0394
 50
270.0
 51
1.5000000087109571
  0
ARC
  5
9EB2
  8
0
 10
4288.374865806019443
 20
184.6212807770162954
 30
0.0
 40
0.0394
 50
1.500000008702818
 51
45.7499999815199132
  0
ARC
  5
9EB3
  8
0
 10
4288.3388344909599255
 20
184.6563809301719061
 30
0.0
 40
0.0394
 50
45.7499999815233096
 51
90.0
  0
LINE
  5
9EB4
  8
0
 10
4287.1798587501061775
 20
184.6495030736168133
 30
0.0
 11
4287.143827434945706
 21
184.6846032267719977
 31
0.0
  0
LINE
  5
9EB5
  8
0
 10
4287.1985470574381907
 20
184.362831005749797
 30
0.0
 11
4287.1917523046231508
 21
184.6223121487728065
 31
0.0
  0
LINE
  5
9EB6
  8
0
 10
4287.1559297059093296
 20
184.4457809301719067
 30
0.0
 11
4286.6668197241770031
 21
184.4457809301719919
 31
0.0
  0
ARC
  5
9EB7
  8
0
 10
4287.1559297059093296
 20
184.4851809301719072
 30
0.0
 40
0.0394
 50
270.0
 51
1.499999990121246
  0
ARC
  5
9EB8
  8
0
 10
4287.152365806018679
 20
184.6212807770162954
 30
0.0
 40
0.0394
 50
1.499999990124502
 51
45.750000061771253
  0
ARC
  5
9EB9
  8
0
 10
4287.1163344908600266
 20
184.6563809301713945
 30
0.0
 40
0.0394
 50
45.750000061772397
 51
90.0000000000521254
  0
ARC
  5
9EBA
  8
0
 10
4287.2490503813860414
 20
184.3590157789946034
 30
0.0
 40
0.0506472278117632
 50
175.6798492536138951
 51
222.3052949385647992
  0
ARC
  5
9EBB
  8
0
 10
4287.2375146906970258
 20
184.347240783568509
 30
0.0
 40
0.034203294341663
 50
220.7238029800772949
 51
305.7515286446895857
  0
ARC
  5
9EBC
  8
0
 10
4287.0968901556861965
 20
184.5935721009468011
 30
0.0
 40
0.3176791471896818
 50
300.3690914437656261
 51
314.2153537290593022
  0
ARC
  5
9EBD
  8
0
 10
4287.6914476942920373
 20
183.5297990619770019
 30
0.0
 40
0.9155233798913558
 50
90.3331110662968655
 51
114.0441793340515062
  0
LINE
  5
9EBE
  8
0
 10
4285.7589874822742786
 20
181.7652669328051047
 30
0.0
 11
4285.820548382483139
 21
181.621185481809988
 31
0.0
  0
ARC
  5
9EBF
  8
0
 10
4284.5803234342647556
 20
183.5590466783179124
 30
0.0
 40
2.114293061049477
 50
304.3087539972034961
 51
314.64986452760661
  0
ARC
  5
9EC0
  8
0
 10
4284.6496576915023979
 20
183.4669743906250119
 30
0.0
 40
2.000124412884531
 50
315.0904591602812275
 51
330.0925219649705014
  0
ARC
  5
9EC1
  8
0
 10
4285.7952189180059577
 20
181.7807473418669133
 30
0.0
 40
0.0394
 50
126.0192094109490029
 51
203.1353023700388007
  0
ARC
  5
9EC2
  8
0
 10
4285.8567798182157276
 20
181.6366658908719103
 30
0.0
 40
0.0394
 50
203.1353023700388007
 51
270.0
  0
ARC
  5
9EC3
  8
0
 10
4283.9044307634585493
 20
183.503607875899803
 30
0.0
 40
2.8729237541933101
 50
331.226921947269318
 51
341.0592030720071079
  0
ARC
  5
9EC4
  8
0
 10
4284.8647727619099896
 20
183.0068336008679069
 30
0.0
 40
1.79223468814417
 50
318.1192116482471874
 51
330.3696825174209835
  0
LINE
  5
9EC5
  8
0
 10
4286.2296630686942081
 20
181.6266069812481021
 30
0.0
 11
4286.1906623632339688
 21
181.774307475973103
 31
0.0
  0
ARC
  5
9EC6
  8
0
 10
4286.2677574034078134
 20
181.6366658908719103
 30
0.0
 40
0.0394
 50
194.7914970801492984
 51
270.0
  0
ARC
  5
9EC7
  8
0
 10
4286.2287566979466646
 20
181.7843663855969112
 30
0.0
 40
0.0394
 50
138.7041856673990878
 51
194.79149708015089
  0
ARC
  5
9EC8
  8
0
 10
4285.053109770446099
 20
183.23386392283291
 30
0.0
 40
1.5341705523844049
 50
330.1263569701147276
 51
355.5908445564469957
  0
LINE
  5
9EC9
  8
0
 10
4286.5963744928048982
 20
183.3467545458620123
 30
0.0
 11
4286.5963744928048982
 21
183.9003958908718914
 31
0.0
  0
LINE
  5
9ECA
  8
0
 10
4286.5963744928048982
 20
183.9594809301719067
 30
0.0
 11
4286.5963744928048982
 21
183.964680930178389
 31
0.0
  0
ARC
  5
9ECB
  8
0
 10
4279.219850504250644
 20
183.6666383329624921
 30
0.0
 40
7.3834566289079948
 50
355.7224370536782203
 51
357.5169178446585079
  0
ARC
  5
9ECC
  8
0
 10
4283.8717771432347945
 20
183.3228197405715889
 30
0.0
 40
2.850916752418204
 50
344.7113151150127237
 51
356.0374816226234884
  0
ARC
  5
9ECD
  8
0
 10
4281.9499052755909361
 20
183.4559467774579105
 30
0.0
 40
4.777393921655074
 50
356.0374816226234884
 51
1.369132420552241
  0
LINE
  5
9ECE
  8
0
 10
4286.1152744928049287
 20
184.4457809301783868
 30
0.0
 11
4285.4443197241344023
 21
184.4457809301783868
 31
0.0
  0
LINE
  5
9ECF
  8
0
 10
4285.404933225529021
 20
184.4862123019476883
 30
0.0
 11
4285.4084971254651464
 21
184.6223121487855963
 31
0.0
  0
LINE
  5
9ED0
  8
0
 10
4285.4203906799411925
 20
184.6495030735783018
 30
0.0
 11
4285.4564219949998005
 21
184.6846032267339979
 31
0.0
  0
ARC
  5
9ED1
  8
0
 10
4286.1152744928049287
 20
183.964680930178389
 30
0.0
 40
0.4811
 50
0.0
 51
90.0
  0
ARC
  5
9ED2
  8
0
 10
4286.6160744928065469
 20
183.9003958908718914
 30
0.0
 40
0.0197
 50
90.0
 51
180.0000000000098055
  0
ARC
  5
9ED3
  8
0
 10
4286.6160744928065469
 20
183.9594809301719067
 30
0.0
 40
0.0197
 50
179.9999999999951115
 51
270.0
  0
LINE
  5
9ED4
  8
0
 10
4286.6357839417059949
 20
183.9397809301719064
 30
0.0
 11
4286.6357839417059949
 21
183.9200958908718917
 31
0.0
  0
ARC
  5
9ED5
  8
0
 10
4285.4443197241344023
 20
184.4851809301783874
 30
0.0
 40
0.0394
 50
178.4999999912890019
 51
270.0
  0
ARC
  5
9ED6
  8
0
 10
4285.4478836240677992
 20
184.6212807770162954
 30
0.0
 40
0.0394
 50
134.2500000184801081
 51
178.4999999912971873
  0
ARC
  5
9ED7
  8
0
 10
4285.4839149391273168
 20
184.6563809301719061
 30
0.0
 40
0.0394
 50
90.0
 51
134.2500000184766975
  0
LINE
  5
9ED8
  8
0
 10
4286.6428906799801553
 20
184.6495030736168133
 30
0.0
 11
4286.6789219951397172
 21
184.6846032267719977
 31
0.0
  0
LINE
  5
9ED9
  8
0
 10
4286.6242023726490515
 20
184.362831005749797
 30
0.0
 11
4286.6309971254640914
 21
184.6223121487728065
 31
0.0
  0
ARC
  5
9EDA
  8
0
 10
4286.6668197241770031
 20
184.4851809301719072
 30
0.0
 40
0.0394
 50
178.5000000098787041
 51
270.0
  0
ARC
  5
9EDB
  8
0
 10
4286.6703836240685632
 20
184.6212807770162954
 30
0.0
 40
0.0394
 50
134.2499999382287115
 51
178.5000000098754924
  0
ARC
  5
9EDC
  8
0
 10
4286.7064149392281251
 20
184.6563809301713945
 30
0.0
 40
0.0394
 50
89.9999999999478888
 51
134.249999938227603
  0
ARC
  5
9EDD
  8
0
 10
4286.5736990487012008
 20
184.3590157789946034
 30
0.0
 40
0.0506472278117632
 50
317.6947050614351724
 51
4.320150746386064
  0
ARC
  5
9EDE
  8
0
 10
4286.5852347393902164
 20
184.347240783568509
 30
0.0
 40
0.034203294341663
 50
234.2484713553103006
 51
319.2761970199226766
  0
ARC
  5
9EDF
  8
0
 10
4286.7258592744001362
 20
184.5935721009468011
 30
0.0
 40
0.3176791471896818
 50
225.7846462709406978
 51
239.6309085562344023
  0
ARC
  5
9EE0
  8
0
 10
4286.1313017357952049
 20
183.5297990619770019
 30
0.0
 40
0.9155233798913558
 50
65.9558206659484654
 51
89.6668889337031345
  0
LINE
  5
9EE1
  8
0
 10
4285.4203906799411925
 20
184.6495030735783018
 30
0.0
 11
4288.4023587501451402
 21
184.6495030735783018
 31
0.0
  0
ARC
  5
9EE2
  8
0
 10
4282.97436542448213
 20
188.136832060171912
 30
0.0
 40
0.4702481270999773
 50
257.8101952614049992
 51
282.1898047385948871
  0
ARC
  5
9EE3
  8
0
 10
4282.97436542448213
 20
188.1368320601710025
 30
0.0
 40
0.4668473733990761
 50
259.9230828634870818
 51
267.302388716365499
  0
ARC
  5
9EE4
  8
0
 10
4282.97436542448213
 20
188.1368320601739867
 30
0.0
 40
0.4651979287020775
 50
268.1403826291198129
 51
271.8597538312183133
  0
ARC
  5
9EE5
  8
0
 10
4282.9450693656162912
 20
187.8024181722439039
 30
0.0
 40
0.1378810574927525
 50
288.7819385101930152
 51
294.7340743255289794
  0
ARC
  5
9EE6
  8
0
 10
4283.0037472793892448
 20
187.8026456825743935
 30
0.0
 40
0.1381237542749204
 50
245.2729445002350133
 51
251.2151923757513998
  0
ARC
  5
9EE7
  8
0
 10
4283.0024267389908346
 20
187.8035470122300126
 30
0.0
 40
0.1392162033964071
 50
245.183606808616986
 51
251.1940416138234866
  0
ARC
  5
9EE8
  8
0
 10
4282.9465097559568676
 20
187.8030424745361131
 30
0.0
 40
0.1386718615661859
 50
288.7924768693478086
 51
294.8266900469242842
  0
ARC
  5
9EE9
  8
0
 10
4283.023245482791026
 20
187.7917324680890943
 30
0.0
 40
0.1241803568197252
 50
255.0365200110464059
 51
257.4863255682682279
  0
ARC
  5
9EEA
  8
0
 10
4282.925331372483015
 20
187.79232708136459
 30
0.0
 40
0.1247946055924334
 50
282.5242080264537776
 51
284.9609488540510824
  0
ARC
  5
9EEB
  8
0
 10
4282.97436542448213
 20
188.1368320601727078
 30
0.0
 40
0.4668473734007897
 50
272.6977949297328223
 51
280.0769171365121792
  0
LINE
  5
9EEC
  8
0
 10
4283.4453190404537963
 20
187.7246505884814098
 30
0.0
 11
4282.5034134472089136
 21
187.7246505884814098
 31
0.0
  0
LINE
  5
9FBA
  8
0
 10
4287.0968141438515886
 20
183.5700958908718974
 30
0.0
 11
4287.0968141438534076
 21
183.9200958908718917
 31
0.0
  0
LINE
  5
9FBB
  8
0
 10
4286.7259352862338346
 20
183.5700958908718121
 30
0.0
 11
4286.7259352862338346
 21
183.9200958908718917
 31
0.0
  0
LINE
  5
9FBC
  8
0
 10
4279.2227972014270563
 20
183.5700958908718974
 30
0.0
 11
4279.2227972014270563
 21
183.9200958908718917
 31
0.0
  0
LINE
  5
9FBD
  8
0
 10
4278.8519183438093023
 20
183.5700958908718121
 30
0.0
 11
4278.8519183438093023
 21
183.9200958908718917
 31
0.0
  0
ENDSEC
  0
EOF
