  0
SECTION
  2
HEADER
  9
$ACADVER
  1
AC1009
  9
$INSBASE
 10
4310.4169760526538084
 20
186.5727855966289042
 30
0.0
  9
$EXTMIN
 10
4304.9735125905317545
 20
180.0364791592535028
 30
0.0
  9
$EXTMAX
 10
4315.8604395147776813
 20
188.0184678260609985
 30
0.0
  9
$LIMMIN
 10
0.0
 20
0.0
  9
$LIMMAX
 10
11.6929133858000007
 20
8.2677165353999982
  9
$ORTHOMODE
 70
     0
  9
$REGENMODE
 70
     1
  9
$FILLMODE
 70
     1
  9
$QTEXTMODE
 70
     0
  9
$MIRRTEXT
 70
     0
  9
$DRAGMODE
 70
     2
  9
$LTSCALE
 40
0.6431102362
  9
$OSMODE
 70
  4095
  9
$ATTMODE
 70
     1
  9
$TEXTSIZE
 40
0.2
  9
$TRACEWID
 40
0.05
  9
$TEXTSTYLE
  7
STANDARD
  9
$CLAYER
  8
0
  9
$CELTYPE
  6
BYLAYER
  9
$CECOLOR
 62
   256
  9
$DIMSCALE
 40
1.0
  9
$DIMASZ
 40
0.1875
  9
$DIMEXO
 40
0.0625
  9
$DIMDLI
 40
0.4443307087
  9
$DIMRND
 40
0.0
  9
$DIMDLE
 40
0.0
  9
$DIMEXE
 40
0.125
  9
$DIMTP
 40
0.01
  9
$DIMTM
 40
0.01
  9
$DIMTXT
 40
2.0
  9
$DIMCEN
 40
0.1052362205
  9
$DIMTSZ
 40
0.0
  9
$DIMTOL
 70
     1
  9
$DIMLIM
 70
     0
  9
$DIMTIH
 70
     1
  9
$DIMTOH
 70
     1
  9
$DIMSE1
 70
     0
  9
$DIMSE2
 70
     0
  9
$DIMTAD
 70
     0
  9
$DIMZIN
 70
     0
  9
$DIMBLK
  1

  9
$DIMASO
 70
     1
  9
$DIMSHO
 70
     1
  9
$DIMPOST
  1
\X
  9
$DIMAPOST
  1

  9
$DIMALT
 70
     1
  9
$DIMALTD
 70
     2
  9
$DIMALTF
 40
25.3999999999999986
  9
$DIMLFAC
 40
1.0
  9
$DIMTOFL
 70
     0
  9
$DIMTVP
 40
0.0
  9
$DIMTIX
 70
     0
  9
$DIMSOXD
 70
     0
  9
$DIMSAH
 70
     0
  9
$DIMBLK1
  1

  9
$DIMBLK2
  1

  9
$DIMSTYLE
  2
STANDARD
  9
$DIMCLRD
 70
     0
  9
$DIMCLRE
 70
     0
  9
$DIMCLRT
 70
     0
  9
$DIMTFAC
 40
1.0
  9
$DIMGAP
 40
0.09
  9
$LUNITS
 70
     2
  9
$LUPREC
 70
     4
  9
$SKETCHINC
 40
0.1
  9
$FILLETRAD
 40
0.0
  9
$AUNITS
 70
     0
  9
$AUPREC
 70
     0
  9
$MENU
  1
.
  9
$ELEVATION
 40
0.0
  9
$PELEVATION
 40
0.0
  9
$THICKNESS
 40
0.0
  9
$LIMCHECK
 70
     0
  9
$BLIPMODE
 70
     0
  9
$CHAMFERA
 40
0.0
  9
$CHAMFERB
 40
0.0
  9
$SKPOLY
 70
     0
  9
$TDCREATE
 40
2458060.468368056230247
  9
$TDUPDATE
 40
2459423.6135069439187646
  9
$TDINDWG
 40
0.4128311343
  9
$TDUSRTIMER
 40
0.4128311343
  9
$USRTIMER
 70
     1
  9
$ANGBASE
 50
0.0
  9
$ANGDIR
 70
     0
  9
$PDMODE
 70
     0
  9
$PDSIZE
 40
0.3125
  9
$PLINEWID
 40
0.0
  9
$COORDS
 70
     1
  9
$SPLFRAME
 70
     0
  9
$SPLINETYPE
 70
     6
  9
$SPLINESEGS
 70
     8
  9
$ATTDIA
 70
     1
  9
$ATTREQ
 70
     1
  9
$HANDLING
 70
     1
  9
$HANDSEED
  5
A64B
  9
$SURFTAB1
 70
     6
  9
$SURFTAB2
 70
     6
  9
$SURFTYPE
 70
     6
  9
$SURFU
 70
     6
  9
$SURFV
 70
     6
  9
$UCSNAME
  2

  9
$UCSORG
 10
0.0
 20
0.0
 30
0.0
  9
$UCSXDIR
 10
1.0
 20
0.0
 30
0.0
  9
$UCSYDIR
 10
0.0
 20
1.0
 30
0.0
  9
$PUCSNAME
  2

  9
$PUCSORG
 10
0.0
 20
0.0
 30
0.0
  9
$PUCSXDIR
 10
1.0
 20
0.0
 30
0.0
  9
$PUCSYDIR
 10
0.0
 20
1.0
 30
0.0
  9
$USERI1
 70
     0
  9
$USERI2
 70
     0
  9
$USERI3
 70
     0
  9
$USERI4
 70
     0
  9
$USERI5
 70
     0
  9
$USERR1
 40
0.0
  9
$USERR2
 40
0.0
  9
$USERR3
 40
0.0
  9
$USERR4
 40
0.0
  9
$USERR5
 40
0.0
  9
$WORLDVIEW
 70
     1
  9
$SHADEDGE
 70
     3
  9
$SHADEDIF
 70
    70
  9
$TILEMODE
 70
     1
  9
$MAXACTVP
 70
    64
  9
$PLIMCHECK
 70
     0
  9
$PEXTMIN
 10
1.0000000000000000E+20
 20
1.0000000000000000E+20
 30
1.0000000000000000E+20
  9
$PEXTMAX
 10
-1.0000000000000000E+20
 20
-1.0000000000000000E+20
 30
-1.0000000000000000E+20
  9
$PLIMMIN
 10
0.0
 20
0.0
  9
$PLIMMAX
 10
12.0
 20
9.0
  9
$UNITMODE
 70
     0
  9
$VISRETAIN
 70
     1
  9
$PLINEGEN
 70
     0
  9
$PSLTSCALE
 70
     1
  0
ENDSEC
  0
SECTION
  2
TABLES
  0
TABLE
  2
VPORT
 70
     1
  0
VPORT
  2
*ACTIVE
 70
     0
 10
0.0
 20
0.0
 11
1.0
 21
1.0
 12
508.7864414754824907
 22
58.0296534285514127
 13
0.0
 23
0.0
 14
1.0
 24
1.0
 15
0.0
 25
0.0
 16
0.0
 26
0.0
 36
17.1152628219792007
 17
3803.5440673828129547
 27
125.9952621967499056
 37
0.0
 40
8.0620804592944495
 41
2.8440779610194902
 42
50.0
 43
0.0
 44
0.0
 50
0.0
 51
0.0
 71
     0
 72
   100
 73
     1
 74
     1
 75
     0
 76
     0
 77
     0
 78
     0
  0
ENDTAB
  0
TABLE
  2
LTYPE
 70
     2
  0
LTYPE
  2
CONTINUOUS
 70
     0
  3
Solid line
 72
    65
 73
     0
 40
0.0
  0
LTYPE
  2
PHANTOM2
 70
     0
  3
___ _ _ ___ _ _ ___ _ _ ___ _ _
 72
    65
 73
     6
 40
1.25
 49
0.625
 49
-0.125
 49
0.125
 49
-0.125
 49
0.125
 49
-0.125
  0
ENDTAB
  0
TABLE
  2
LAYER
 70
     2
  0
LAYER
  2
0
 70
     0
 62
   255
  6
CONTINUOUS
  0
LAYER
  2
DEFPOINTS
 70
     0
 62
     7
  6
CONTINUOUS
  0
ENDTAB
  0
TABLE
  2
STYLE
 70
     1
  0
STYLE
  2
STANDARD
 70
     0
 40
0.0
 41
0.8
 50
0.0
 71
     0
 42
0.2
  3
txt
  4

  0
ENDTAB
  0
TABLE
  2
VIEW
 70
     0
  0
ENDTAB
  0
TABLE
  2
UCS
 70
     0
  0
ENDTAB
  0
TABLE
  2
APPID
 70
     9
  0
APPID
  2
ACAD
 70
     0
  0
APPID
  2
ACAD_MLEADERVER
 70
     0
  0
APPID
  2
ACAD_EXEMPT_FROM_CAD_STANDARDS
 70
     0
  0
APPID
  2
ACAD_NAV_VCDISPLAY
 70
     0
  0
APPID
  2
ACAECLAYERSTANDARD
 70
     0
  0
APPID
  2
ACCMTRANSPARENCY
 70
     0
  0
APPID
  2
ACAD_DSTYLE_DIMJAG
 70
     0
  0
APPID
  2
ACAD_DSTYLE_DIMTALN
 70
     0
  0
APPID
  2
ACDBATTR
 70
     0
  0
ENDTAB
  0
TABLE
  2
DIMSTYLE
 70
     1
  0
DIMSTYLE
  2
STANDARD
 70
     0
  3

  4

  5

  6

  7

 40
1.0
 41
0.1875
 42
0.0625
 43
0.38
 44
0.125
 45
0.0
 46
0.0
 47
0.01
 48
0.01
140
0.15625
141
0.09
142
0.0
143
25.3999999999999986
144
1.0
145
0.0
146
1.0
147
0.09
 71
     1
 72
     0
 73
     1
 74
     1
 75
     0
 76
     0
 77
     0
 78
     4
170
     0
171
     2
172
     0
173
     0
174
     0
175
     0
176
     0
177
     0
178
     0
  0
ENDTAB
  0
ENDSEC
  0
SECTION
  2
BLOCKS
  0
BLOCK
  8
0
  2
$MODEL_SPACE
 70
     0
 10
0.0
 20
0.0
 30
0.0
  3
$MODEL_SPACE
  1

  0
ENDBLK
  5
21
  8
0
  0
BLOCK
 67
     1
  8
0
  2
$PAPER_SPACE
 70
     0
 10
0.0
 20
0.0
 30
0.0
  3
$PAPER_SPACE
  1

  0
ENDBLK
  5
1D
 67
     1
  8
0
  0
ENDSEC
  0
SECTION
  2
ENTITIES
  0
ATTDEF
  5
3930
  8
DEFPOINTS
 10
4310.4129856388635744
 20
186.570241566885386
 30
0.0
 40
0.001
  1
K-EX27100T-3E2
  3

  2
MODELNUMBER
 70
     0
1001
ACDBATTR
1070
     0
1070
     1
  0
ATTDEF
  5
3931
  8
DEFPOINTS
 10
4310.4129856388635744
 20
186.5685749002188061
 30
0.0
 40
0.001
  1

  3

  2
TRADENAME
 70
     0
1001
ACDBATTR
1070
     0
1070
     1
  0
ATTDEF
  5
3932
  8
DEFPOINTS
 10
4310.4129856388635744
 20
186.5669082335521125
 30
0.0
 40
0.001
  1
BATHROOM SINK FAUCET
  3

  2
PRODUCT
 70
     0
1001
ACDBATTR
1070
     0
1070
     1
  0
LINE
  5
A263
  8
0
 10
4309.9344834517096388
 20
186.655610883883611
 30
0.0
 11
4309.9344834517096388
 21
180.3979641913404066
 31
0.0
  0
ARC
  5
A264
  8
0
 10
4310.6570295508572599
 20
180.8719994132839872
 30
0.0
 40
0.8709034482320406
 50
214.7567888976728909
 51
253.2282735960104105
  0
ARC
  5
A265
  8
0
 10
4309.9738834517111172
 20
180.3979641913404066
 30
0.0
 40
0.0394
 50
180.0000000000098055
 51
214.756788897631111
  0
ARC
  5
A266
  8
0
 10
4310.4169760526538084
 20
180.0753826315699087
 30
0.0
 40
0.038903472316389
 50
253.1853853965328085
 51
286.8146146035185211
  0
ARC
  5
A267
  8
0
 10
4311.6411231477850379
 20
186.9097699349316883
 30
0.0
 40
2.3801346646578332
 50
180.9221858178852074
 51
215.078840774955296
  0
ARC
  5
A268
  8
0
 10
4308.7850583477620603
 20
186.8637970913075037
 30
0.0
 40
0.4763001139220539
 50
0.9221858178852377
 51
1.2659329802755721
  0
ARC
  5
A269
  8
0
 10
4309.3780847761681798
 20
186.8680571833442059
 30
0.0
 40
0.1170102903300273
 50
173.4654122314954066
 51
176.9318833732895087
  0
ARC
  5
A26A
  8
0
 10
4309.3045044021710055
 20
186.8731806268542073
 30
0.0
 40
0.0434491272128629
 50
140.9962238503864
 51
169.1313626244964041
  0
ARC
  5
A26B
  8
0
 10
4311.1728411552930993
 20
185.4716539572667102
 30
0.0
 40
2.3790051110645392
 50
108.5252893311834015
 51
143.0858579040080087
  0
ARC
  5
A26C
  8
0
 10
4310.4247142037747835
 20
187.8313010695127048
 30
0.0
 40
2.4131213563492162
 50
252.9707217898983913
 51
258.2786519517123907
  0
ARC
  5
A26D
  8
0
 10
4309.7273015042455881
 20
185.5627714542341096
 30
0.0
 40
0.0398870855190967
 50
211.5527076834021898
 51
256.5245440363723901
  0
ARC
  5
A26E
  8
0
 10
4310.6570295508572599
 20
186.1815756619398883
 30
0.0
 40
0.8709034482320406
 50
106.7717264039896037
 51
145.2432111023258017
  0
ARC
  5
A26F
  8
0
 10
4309.9797457370923439
 20
186.6537761824131962
 30
0.0
 40
0.0452994548248096
 50
147.5644181064716065
 51
177.6787929958620111
  0
ARC
  5
A270
  8
0
 10
4310.4169760266950107
 20
186.978091611857991
 30
0.0
 40
0.0389999965403225
 50
89.9999618616331531
 51
106.7717264039896037
  0
LINE
  5
A271
  8
0
 10
4310.8994686535979781
 20
186.655610883883611
 30
0.0
 11
4310.8994686535979781
 21
180.3979641913404066
 31
0.0
  0
ARC
  5
A272
  8
0
 10
4310.176922554452176
 20
180.8719994132839872
 30
0.0
 40
0.8709034482320406
 50
286.7717264039895895
 51
325.2432111023271091
  0
ARC
  5
A273
  8
0
 10
4310.8600686535992281
 20
180.3979641913404066
 30
0.0
 40
0.0394
 50
325.2432111023687753
 51
359.9999999999885745
  0
ARC
  5
A274
  8
0
 10
4309.192828957524398
 20
186.9097699349316883
 30
0.0
 40
2.3801346646578332
 50
324.9211592250446756
 51
359.0778141821147074
  0
ARC
  5
A275
  8
0
 10
4312.0488937575473756
 20
186.8637970913075037
 30
0.0
 40
0.4763001139220539
 50
178.7340670197243924
 51
179.0778141821147074
  0
ARC
  5
A276
  8
0
 10
4311.4558673291412561
 20
186.8680571833442059
 30
0.0
 40
0.1170102903300273
 50
3.0681166267105411
 51
6.5345877685045961
  0
ARC
  5
A277
  8
0
 10
4311.5294477031366114
 20
186.8731806268542073
 30
0.0
 40
0.0434491272128629
 50
10.8686373755035497
 51
39.0037761496135502
  0
ARC
  5
A278
  8
0
 10
4309.6611109500154271
 20
185.4716539572667102
 30
0.0
 40
2.3790051110645392
 50
36.9141420959919984
 51
71.4747106688165275
  0
ARC
  5
A279
  8
0
 10
4310.4092379015337428
 20
187.8313010695127048
 30
0.0
 40
2.4131213563492162
 50
281.7213480482874957
 51
287.0292782101017224
  0
ARC
  5
A27A
  8
0
 10
4311.1066506010620287
 20
185.5627714542341096
 30
0.0
 40
0.0398870855190967
 50
283.4754559636276099
 51
328.4472923165977818
  0
ARC
  5
A27B
  8
0
 10
4310.176922554452176
 20
186.1815756619398883
 30
0.0
 40
0.8709034482320406
 50
34.7567888976729122
 51
73.2282735960104105
  0
ARC
  5
A27C
  8
0
 10
4310.8525060756446692
 20
186.6532440470633105
 30
0.0
 40
0.0470221824733468
 50
2.8851720912994381
 51
31.8716168063665606
  0
ARC
  5
A27D
  8
0
 10
4310.4169760786144252
 20
186.978091611857991
 30
0.0
 40
0.0389999965403225
 50
73.2282735960104105
 51
90.0000381383668469
  0
LINE
  5
A27E
  8
0
 10
4309.705949636004334
 20
185.5290816113341066
 30
0.0
 11
4309.9253000999060532
 21
185.8310813300766995
 31
0.0
  0
LINE
  5
A27F
  8
0
 10
4311.1322086313048203
 20
185.5321521334340957
 30
0.0
 11
4310.9029737280434347
 21
185.8458636404749882
 31
0.0
  0
LINE
  5
A280
  8
0
 10
4309.9365132226648711
 20
186.6673035732816004
 30
0.0
 11
4309.2631919228051629
 21
186.8866381787931061
 31
0.0
  0
LINE
  5
A281
  8
0
 10
4310.8971396655060744
 20
186.6680402729554942
 30
0.0
 11
4311.5707565803040779
 21
186.8871980356340998
 31
0.0
  0
ARC
  5
A282
  8
0
 10
4310.922381351149852
 20
187.205933406280792
 30
0.0
 40
0.1568287834823719
 50
244.378428262927514
 51
291.3017473591842759
  0
ARC
  5
A283
  8
0
 10
4310.9250068323253799
 20
187.2114079177912913
 30
0.0
 40
0.162900309458812
 50
186.2532480760986004
 51
244.378428262927514
  0
ARC
  5
A284
  8
0
 10
4310.92945554320886
 20
187.2036977835740004
 30
0.0
 40
0.1666820495230915
 50
146.8537254749909948
 51
183.4510288360596064
  0
ARC
  5
A285
  8
0
 10
4310.9161881527079458
 20
187.2006579341033898
 30
0.0
 40
0.1575407628491646
 50
82.2962006357449525
 51
143.2874497250558079
  0
ARC
  5
A286
  8
0
 10
4310.9135153227043702
 20
187.1969496972712932
 30
0.0
 40
0.1615881536307044
 50
33.9528415403359318
 51
81.5332622973198369
  0
ARC
  5
A287
  8
0
 10
4310.8994306501390383
 20
187.1938684968056918
 30
0.0
 40
0.1750728004820869
 50
2.2285945106743008
 51
32.2145879760888718
  0
ARC
  5
A288
  8
0
 10
4310.9248422773680431
 20
187.1990667824576065
 30
0.0
 40
0.1495374180148623
 50
291.3790327132077778
 51
337.0848191031909096
  0
ARC
  5
A289
  8
0
 10
4310.854086839921365
 20
187.2130115629410056
 30
0.0
 40
0.2206292810659888
 50
340.9065907404694826
 51
356.7949961357288089
  0
ARC
  5
A28A
  8
0
 10
4310.7199533409493597
 20
187.0347971352281036
 30
0.0
 40
0.0362426823966652
 50
100.8000666333487061
 51
188.4127290993918962
  0
ARC
  5
A28B
  8
0
 10
4310.7590692160656545
 20
187.0405821450804922
 30
0.0
 40
0.0757840281649742
 50
188.4127290993918962
 51
221.4869306882322917
  0
ARC
  5
A28C
  8
0
 10
4310.8928049813230245
 20
187.1588471830735045
 30
0.0
 40
0.2543109844498565
 50
221.4869306882322917
 51
237.8118042997278963
  0
ARC
  5
A28D
  8
0
 10
4310.8247863072092514
 20
187.0507859947742872
 30
0.0
 40
0.1266248049121088
 50
237.8118042997278963
 51
259.7306348670409193
  0
ARC
  5
A28E
  8
0
 10
4310.8158186446680702
 20
187.0012897148752131
 30
0.0
 40
0.0763227105692188
 50
259.7306348670409193
 51
271.7137259416468282
  0
ARC
  5
A28F
  8
0
 10
4310.8168342278531782
 20
186.9673453859942924
 30
0.0
 40
0.0423631924280299
 50
271.7137259416988968
 51
3.4326783411430659
  0
ARC
  5
A290
  8
0
 10
4310.8570558131877988
 20
187.1332265537897968
 30
0.0
 40
0.1493257175519589
 50
143.9481315356885887
 51
172.3626696147655082
  0
ARC
  5
A291
  8
0
 10
4310.861644888535011
 20
187.1326111969540875
 30
0.0
 40
0.1539558662084715
 50
172.3626696147655082
 51
202.4333665182944912
  0
ARC
  5
A292
  8
0
 10
4310.8697580442640174
 20
187.1359607271654966
 30
0.0
 40
0.1627332603844241
 50
202.4333665182944912
 51
262.4046640077506822
  0
ARC
  5
A293
  8
0
 10
4310.8679574503348704
 20
187.1224575187225128
 30
0.0
 40
0.1491105302339007
 50
262.4046640076991252
 51
285.3821729596053274
  0
ARC
  5
A294
  8
0
 10
4310.8660964151276858
 20
187.1292221847639041
 30
0.0
 40
0.1561265232992582
 50
285.3821729596053274
 51
321.7447728374634153
  0
LINE
  5
A295
  8
0
 10
4310.9886963985918555
 20
187.0325540135170002
 30
0.0
 11
4311.0452101387745643
 21
187.1103367575105949
 31
0.0
  0
LINE
  5
A296
  8
0
 10
4310.736328276828317
 20
187.2211073360284104
 30
0.0
 11
4310.7898964321384483
 21
187.2948359213112894
 31
0.0
  0
CIRCLE
  5
A297
  8
0
 10
4310.9300012471003356
 20
187.2164446203111083
 30
0.0
 40
0.0883279012994888
  0
LINE
  5
A298
  8
0
 10
4310.8617333593592775
 20
186.9734769464380975
 30
0.0
 11
4310.8274893075840737
 21
186.9263440524964039
 31
0.0
  0
LINE
  5
A299
  8
0
 10
4310.7180403375641617
 20
187.0771121728176922
 30
0.0
 11
4310.6839964376467833
 21
187.0302547644600963
 31
0.0
  0
LINE
  5
A29A
  8
0
 10
4310.4169760526538084
 20
180.0364791592535028
 30
0.0
 11
4310.4169760526538084
 21
187.7273873779269024
 31
0.0
  0
ARC
  5
A29B
  8
0
 10
4307.7042927248494379
 20
186.9097699349316883
 30
0.0
 40
2.3801346646578332
 50
180.9221858178852074
 51
182.7404925710507939
  0
ARC
  5
A29C
  8
0
 10
4307.7042927248494379
 20
186.9097699349316883
 30
0.0
 40
2.3801346646578332
 50
196.6433174015812995
 51
215.078840774955296
  0
ARC
  5
A29D
  8
0
 10
4304.8482279248246414
 20
186.8637970913075037
 30
0.0
 40
0.4763001139220539
 50
0.9221858178852377
 51
1.2659329802755721
  0
ARC
  5
A29E
  8
0
 10
4305.4412543532307609
 20
186.8680571833442059
 30
0.0
 40
0.1170102903300273
 50
173.4654122314954066
 51
176.9318833732895087
  0
ARC
  5
A29F
  8
0
 10
4305.3676739792363151
 20
186.8731806268542073
 30
0.0
 40
0.0434491272128629
 50
140.9962238503864
 51
169.1313626244964041
  0
ARC
  5
A2A0
  8
0
 10
4307.2360107323565899
 20
185.4716539572667102
 30
0.0
 40
2.3790051110645392
 50
116.0087972516219992
 51
143.0858579040080087
  0
ARC
  5
A2A1
  8
0
 10
4306.4878837808382741
 20
187.8313010695127048
 30
0.0
 40
2.4131213563492162
 50
252.9707217898983913
 51
262.9760052427703272
  0
ARC
  5
A2A2
  8
0
 10
4305.7904710813108977
 20
185.5627714542341096
 30
0.0
 40
0.0398870855190967
 50
211.5527076834021898
 51
256.5245440363723901
  0
LINE
  5
A2A3
  8
0
 10
4305.7691192130669151
 20
185.5290816113341066
 30
0.0
 11
4306.1923577778443359
 21
186.1117926083825864
 31
0.0
  0
LINE
  5
A2A4
  8
0
 10
4305.6046978764697997
 20
186.7959700247128012
 30
0.0
 11
4305.326361499867744
 21
186.8866381787931061
 31
0.0
  0
LINE
  5
A2A5
  8
0
 10
4304.9735125905317545
 20
186.270668883322287
 30
0.0
 11
4304.9735125905317545
 21
186.7533700247128081
 31
0.0
  0
LINE
  5
A2A6
  8
0
 10
4305.0250148613986312
 20
186.3221819585820072
 30
0.0
 11
4305.0250148613986312
 21
186.7018690088162884
 31
0.0
  0
LINE
  5
A2A7
  8
0
 10
4305.0161125905306108
 20
186.2280688833222939
 30
0.0
 11
4306.0659952390469698
 21
186.2280688833222939
 31
0.0
  0
LINE
  5
A2A8
  8
0
 10
4305.0161125905306108
 20
186.7959700247128012
 30
0.0
 11
4306.0659952390469698
 21
186.7959700247128012
 31
0.0
  0
ARC
  5
A2A9
  8
0
 10
4305.0161125905306108
 20
186.270668883322287
 30
0.0
 40
0.0426
 50
180.0
 51
270.0
  0
ARC
  5
A2AA
  8
0
 10
4305.0161125905306108
 20
186.7533700247128081
 30
0.0
 40
0.0426
 50
90.0
 51
180.0000000000048885
  0
LINE
  5
A2AB
  8
0
 10
4305.0676148613993064
 20
186.74446900881631
 30
0.0
 11
4306.1207233458080736
 21
186.74446900881631
 31
0.0
  0
LINE
  5
A2AC
  8
0
 10
4305.0676148613993064
 20
186.2795819585820141
 30
0.0
 11
4306.1207233458080736
 21
186.2795819585820141
 31
0.0
  0
ARC
  5
A2AD
  8
0
 10
4305.0676148613993064
 20
186.3221819585820072
 30
0.0
 40
0.0426
 50
180.0
 51
270.0
  0
ARC
  5
A2AE
  8
0
 10
4305.0676148613993064
 20
186.7018690088162884
 30
0.0
 40
0.0426
 50
90.0
 51
180.0000000000048885
  0
LINE
  5
A2AF
  8
0
 10
4305.03749211252034
 20
186.7319917576948001
 30
0.0
 11
4304.9901395023816804
 21
186.7871362606890955
 31
0.0
  0
LINE
  5
A2B0
  8
0
 10
4304.9859898416525539
 20
186.2405461344438038
 30
0.0
 11
4305.03749211252034
 21
186.2920592097034955
 31
0.0
  0
LINE
  5
A2B1
  8
0
 10
4306.1927952390478822
 20
186.101268883322291
 30
0.0
 11
4306.1927952390478822
 21
185.0481701920386115
 31
0.0
  0
LINE
  5
A2B2
  8
0
 10
4306.1927952390478822
 20
186.9227700247128041
 30
0.0
 11
4306.1927952390478822
 21
187.9758678260608917
 31
0.0
  0
LINE
  5
A2B3
  8
0
 10
4306.2353952390467384
 20
185.0055701920385047
 30
0.0
 11
4306.7245399238372556
 21
185.0055701920385047
 31
0.0
  0
ARC
  5
A2B4
  8
0
 10
4306.0659952390469698
 20
186.101268883322291
 30
0.0
 40
0.1268
 50
359.9999999999968168
 51
90.0
  0
ARC
  5
A2B5
  8
0
 10
4306.0659952390469698
 20
186.9227700247128041
 30
0.0
 40
0.1268
 50
270.0
 51
0.0000000000016284
  0
LINE
  5
A2B6
  8
0
 10
4306.2475233458080766
 20
186.8712690088163129
 30
0.0
 11
4306.2475233458080766
 21
187.9243690127379125
 31
0.0
  0
LINE
  5
A2B7
  8
0
 10
4306.2475233458080766
 20
186.1527819585820112
 30
0.0
 11
4306.2475233458080766
 21
185.0996821882584982
 31
0.0
  0
ARC
  5
A2B8
  8
0
 10
4306.1207233458080736
 20
186.1527819585820112
 30
0.0
 40
0.1268
 50
359.9999999999984084
 51
90.0
  0
ARC
  5
A2B9
  8
0
 10
4306.1207233458080736
 20
186.8712690088163129
 30
0.0
 40
0.1268
 50
270.0
 51
359.9999999999951115
  0
LINE
  5
A2BA
  8
0
 10
4306.2901233458069328
 20
185.0570821882585051
 30
0.0
 11
4306.6698118170761518
 21
185.0570821882585051
 31
0.0
  0
LINE
  5
A2BB
  8
0
 10
4306.2901233458069328
 20
187.9669690127379056
 30
0.0
 11
4306.6698118170761518
 21
187.9669690127379056
 31
0.0
  0
ARC
  5
A2BC
  8
0
 10
4306.2353952390467384
 20
185.0481701920386115
 30
0.0
 40
0.0426
 50
180.0
 51
270.0
  0
ARC
  5
A2BD
  8
0
 10
4306.2901233458069328
 20
185.0996821882584982
 30
0.0
 40
0.0426
 50
180.0
 51
270.0
  0
LINE
  5
A2BE
  8
0
 10
4306.2353952390467384
 20
188.0184678260609985
 30
0.0
 11
4306.7245399238372556
 21
188.0184678260609985
 31
0.0
  0
ARC
  5
A2BF
  8
0
 10
4306.2901233458069328
 20
187.9243690127379125
 30
0.0
 40
0.0426
 50
90.0
 51
180.0
  0
ARC
  5
A2C0
  8
0
 10
4306.2353952390467384
 20
187.9758678260608917
 30
0.0
 40
0.0426
 50
90.0
 51
180.0000000000048885
  0
ARC
  5
A2C1
  8
0
 10
4305.2556424380345561
 20
186.9097699349316883
 30
0.0
 40
2.3801346646578332
 50
357.2595074289491208
 51
359.0778141821147074
  0
ARC
  5
A2C2
  8
0
 10
4305.2556424380345561
 20
186.9097699349316883
 30
0.0
 40
2.3801346646578332
 50
324.9211592250446756
 51
343.3566825984186153
  0
ARC
  5
A2C3
  8
0
 10
4308.1117072380584432
 20
186.8637970913075037
 30
0.0
 40
0.4763001139220539
 50
178.7340670197243924
 51
179.0778141821147074
  0
ARC
  5
A2C4
  8
0
 10
4307.5186808096532332
 20
186.8680571833442059
 30
0.0
 40
0.1170102903300273
 50
3.0681166267105411
 51
6.5345877685045961
  0
ARC
  5
A2C5
  8
0
 10
4307.5922611836485885
 20
186.8731806268542073
 30
0.0
 40
0.0434491272128629
 50
10.8686373755035497
 51
39.0037761496135502
  0
ARC
  5
A2C6
  8
0
 10
4305.7239244305255852
 20
185.4716539572667102
 30
0.0
 40
2.3790051110645392
 50
36.9141420959919984
 51
63.9912027483779724
  0
ARC
  5
A2C7
  8
0
 10
4306.4720513820457199
 20
187.8313010695127048
 30
0.0
 40
2.4131213563492162
 50
277.0239947572296728
 51
287.0292782101017224
  0
ARC
  5
A2C8
  8
0
 10
4307.1694640815740058
 20
185.5627714542341096
 30
0.0
 40
0.0398870855190967
 50
283.4754559636276099
 51
328.4472923165977818
  0
LINE
  5
A2C9
  8
0
 10
4307.1908159498161695
 20
185.5290816113341066
 30
0.0
 11
4306.7675773850396581
 21
186.1117926083825864
 31
0.0
  0
LINE
  5
A2CA
  8
0
 10
4307.3552372864141944
 20
186.7959700247128012
 30
0.0
 11
4307.6335736630153406
 21
186.8866381787931061
 31
0.0
  0
LINE
  5
A2CB
  8
0
 10
4307.9864225723522395
 20
186.270668883322287
 30
0.0
 11
4307.9864225723522395
 21
186.7533700247128081
 31
0.0
  0
LINE
  5
A2CC
  8
0
 10
4307.9349203014844534
 20
186.3221819585820072
 30
0.0
 11
4307.9349203014844534
 21
186.7018690088162884
 31
0.0
  0
LINE
  5
A2CD
  8
0
 10
4307.9438225723533833
 20
186.2280688833222939
 30
0.0
 11
4306.8939399238361148
 21
186.2280688833222939
 31
0.0
  0
LINE
  5
A2CE
  8
0
 10
4307.9438225723533833
 20
186.7959700247128012
 30
0.0
 11
4306.8939399238361148
 21
186.7959700247128012
 31
0.0
  0
ARC
  5
A2CF
  8
0
 10
4307.9438225723533833
 20
186.270668883322287
 30
0.0
 40
0.0426
 50
270.0
 51
0.0
  0
ARC
  5
A2D0
  8
0
 10
4307.9438225723533833
 20
186.7533700247128081
 30
0.0
 40
0.0426
 50
359.9999999999951115
 51
90.0
  0
LINE
  5
A2D1
  8
0
 10
4307.8923203014837782
 20
186.74446900881631
 30
0.0
 11
4306.8392118170759204
 21
186.74446900881631
 31
0.0
  0
LINE
  5
A2D2
  8
0
 10
4307.8923203014837782
 20
186.2795819585820141
 30
0.0
 11
4306.8392118170759204
 21
186.2795819585820141
 31
0.0
  0
ARC
  5
A2D3
  8
0
 10
4307.8923203014837782
 20
186.3221819585820072
 30
0.0
 40
0.0426
 50
270.0
 51
0.0
  0
ARC
  5
A2D4
  8
0
 10
4307.8923203014837782
 20
186.7018690088162884
 30
0.0
 40
0.0426
 50
359.9999999999951115
 51
90.0
  0
LINE
  5
A2D5
  8
0
 10
4307.9224430503627445
 20
186.7319917576948001
 30
0.0
 11
4307.9697956605014042
 21
186.7871362606890955
 31
0.0
  0
LINE
  5
A2D6
  8
0
 10
4307.9739453212314402
 20
186.2405461344438038
 30
0.0
 11
4307.9224430503627445
 21
186.2920592097034955
 31
0.0
  0
LINE
  5
A2D7
  8
0
 10
4306.7671399238361118
 20
186.101268883322291
 30
0.0
 11
4306.7671399238361118
 21
185.0481701920386115
 31
0.0
  0
LINE
  5
A2D8
  8
0
 10
4306.7671399238361118
 20
186.9227700247128041
 30
0.0
 11
4306.7671399238361118
 21
187.9758678260608917
 31
0.0
  0
ARC
  5
A2D9
  8
0
 10
4306.8939399238361148
 20
186.101268883322291
 30
0.0
 40
0.1268
 50
90.0
 51
180.0000000000032117
  0
ARC
  5
A2DA
  8
0
 10
4306.8939399238361148
 20
186.9227700247128041
 30
0.0
 40
0.1268
 50
179.9999999999984084
 51
270.0
  0
LINE
  5
A2DB
  8
0
 10
4306.7124118170759175
 20
186.8712690088163129
 30
0.0
 11
4306.7124118170759175
 21
187.9243690127379125
 31
0.0
  0
LINE
  5
A2DC
  8
0
 10
4306.7124118170759175
 20
186.1527819585820112
 30
0.0
 11
4306.7124118170759175
 21
185.0996821882584982
 31
0.0
  0
ARC
  5
A2DD
  8
0
 10
4306.8392118170759204
 20
186.1527819585820112
 30
0.0
 40
0.1268
 50
90.0
 51
180.0000000000015916
  0
ARC
  5
A2DE
  8
0
 10
4306.8392118170759204
 20
186.8712690088163129
 30
0.0
 40
0.1268
 50
180.0000000000048885
 51
270.0
  0
ARC
  5
A2DF
  8
0
 10
4306.7245399238372556
 20
185.0481701920386115
 30
0.0
 40
0.0426
 50
270.0
 51
0.0
  0
ARC
  5
A2E0
  8
0
 10
4306.6698118170761518
 20
185.0996821882584982
 30
0.0
 40
0.0426
 50
270.0
 51
0.0
  0
ARC
  5
A2E1
  8
0
 10
4306.6698118170761518
 20
187.9243690127379125
 30
0.0
 40
0.0426
 50
0.0
 51
90.0
  0
ARC
  5
A2E2
  8
0
 10
4306.7245399238372556
 20
187.9758678260608917
 30
0.0
 40
0.0426
 50
359.9999999999951115
 51
90.0
  0
LINE
  5
A2E3
  8
0
 10
4306.754662672714403
 20
185.0180474431599862
 30
0.0
 11
4306.6999345659542087
 21
185.0695594393799865
 31
0.0
  0
LINE
  5
A2E4
  8
0
 10
4306.205272490169591
 20
185.0180474431599862
 30
0.0
 11
4306.2600005969297854
 21
185.0695594393799865
 31
0.0
  0
LINE
  5
A2E5
  8
0
 10
4306.6999345659542087
 20
187.9544917616165094
 30
0.0
 11
4306.754662672714403
 21
188.0059905749394886
 31
0.0
  0
LINE
  5
A2E6
  8
0
 10
4306.2600005969297854
 20
187.9544917616165094
 30
0.0
 11
4306.20323616929727
 21
188.0038062267447003
 31
0.0
  0
ARC
  5
A2E7
  8
0
 10
4313.1296593804609074
 20
186.9097699349316883
 30
0.0
 40
2.3801346646578332
 50
357.2595074289491208
 51
359.0778141821147074
  0
ARC
  5
A2E8
  8
0
 10
4313.1296593804609074
 20
186.9097699349316883
 30
0.0
 40
2.3801346646578332
 50
324.9211592250446756
 51
343.3566825984186153
  0
ARC
  5
A2E9
  8
0
 10
4315.9857241804829755
 20
186.8637970913075037
 30
0.0
 40
0.4763001139220539
 50
178.7340670197243924
 51
179.0778141821147074
  0
ARC
  5
A2EA
  8
0
 10
4315.392697752076856
 20
186.8680571833442059
 30
0.0
 40
0.1170102903300273
 50
3.0681166267105411
 51
6.5345877685045961
  0
ARC
  5
A2EB
  8
0
 10
4315.4662781260731208
 20
186.8731806268542073
 30
0.0
 40
0.0434491272128629
 50
10.8686373755035497
 51
39.0037761496135502
  0
ARC
  5
A2EC
  8
0
 10
4313.5979413729519365
 20
185.4716539572667102
 30
0.0
 40
2.3790051110645392
 50
36.9141420959919984
 51
63.9912027483779724
  0
ARC
  5
A2ED
  8
0
 10
4314.3460683244702523
 20
187.8313010695127048
 30
0.0
 40
2.4131213563492162
 50
277.0239947572296728
 51
287.0292782101017224
  0
ARC
  5
A2EE
  8
0
 10
4315.0434810239976287
 20
185.5627714542341096
 30
0.0
 40
0.0398870855190967
 50
283.4754559636276099
 51
328.4472923165977818
  0
LINE
  5
A2EF
  8
0
 10
4315.0648328922397923
 20
185.5290816113341066
 30
0.0
 11
4314.6415943274660094
 21
186.1117926083825864
 31
0.0
  0
LINE
  5
A2F0
  8
0
 10
4315.2292542288396362
 20
186.7959700247128012
 30
0.0
 11
4315.5075906054398729
 21
186.8866381787931061
 31
0.0
  0
LINE
  5
A2F1
  8
0
 10
4315.8604395147776813
 20
186.270668883322287
 30
0.0
 11
4315.8604395147776813
 21
186.7533700247128081
 31
0.0
  0
LINE
  5
A2F2
  8
0
 10
4315.8089372439098952
 20
186.3221819585820072
 30
0.0
 11
4315.8089372439098952
 21
186.7018690088162884
 31
0.0
  0
LINE
  5
A2F3
  8
0
 10
4315.8178395147770061
 20
186.2280688833222939
 30
0.0
 11
4314.7679568662606471
 21
186.2280688833222939
 31
0.0
  0
LINE
  5
A2F4
  8
0
 10
4315.8178395147770061
 20
186.7959700247128012
 30
0.0
 11
4314.7679568662606471
 21
186.7959700247128012
 31
0.0
  0
ARC
  5
A2F5
  8
0
 10
4315.8178395147770061
 20
186.270668883322287
 30
0.0
 40
0.0426
 50
270.0
 51
0.0
  0
ARC
  5
A2F6
  8
0
 10
4315.8178395147770061
 20
186.7533700247128081
 30
0.0
 40
0.0426
 50
359.9999999999951115
 51
90.0
  0
LINE
  5
A2F7
  8
0
 10
4315.7663372439101295
 20
186.74446900881631
 30
0.0
 11
4314.7132287595013622
 21
186.74446900881631
 31
0.0
  0
LINE
  5
A2F8
  8
0
 10
4315.7663372439101295
 20
186.2795819585820141
 30
0.0
 11
4314.7132287595013622
 21
186.2795819585820141
 31
0.0
  0
ARC
  5
A2F9
  8
0
 10
4315.7663372439101295
 20
186.3221819585820072
 30
0.0
 40
0.0426
 50
270.0
 51
0.0
  0
ARC
  5
A2FA
  8
0
 10
4315.7663372439101295
 20
186.7018690088162884
 30
0.0
 40
0.0426
 50
359.9999999999951115
 51
90.0
  0
LINE
  5
A2FB
  8
0
 10
4315.7964599927881864
 20
186.7319917576948001
 30
0.0
 11
4315.843812602926846
 21
186.7871362606890955
 31
0.0
  0
LINE
  5
A2FC
  8
0
 10
4315.8479622636559725
 20
186.2405461344438038
 30
0.0
 11
4315.7964599927881864
 21
186.2920592097034955
 31
0.0
  0
LINE
  5
A2FD
  8
0
 10
4314.6411568662606442
 20
186.101268883322291
 30
0.0
 11
4314.6411568662606442
 21
185.0481701920386115
 31
0.0
  0
LINE
  5
A2FE
  8
0
 10
4314.6411568662606442
 20
186.9227700247128041
 30
0.0
 11
4314.6411568662606442
 21
187.9758678260608917
 31
0.0
  0
LINE
  5
A2FF
  8
0
 10
4314.5985568662608785
 20
185.0055701920385047
 30
0.0
 11
4314.1094121814730897
 21
185.0055701920385047
 31
0.0
  0
ARC
  5
A300
  8
0
 10
4314.7679568662606471
 20
186.101268883322291
 30
0.0
 40
0.1268
 50
90.0
 51
180.0000000000032117
  0
ARC
  5
A301
  8
0
 10
4314.7679568662606471
 20
186.9227700247128041
 30
0.0
 40
0.1268
 50
179.9999999999984084
 51
270.0
  0
LINE
  5
A302
  8
0
 10
4314.5864287595013593
 20
186.8712690088163129
 30
0.0
 11
4314.5864287595013593
 21
187.9243690127379125
 31
0.0
  0
LINE
  5
A303
  8
0
 10
4314.5864287595013593
 20
186.1527819585820112
 30
0.0
 11
4314.5864287595013593
 21
185.0996821882584982
 31
0.0
  0
ARC
  5
A304
  8
0
 10
4314.7132287595013622
 20
186.1527819585820112
 30
0.0
 40
0.1268
 50
90.0
 51
180.0000000000015916
  0
ARC
  5
A305
  8
0
 10
4314.7132287595013622
 20
186.8712690088163129
 30
0.0
 40
0.1268
 50
180.0000000000048885
 51
270.0
  0
LINE
  5
A306
  8
0
 10
4314.5438287595015936
 20
185.0570821882585051
 30
0.0
 11
4314.1641402882332841
 21
185.0570821882585051
 31
0.0
  0
LINE
  5
A307
  8
0
 10
4314.5438287595015936
 20
187.9669690127379056
 30
0.0
 11
4314.1641402882332841
 21
187.9669690127379056
 31
0.0
  0
ARC
  5
A308
  8
0
 10
4314.5985568662608785
 20
185.0481701920386115
 30
0.0
 40
0.0426
 50
270.0
 51
0.0
  0
ARC
  5
A309
  8
0
 10
4314.5438287595015936
 20
185.0996821882584982
 30
0.0
 40
0.0426
 50
270.0
 51
0.0
  0
LINE
  5
A30A
  8
0
 10
4314.5985568662608785
 20
188.0184678260609985
 30
0.0
 11
4314.1094121814730897
 21
188.0184678260609985
 31
0.0
  0
ARC
  5
A30B
  8
0
 10
4314.5438287595015936
 20
187.9243690127379125
 30
0.0
 40
0.0426
 50
0.0
 51
90.0
  0
ARC
  5
A30C
  8
0
 10
4314.5985568662608785
 20
187.9758678260608917
 30
0.0
 40
0.0426
 50
359.9999999999951115
 51
90.0
  0
ARC
  5
A30D
  8
0
 10
4315.5783096672721513
 20
186.9097699349316883
 30
0.0
 40
2.3801346646578332
 50
180.9221858178852074
 51
182.7404925710507939
  0
ARC
  5
A30E
  8
0
 10
4315.5783096672721513
 20
186.9097699349316883
 30
0.0
 40
2.3801346646578332
 50
196.6433174015812995
 51
215.078840774955296
  0
ARC
  5
A30F
  8
0
 10
4312.7222448672509927
 20
186.8637970913075037
 30
0.0
 40
0.4763001139220539
 50
0.9221858178852377
 51
1.2659329802755721
  0
ARC
  5
A310
  8
0
 10
4313.3152712956571122
 20
186.8680571833442059
 30
0.0
 40
0.1170102903300273
 50
173.4654122314954066
 51
176.9318833732895087
  0
ARC
  5
A311
  8
0
 10
4313.2416909216590284
 20
186.8731806268542073
 30
0.0
 40
0.0434491272128629
 50
140.9962238503864
 51
169.1313626244964041
  0
ARC
  5
A312
  8
0
 10
4315.1100276747829412
 20
185.4716539572667102
 30
0.0
 40
2.3790051110645392
 50
116.0087972516219992
 51
143.0858579040080087
  0
ARC
  5
A313
  8
0
 10
4314.3619007232628064
 20
187.8313010695127048
 30
0.0
 40
2.4131213563492162
 50
252.9707217898983913
 51
262.9760052427703272
  0
ARC
  5
A314
  8
0
 10
4313.66448802373543
 20
185.5627714542341096
 30
0.0
 40
0.0398870855190967
 50
211.5527076834021898
 51
256.5245440363723901
  0
LINE
  5
A315
  8
0
 10
4313.6431361554932664
 20
185.5290816113341066
 30
0.0
 11
4314.0663747202679588
 21
186.1117926083825864
 31
0.0
  0
LINE
  5
A316
  8
0
 10
4313.4787148188952415
 20
186.7959700247128012
 30
0.0
 11
4313.2003784422940953
 21
186.8866381787931061
 31
0.0
  0
LINE
  5
A317
  8
0
 10
4312.8475295329562869
 20
186.270668883322287
 30
0.0
 11
4312.8475295329562869
 21
186.7533700247128081
 31
0.0
  0
LINE
  5
A318
  8
0
 10
4312.899031803824073
 20
186.3221819585820072
 30
0.0
 11
4312.899031803824073
 21
186.7018690088162884
 31
0.0
  0
LINE
  5
A319
  8
0
 10
4312.8901295329569621
 20
186.2280688833222939
 30
0.0
 11
4313.9400121814733211
 21
186.2280688833222939
 31
0.0
  0
LINE
  5
A31A
  8
0
 10
4312.8901295329569621
 20
186.7959700247128012
 30
0.0
 11
4313.9400121814733211
 21
186.7959700247128012
 31
0.0
  0
ARC
  5
A31B
  8
0
 10
4312.8901295329569621
 20
186.270668883322287
 30
0.0
 40
0.0426
 50
180.0
 51
270.0
  0
ARC
  5
A31C
  8
0
 10
4312.8901295329569621
 20
186.7533700247128081
 30
0.0
 40
0.0426
 50
90.0
 51
180.0000000000048885
  0
LINE
  5
A31D
  8
0
 10
4312.9416318038238387
 20
186.74446900881631
 30
0.0
 11
4313.994740288232606
 21
186.74446900881631
 31
0.0
  0
LINE
  5
A31E
  8
0
 10
4312.9416318038238387
 20
186.2795819585820141
 30
0.0
 11
4313.994740288232606
 21
186.2795819585820141
 31
0.0
  0
ARC
  5
A31F
  8
0
 10
4312.9416318038238387
 20
186.3221819585820072
 30
0.0
 40
0.0426
 50
180.0
 51
270.0
  0
ARC
  5
A320
  8
0
 10
4312.9416318038238387
 20
186.7018690088162884
 30
0.0
 40
0.0426
 50
90.0
 51
180.0000000000048885
  0
LINE
  5
A321
  8
0
 10
4312.9115090549457818
 20
186.7319917576948001
 30
0.0
 11
4312.8641564448080317
 21
186.7871362606890955
 31
0.0
  0
LINE
  5
A322
  8
0
 10
4312.8600067840770862
 20
186.2405461344438038
 30
0.0
 11
4312.9115090549457818
 21
186.2920592097034955
 31
0.0
  0
LINE
  5
A323
  8
0
 10
4314.066812181473324
 20
186.101268883322291
 30
0.0
 11
4314.066812181473324
 21
185.0481701920386115
 31
0.0
  0
LINE
  5
A324
  8
0
 10
4314.066812181473324
 20
186.9227700247128041
 30
0.0
 11
4314.066812181473324
 21
187.9758678260608917
 31
0.0
  0
ARC
  5
A325
  8
0
 10
4313.9400121814733211
 20
186.101268883322291
 30
0.0
 40
0.1268
 50
359.9999999999968168
 51
90.0
  0
ARC
  5
A326
  8
0
 10
4313.9400121814733211
 20
186.9227700247128041
 30
0.0
 40
0.1268
 50
270.0
 51
0.0000000000016284
  0
LINE
  5
A327
  8
0
 10
4314.1215402882326089
 20
186.8712690088163129
 30
0.0
 11
4314.1215402882326089
 21
187.9243690127379125
 31
0.0
  0
LINE
  5
A328
  8
0
 10
4314.1215402882326089
 20
186.1527819585820112
 30
0.0
 11
4314.1215402882326089
 21
185.0996821882584982
 31
0.0
  0
ARC
  5
A329
  8
0
 10
4313.994740288232606
 20
186.1527819585820112
 30
0.0
 40
0.1268
 50
359.9999999999984084
 51
90.0
  0
ARC
  5
A32A
  8
0
 10
4313.994740288232606
 20
186.8712690088163129
 30
0.0
 40
0.1268
 50
270.0
 51
359.9999999999951115
  0
ARC
  5
A32B
  8
0
 10
4314.1094121814730897
 20
185.0481701920386115
 30
0.0
 40
0.0426
 50
180.0
 51
270.0
  0
ARC
  5
A32C
  8
0
 10
4314.1641402882332841
 20
185.0996821882584982
 30
0.0
 40
0.0426
 50
180.0
 51
270.0
  0
ARC
  5
A32D
  8
0
 10
4314.1641402882332841
 20
187.9243690127379125
 30
0.0
 40
0.0426
 50
90.0
 51
180.0
  0
ARC
  5
A32E
  8
0
 10
4314.1094121814730897
 20
187.9758678260608917
 30
0.0
 40
0.0426
 50
90.0
 51
180.0000000000048885
  0
LINE
  5
A32F
  8
0
 10
4314.0792894325932139
 20
185.0180474431599862
 30
0.0
 11
4314.1340175393543177
 21
185.0695594393799865
 31
0.0
  0
LINE
  5
A330
  8
0
 10
4314.6286796151398448
 20
185.0180474431599862
 30
0.0
 11
4314.573951508378741
 21
185.0695594393799865
 31
0.0
  0
LINE
  5
A331
  8
0
 10
4314.1340175393543177
 20
187.9544917616165094
 30
0.0
 11
4314.0792894325932139
 21
188.0059905749394886
 31
0.0
  0
LINE
  5
A332
  8
0
 10
4314.573951508378741
 20
187.9544917616165094
 30
0.0
 11
4314.6307159360112564
 21
188.0038062267447003
 31
0.0
  0
ENDSEC
  0
EOF
