  0
SECTION
  2
HEADER
  9
$ACADVER
  1
AC1009
  9
$INSBASE
 10
956.162099499622741
 20
-5.081681493944493
 30
0.0
  9
$EXTMIN
 10
950.7039928808367222
 20
-11.6182204354610903
 30
-0.0000000000112498
  9
$EXTMAX
 10
961.6080412999039027
 20
-3.6359873789116
 30
0.0000000000002956
  9
$LIMMIN
 10
0.0
 20
0.0
  9
$LIMMAX
 10
11.6929133858000007
 20
8.2677165353999982
  9
$ORTHOMODE
 70
     0
  9
$REGENMODE
 70
     1
  9
$FILLMODE
 70
     1
  9
$QTEXTMODE
 70
     0
  9
$MIRRTEXT
 70
     0
  9
$DRAGMODE
 70
     2
  9
$LTSCALE
 40
0.6431102362
  9
$OSMODE
 70
  4095
  9
$ATTMODE
 70
     1
  9
$TEXTSIZE
 40
0.2
  9
$TRACEWID
 40
0.05
  9
$TEXTSTYLE
  7
STANDARD
  9
$CLAYER
  8
0
  9
$CELTYPE
  6
BYLAYER
  9
$CECOLOR
 62
   256
  9
$DIMSCALE
 40
1.0
  9
$DIMASZ
 40
0.1875
  9
$DIMEXO
 40
0.0625
  9
$DIMDLI
 40
0.4443307087
  9
$DIMRND
 40
0.0
  9
$DIMDLE
 40
0.0
  9
$DIMEXE
 40
0.125
  9
$DIMTP
 40
0.01
  9
$DIMTM
 40
0.01
  9
$DIMTXT
 40
1.0
  9
$DIMCEN
 40
0.1052362205
  9
$DIMTSZ
 40
0.0
  9
$DIMTOL
 70
     1
  9
$DIMLIM
 70
     0
  9
$DIMTIH
 70
     0
  9
$DIMTOH
 70
     1
  9
$DIMSE1
 70
     0
  9
$DIMSE2
 70
     0
  9
$DIMTAD
 70
     0
  9
$DIMZIN
 70
     0
  9
$DIMBLK
  1

  9
$DIMASO
 70
     1
  9
$DIMSHO
 70
     1
  9
$DIMPOST
  1
\X
  9
$DIMAPOST
  1

  9
$DIMALT
 70
     1
  9
$DIMALTD
 70
     2
  9
$DIMALTF
 40
25.3999999999999986
  9
$DIMLFAC
 40
1.0
  9
$DIMTOFL
 70
     0
  9
$DIMTVP
 40
0.0
  9
$DIMTIX
 70
     0
  9
$DIMSOXD
 70
     0
  9
$DIMSAH
 70
     0
  9
$DIMBLK1
  1

  9
$DIMBLK2
  1

  9
$DIMSTYLE
  2
STANDARD
  9
$DIMCLRD
 70
     0
  9
$DIMCLRE
 70
     0
  9
$DIMCLRT
 70
     0
  9
$DIMTFAC
 40
1.0
  9
$DIMGAP
 40
0.09
  9
$LUNITS
 70
     2
  9
$LUPREC
 70
     4
  9
$SKETCHINC
 40
0.1
  9
$FILLETRAD
 40
0.0
  9
$AUNITS
 70
     0
  9
$AUPREC
 70
     0
  9
$MENU
  1
.
  9
$ELEVATION
 40
0.0
  9
$PELEVATION
 40
0.0
  9
$THICKNESS
 40
0.0
  9
$LIMCHECK
 70
     0
  9
$BLIPMODE
 70
     0
  9
$CHAMFERA
 40
0.0
  9
$CHAMFERB
 40
0.0
  9
$SKPOLY
 70
     0
  9
$TDCREATE
 40
2458172.5207638889551163
  9
$TDUPDATE
 40
2460171.5922222221270204
  9
$TDINDWG
 40
0.2365252778
  9
$TDUSRTIMER
 40
0.2365252778
  9
$USRTIMER
 70
     1
  9
$ANGBASE
 50
0.0
  9
$ANGDIR
 70
     0
  9
$PDMODE
 70
     0
  9
$PDSIZE
 40
0.3125
  9
$PLINEWID
 40
0.0
  9
$COORDS
 70
     1
  9
$SPLFRAME
 70
     0
  9
$SPLINETYPE
 70
     6
  9
$SPLINESEGS
 70
     8
  9
$ATTDIA
 70
     1
  9
$ATTREQ
 70
     1
  9
$HANDLING
 70
     1
  9
$HANDSEED
  5
E9BE
  9
$SURFTAB1
 70
     6
  9
$SURFTAB2
 70
     6
  9
$SURFTYPE
 70
     6
  9
$SURFU
 70
     6
  9
$SURFV
 70
     6
  9
$UCSNAME
  2

  9
$UCSORG
 10
0.0
 20
0.0
 30
0.0
  9
$UCSXDIR
 10
1.0
 20
0.0
 30
0.0
  9
$UCSYDIR
 10
0.0
 20
1.0
 30
0.0
  9
$PUCSNAME
  2

  9
$PUCSORG
 10
0.0
 20
0.0
 30
0.0
  9
$PUCSXDIR
 10
1.0
 20
0.0
 30
0.0
  9
$PUCSYDIR
 10
0.0
 20
1.0
 30
0.0
  9
$USERI1
 70
     0
  9
$USERI2
 70
     0
  9
$USERI3
 70
     0
  9
$USERI4
 70
     0
  9
$USERI5
 70
     0
  9
$USERR1
 40
0.0
  9
$USERR2
 40
0.0
  9
$USERR3
 40
0.0
  9
$USERR4
 40
0.0
  9
$USERR5
 40
0.0
  9
$WORLDVIEW
 70
     1
  9
$SHADEDGE
 70
     3
  9
$SHADEDIF
 70
    70
  9
$TILEMODE
 70
     1
  9
$MAXACTVP
 70
    64
  9
$PLIMCHECK
 70
     0
  9
$PEXTMIN
 10
1.0000000000000000E+20
 20
1.0000000000000000E+20
 30
1.0000000000000000E+20
  9
$PEXTMAX
 10
-1.0000000000000000E+20
 20
-1.0000000000000000E+20
 30
-1.0000000000000000E+20
  9
$PLIMMIN
 10
0.0
 20
0.0
  9
$PLIMMAX
 10
12.0
 20
9.0
  9
$UNITMODE
 70
     0
  9
$VISRETAIN
 70
     1
  9
$PLINEGEN
 70
     0
  9
$PSLTSCALE
 70
     1
  0
ENDSEC
  0
SECTION
  2
TABLES
  0
TABLE
  2
VPORT
 70
     1
  0
VPORT
  2
*ACTIVE
 70
     0
 10
0.0
 20
0.0
 11
1.0
 21
1.0
 12
582.3348806157609943
 22
-49.513552039449813
 13
0.0
 23
0.0
 14
1.0
 24
1.0
 15
0.0
 25
0.0
 16
0.0
 26
0.0
 36
25.5757211105568096
 17
373.821136474609375
 27
41.8864481322634603
 37
0.0
 40
8.0538225906889522
 41
2.8368263473053892
 42
50.0
 43
0.0
 44
0.0
 50
0.0
 51
0.0
 71
     0
 72
   100
 73
     1
 74
     1
 75
     0
 76
     0
 77
     0
 78
     0
  0
ENDTAB
  0
TABLE
  2
LTYPE
 70
     2
  0
LTYPE
  2
CONTINUOUS
 70
     0
  3
Solid line
 72
    65
 73
     0
 40
0.0
  0
LTYPE
  2
PHANTOM2
 70
     0
  3
___ _ _ ___ _ _ ___ _ _ ___ _ _
 72
    65
 73
     6
 40
1.25
 49
0.625
 49
-0.125
 49
0.125
 49
-0.125
 49
0.125
 49
-0.125
  0
ENDTAB
  0
TABLE
  2
LAYER
 70
     2
  0
LAYER
  2
0
 70
     0
 62
   255
  6
CONTINUOUS
  0
LAYER
  2
DEFPOINTS
 70
     0
 62
     7
  6
CONTINUOUS
  0
ENDTAB
  0
TABLE
  2
STYLE
 70
     1
  0
STYLE
  2
STANDARD
 70
     0
 40
0.0
 41
0.8
 50
0.0
 71
     0
 42
0.2
  3
txt
  4

  0
ENDTAB
  0
TABLE
  2
VIEW
 70
     0
  0
ENDTAB
  0
TABLE
  2
UCS
 70
     0
  0
ENDTAB
  0
TABLE
  2
APPID
 70
    10
  0
APPID
  2
ACAD
 70
     0
  0
APPID
  2
ACAD_MLEADERVER
 70
     0
  0
APPID
  2
ACAD_EXEMPT_FROM_CAD_STANDARDS
 70
     0
  0
APPID
  2
ACAD_DSTYLE_DIMJAG
 70
     0
  0
APPID
  2
ACAD_DSTYLE_DIMTALN
 70
     0
  0
APPID
  2
ACAD_NAV_VCDISPLAY
 70
     0
  0
APPID
  2
ACAECLAYERSTANDARD
 70
     0
  0
APPID
  2
ACCMTRANSPARENCY
 70
     0
  0
APPID
  2
DCO15
 70
     0
  0
APPID
  2
ACDBATTR
 70
     0
  0
ENDTAB
  0
TABLE
  2
DIMSTYLE
 70
     1
  0
DIMSTYLE
  2
STANDARD
 70
     0
  3

  4

  5

  6

  7

 40
1.0
 41
0.1875
 42
0.0625
 43
0.38
 44
0.125
 45
0.0
 46
0.0
 47
0.01
 48
0.01
140
0.15625
141
0.09
142
0.0
143
25.3999999999999986
144
1.0
145
0.0
146
1.0
147
0.09
 71
     1
 72
     0
 73
     1
 74
     1
 75
     0
 76
     0
 77
     0
 78
     4
170
     0
171
     2
172
     0
173
     0
174
     0
175
     0
176
     0
177
     0
178
     0
  0
ENDTAB
  0
ENDSEC
  0
SECTION
  2
BLOCKS
  0
BLOCK
  8
0
  2
$MODEL_SPACE
 70
     0
 10
0.0
 20
0.0
 30
0.0
  3
$MODEL_SPACE
  1

  0
ENDBLK
  5
21
  8
0
  0
BLOCK
 67
     1
  8
0
  2
$PAPER_SPACE
 70
     0
 10
0.0
 20
0.0
 30
0.0
  3
$PAPER_SPACE
  1

  0
ENDBLK
  5
1D
 67
     1
  8
0
  0
BLOCK
  8
0
  2
_FILLED
 70
     0
 10
0.0
 20
0.0
 30
0.0
  3
_FILLED
  1

  0
SOLID
  5
B142
  8
0
  6
BYBLOCK
 62
     0
 10
0.0
 20
0.0
 30
0.0
 11
-1.0
 21
0.1666666667
 31
0.0
 12
-1.0
 22
-0.1666666667
 32
0.0
 13
-1.0
 23
-0.1666666667
 33
0.0
  0
ENDBLK
  5
B143
  8
0
  6
BYBLOCK
 62
     0
  0
ENDSEC
  0
SECTION
  2
ENTITIES
  0
ATTDEF
  5
829
  8
DEFPOINTS
 10
956.1628390779050051
 20
-5.0823743177107872
 30
0.0
 40
0.001
  1
K-EX27100T-3
  3

  2
MODELNUMBER
 70
     0
1001
ACDBATTR
1070
     0
1070
     1
  0
ATTDEF
  5
82A
  8
DEFPOINTS
 10
956.1628390779050051
 20
-5.0840409843774523
 30
0.0
 40
0.001
  1
OCCASION
  3

  2
TRADENAME
 70
     0
1001
ACDBATTR
1070
     0
1070
     1
  0
ATTDEF
  5
82B
  8
DEFPOINTS
 10
956.1628390779050051
 20
-5.0857076510441166
 30
0.0
 40
0.001
  1
BATHROOM SINK FAUCET
  3

  2
PRODUCT
 70
     0
1001
ACDBATTR
1070
     0
1070
     1
  0
LINE
  5
E59E
  8
0
 10
956.162099499622741
 20
-11.6179832905541698
 30
0.0
 11
956.162099499622741
 21
-3.9270751413572418
 31
0.0
  0
ARC
  5
E59F
  8
0
 10
956.1620992922852338
 20
-11.5790798182383305
 30
0.0
 40
0.038903472316389
 50
270.000305359656295
 51
286.8146146035196011
  0
ARC
  5
E5A0
  8
0
 10
955.9220457940828055
 20
-10.7824630365242307
 30
0.0
 40
0.8709034482320406
 50
286.7717264039882252
 51
325.2432111023181847
  0
ARC
  5
E5A1
  8
0
 10
954.9379521971550275
 20
-4.7446925148766113
 30
0.0
 40
2.3801346646578332
 50
324.9211592250447893
 51
359.0778141821147074
  0
ARC
  5
E5A2
  8
0
 10
957.7720475797239033
 20
-4.7902787654140724
 30
0.0
 40
0.4543273212269433
 50
178.7215978952222883
 51
179.081970376780788
  0
ARC
  5
E5A3
  8
0
 10
957.2007649488773495
 20
-4.7864276589458177
 30
0.0
 40
0.1172369928293955
 50
3.0731374178957722
 51
6.5329118524700371
  0
ARC
  5
E5A4
  8
0
 10
957.2745709427681504
 20
-4.7812818229540923
 30
0.0
 40
0.0434491272128629
 50
10.8686373755023808
 51
39.00377614960302
  0
ARC
  5
E5A5
  8
0
 10
955.4062341896460566
 20
-6.1828084925415601
 30
0.0
 40
2.3790051110645392
 50
36.914142095991437
 51
71.4747106688150495
  0
ARC
  5
E5A6
  8
0
 10
956.1543611411651682
 20
-3.8231613802956228
 30
0.0
 40
2.4131213563492162
 50
281.7213530760080857
 51
287.0292782101035982
  0
ARC
  5
E5A7
  8
0
 10
956.8517738406925446
 20
-6.09169099557419
 30
0.0
 40
0.0398870855190967
 50
283.4754559636277236
 51
328.4472923165880047
  0
ARC
  5
E5A8
  8
0
 10
955.9220457940828055
 20
-5.4728867878683536
 30
0.0
 40
0.8709034482320406
 50
34.9218299793726388
 51
73.2282735960117606
  0
ARC
  5
E5A9
  8
0
 10
956.1620993182450547
 20
-4.6763708379502509
 30
0.0
 40
0.0389999965403225
 50
73.2282735960117606
 51
106.7717164466592976
  0
LINE
  5
E5AA
  8
0
 10
956.8773318709354498
 20
-6.1223103163741754
 30
0.0
 11
956.6445921005664559
 21
-5.8038023445424001
 31
0.0
  0
LINE
  5
E5AB
  8
0
 10
956.6422028305360072
 20
-4.9864417218119321
 30
0.0
 11
957.315879819935617
 21
-4.7672644141741713
 31
0.0
  0
ARC
  5
E5AC
  8
0
 10
956.6675045907804815
 20
-4.4485290435275067
 30
0.0
 40
0.1568287834823719
 50
244.3784282629289066
 51
291.3017473591847875
  0
ARC
  5
E5AD
  8
0
 10
956.6701300719558958
 20
-4.4430545320170083
 30
0.0
 40
0.162900309458812
 50
186.2532480761014142
 51
244.3784282629289066
  0
ARC
  5
E5AE
  8
0
 10
956.6745787828394896
 20
-4.4507646662342699
 30
0.0
 40
0.1666820495230915
 50
146.8537254750002035
 51
183.4510288360611128
  0
ARC
  5
E5AF
  8
0
 10
956.6613113923385754
 20
-4.453804515704852
 30
0.0
 40
0.1575407628491646
 50
82.2962006357449951
 51
143.2874497250589059
  0
ARC
  5
E5B0
  8
0
 10
956.6586385623351134
 20
-4.4575127525369487
 30
0.0
 40
0.1615881536307044
 50
33.9528415403262329
 51
81.5332622973202064
  0
ARC
  5
E5B1
  8
0
 10
956.6445511017351464
 20
-4.4605952364217876
 30
0.0
 40
0.175075843500015
 50
2.2289760887126189
 51
32.2144569297726235
  0
ARC
  5
E5B2
  8
0
 10
956.6699655169995822
 20
-4.4553956673506638
 30
0.0
 40
0.1495374180148623
 50
291.3790327132102789
 51
337.0848191031877832
  0
ARC
  5
E5B3
  8
0
 10
956.5991996419628549
 20
-4.4414480664248792
 30
0.0
 40
0.2206400670412331
 50
340.9067852280372222
 51
356.794419416171479
  0
ARC
  5
E5B4
  8
0
 10
956.4650765805798756
 20
-4.619665314580196
 30
0.0
 40
0.0362426823966652
 50
100.8000666333479955
 51
188.4127290993916972
  0
ARC
  5
E5B5
  8
0
 10
956.5041924556971935
 20
-4.6138803047277497
 30
0.0
 40
0.0757840281649742
 50
188.4127290993916972
 51
221.4869306882322917
  0
ARC
  5
E5B6
  8
0
 10
956.6379282209536541
 20
-4.4956152667347382
 30
0.0
 40
0.2543109844498565
 50
221.4869306882322917
 51
237.811804299733609
  0
ARC
  5
E5B7
  8
0
 10
956.5699095468398809
 20
-4.6036764550340123
 30
0.0
 40
0.1266248049121088
 50
237.811804299733609
 51
259.7306348670412035
  0
ARC
  5
E5B8
  8
0
 10
956.5609418842986997
 20
-4.6531727349330287
 30
0.0
 40
0.0763227105692188
 50
259.7306348670412035
 51
271.7137259416468282
  0
ARC
  5
E5B9
  8
0
 10
956.5619574674827845
 20
-4.6871170638139503
 30
0.0
 40
0.0423631924280299
 50
271.7137259416990105
 51
3.4326783411413908
  0
ARC
  5
E5BA
  8
0
 10
956.6021790528184283
 20
-4.521235896018502
 30
0.0
 40
0.1493257175519589
 50
143.9481315356854054
 51
172.3626696147624955
  0
ARC
  5
E5BB
  8
0
 10
956.60676812816655
 20
-4.5218512528541552
 30
0.0
 40
0.1539558662084715
 50
172.3626696147624955
 51
202.4333665182969071
  0
ARC
  5
E5BC
  8
0
 10
956.6148812838955564
 20
-4.5185017226427462
 30
0.0
 40
0.1627332603844241
 50
202.4333665182969071
 51
262.4046640077513075
  0
ARC
  5
E5BD
  8
0
 10
956.6130806899664094
 20
-4.5320049310857859
 30
0.0
 40
0.1491105302339007
 50
262.4046640076987273
 51
285.3821729596058958
  0
ARC
  5
E5BE
  8
0
 10
956.6112196547592248
 20
-4.5252402650443946
 30
0.0
 40
0.1561265232992582
 50
285.3821729596058958
 51
321.7447728374672238
  0
LINE
  5
E5BF
  8
0
 10
956.7338196382224851
 20
-4.6219084362912417
 30
0.0
 11
956.7903333784061033
 21
-4.544125692297647
 31
0.0
  0
LINE
  5
E5C0
  8
0
 10
956.4814515164589466
 20
-4.4333551137798892
 30
0.0
 11
956.5350196717690778
 21
-4.3596265284969533
 31
0.0
  0
CIRCLE
  5
E5C1
  8
0
 10
956.6751244867309651
 20
-4.4380178294972188
 30
0.0
 40
0.0883279012994888
  0
LINE
  5
E5C2
  8
0
 10
956.6068565989908166
 20
-4.6809855033701453
 30
0.0
 11
956.5726125472147032
 21
-4.7281183973118379
 31
0.0
  0
LINE
  5
E5C3
  8
0
 10
956.4631635771937681
 20
-4.5773502769905496
 30
0.0
 11
956.4291196772774128
 21
-4.6242076853482033
 31
0.0
  0
LINE
  5
E5C4
  8
0
 10
960.3436805205668634
 20
-6.648892257769738
 30
0.0
 11
959.8545354211037193
 21
-6.648892257769738
 31
0.0
  0
LINE
  5
E5C5
  8
0
 10
960.288952413806669
 20
-6.5973802615497368
 30
0.0
 11
959.9092635278639136
 21
-6.5973802615497368
 31
0.0
  0
LINE
  5
E5C6
  8
0
 10
960.288952413806669
 20
-3.6874934370703372
 30
0.0
 11
959.9092635278639136
 21
-3.6874934370703372
 31
0.0
  0
LINE
  5
E5C7
  8
0
 10
960.3436805205668634
 20
-3.6359946237473291
 30
0.0
 11
959.8545354211037193
 21
-3.6359946237473291
 31
0.0
  0
ARC
  5
E5C8
  8
0
 10
961.3234329069036903
 20
-4.7446925148766113
 30
0.0
 40
2.3801346646578332
 50
180.9221858178852074
 51
182.7404925710519024
  0
ARC
  5
E5C9
  8
0
 10
961.3234329069036903
 20
-4.7446925148766113
 30
0.0
 40
2.3801346646578332
 50
196.6433174015809868
 51
215.078840774955097
  0
ARC
  5
E5CA
  8
0
 10
958.443165475753176
 20
-4.7910912491692939
 30
0.0
 40
0.5005064660219003
 50
0.9263420432687413
 51
1.25346381721017
  0
ARC
  5
E5CB
  8
0
 10
959.0601697841764235
 20
-4.7863829602079759
 30
0.0
 40
0.1167844608823171
 50
173.4637362997387982
 51
176.9369041904921005
  0
ARC
  5
E5CC
  8
0
 10
958.9868141612904537
 20
-4.7812818229540923
 30
0.0
 40
0.0434491272128629
 50
140.9962238503968877
 51
169.1313626244975126
  0
ARC
  5
E5CD
  8
0
 10
960.855150914413457
 20
-6.1828084925415601
 30
0.0
 40
2.3790051110645392
 50
116.0087972516218997
 51
143.0858579040086056
  0
ARC
  5
E5CE
  8
0
 10
960.1070239628943455
 20
-3.8231613802956228
 30
0.0
 40
2.4131213563492162
 50
252.9707217898964018
 51
262.9760052427704977
  0
ARC
  5
E5CF
  8
0
 10
959.4096112633660596
 20
-6.09169099557419
 30
0.0
 40
0.0398870855190967
 50
211.5527076834119953
 51
256.5245440363722764
  0
LINE
  5
E5D0
  8
0
 10
959.388259395123896
 20
-6.125380838474193
 30
0.0
 11
959.8114979598993841
 21
-5.5426698414257132
 31
0.0
  0
LINE
  5
E5D1
  8
0
 10
959.223838058525871
 20
-4.8584924250954984
 30
0.0
 11
958.9455016819244975
 21
-4.7678242710150762
 31
0.0
  0
LINE
  5
E5D2
  8
0
 10
958.635652979925112
 20
-5.4263935664859773
 30
0.0
 11
959.6851354211039506
 21
-5.4263935664859773
 31
0.0
  0
LINE
  5
E5D3
  8
0
 10
958.635652979925112
 20
-4.8584924250954984
 30
0.0
 11
959.6851354211039506
 21
-4.8584924250954984
 31
0.0
  0
LINE
  5
E5D4
  8
0
 10
958.6871552507924434
 20
-4.9099934409919612
 30
0.0
 11
959.739863527864145
 21
-4.9099934409919612
 31
0.0
  0
LINE
  5
E5D5
  8
0
 10
958.6871552507924434
 20
-5.3748804912262571
 30
0.0
 11
959.739863527864145
 21
-5.3748804912262571
 31
0.0
  0
LINE
  5
E5D6
  8
0
 10
958.6567406425190256
 20
-4.9225968687578643
 30
0.0
 11
958.6093847939473562
 21
-4.8674485944439141
 31
0.0
  0
LINE
  5
E5D7
  8
0
 10
958.6052472723667961
 20
-5.4137990421092574
 30
0.0
 11
958.6567495432343549
 21
-5.3622859668498251
 31
0.0
  0
LINE
  5
E5D8
  8
0
 10
959.8119354211039536
 20
-5.5531935664859802
 30
0.0
 11
959.8119354211039536
 21
-6.6062922577697156
 31
0.0
  0
LINE
  5
E5D9
  8
0
 10
959.8119354211039536
 20
-4.7316924250954946
 30
0.0
 11
959.8119354211039536
 21
-3.6785946237473222
 31
0.0
  0
ARC
  5
E5DA
  8
0
 10
959.6851354211039506
 20
-5.5531935664859509
 30
0.0
 40
0.1268
 50
359.9999999999968168
 51
90.0
  0
ARC
  5
E5DB
  8
0
 10
959.6851354211039506
 20
-4.7316924250954946
 30
0.0
 40
0.1268
 50
270.0
 51
0.0000000000016284
  0
LINE
  5
E5DC
  8
0
 10
959.8666635278641479
 20
-4.7831934409919583
 30
0.0
 11
959.8666635278641479
 21
-3.7300934370703298
 31
0.0
  0
LINE
  5
E5DD
  8
0
 10
959.8666635278641479
 20
-5.50168049122626
 30
0.0
 11
959.8666635278641479
 21
-6.5547802615497437
 31
0.0
  0
ARC
  5
E5DE
  8
0
 10
959.739863527864145
 20
-5.50168049122626
 30
0.0
 40
0.1268
 50
359.9999999999984084
 51
90.0
  0
ARC
  5
E5DF
  8
0
 10
959.739863527864145
 20
-4.7831934409919583
 30
0.0
 40
0.1268
 50
270.0
 51
359.9999999999951115
  0
ARC
  5
E5E0
  8
0
 10
959.8545354211037193
 20
-6.6062922577697156
 30
0.0
 40
0.0426
 50
180.0
 51
270.0
  0
ARC
  5
E5E1
  8
0
 10
959.9092635278639136
 20
-6.5547802615497437
 30
0.0
 40
0.0426
 50
180.0
 51
270.0
  0
ARC
  5
E5E2
  8
0
 10
959.9092635278639136
 20
-3.7300934370703298
 30
0.0
 40
0.0426
 50
90.0
 51
180.0
  0
ARC
  5
E5E3
  8
0
 10
959.8545354211037193
 20
-3.6785946237473222
 30
0.0
 40
0.0426
 50
90.0
 51
180.0000000000048885
  0
LINE
  5
E5E4
  8
0
 10
959.8244126722247529
 20
-6.6364150066482841
 30
0.0
 11
959.8791407789849472
 21
-6.5849030104282837
 31
0.0
  0
LINE
  5
E5E5
  8
0
 10
959.8791407789849472
 20
-3.6999706881917902
 30
0.0
 11
959.8244126722247529
 21
-3.6484718748687821
 31
0.0
  0
LINE
  5
E5E6
  8
0
 10
956.6445921005664559
 20
-11.2564979596677297
 30
0.0
 11
956.6445921005664559
 21
-5.0012364090864869
 31
0.0
  0
ARC
  5
E5E7
  8
0
 10
956.6051921005664553
 20
-11.2564979596677297
 30
0.0
 40
0.0394
 50
325.2432361628552258
 51
359.9999999999895977
  0
ARC
  5
E5E8
  8
0
 10
956.597592100566203
 20
-5.0012364090865118
 30
0.0
 40
0.047
 50
0.0000000000303298
 51
34.9218299792949622
  0
LINE
  5
E5E9
  8
0
 10
958.5926529799252194
 20
-4.9014924250954968
 30
0.0
 11
958.5926529799252194
 21
-5.3833935664859771
 31
0.0
  0
ARC
  5
E5EA
  8
0
 10
958.635652979925112
 20
-4.9014924250954968
 30
0.0
 40
0.043
 50
90.0
 51
180.0
  0
ARC
  5
E5EB
  8
0
 10
958.635652979925112
 20
-5.3833935664859736
 30
0.0
 40
0.043
 50
180.0000000000046896
 51
269.9999999999935199
  0
LINE
  5
E5EC
  8
0
 10
958.6441552507924371
 20
-5.331880491226257
 30
0.0
 11
958.6441552507924371
 21
-4.9529934409919596
 31
0.0
  0
ARC
  5
E5ED
  8
0
 10
958.6871552507924434
 20
-5.3318804912262543
 30
0.0
 40
0.043
 50
180.0000000000046896
 51
269.9999999999935199
  0
ARC
  5
E5EE
  8
0
 10
958.6871552507924434
 20
-4.9529934409919596
 30
0.0
 40
0.043
 50
90.0000000000065086
 51
180.0
  0
ARC
  5
E5EF
  8
0
 10
958.8747830347668923
 20
-4.7446925148766113
 30
0.0
 40
2.3801346646578332
 50
357.2595074289480976
 51
359.0778141821147074
  0
ARC
  5
E5F0
  8
0
 10
958.8747830347668923
 20
-4.7446925148766113
 30
0.0
 40
2.3801346646578332
 50
324.9211592250447893
 51
343.3566825984190132
  0
ARC
  5
E5F1
  8
0
 10
961.755050465917634
 20
-4.7910912491692939
 30
0.0
 40
0.5005064660219003
 50
178.7465361827898107
 51
179.0736579567312106
  0
ARC
  5
E5F2
  8
0
 10
961.1380461574941592
 20
-4.7863829602079759
 30
0.0
 40
0.1167844608823171
 50
3.0630958095078742
 51
6.5362637002611619
  0
ARC
  5
E5F3
  8
0
 10
961.2114017803801289
 20
-4.7812818229540923
 30
0.0
 40
0.0434491272128629
 50
10.8686373755024803
 51
39.003776149603091
  0
ARC
  5
E5F4
  8
0
 10
959.3430650272571256
 20
-6.1828084925415601
 30
0.0
 40
2.3790051110645392
 50
36.9141420959913518
 51
63.9912027483780577
  0
ARC
  5
E5F5
  8
0
 10
960.0911919787763509
 20
-3.8231613802956228
 30
0.0
 40
2.4131213563492162
 50
277.0239947572293886
 51
287.0292782101035982
  0
ARC
  5
E5F6
  8
0
 10
960.7886046783047505
 20
-6.09169099557419
 30
0.0
 40
0.0398870855190967
 50
283.4754559636277236
 51
328.4472923165881184
  0
LINE
  5
E5F7
  8
0
 10
960.8099565465466867
 20
-6.125380838474193
 30
0.0
 11
960.3867179817710849
 21
-5.5426698414257132
 31
0.0
  0
LINE
  5
E5F8
  8
0
 10
960.974377883144939
 20
-4.8584924250954984
 30
0.0
 11
961.2527142597461989
 21
-4.7678242710150762
 31
0.0
  0
LINE
  5
E5F9
  8
0
 10
961.5625629617453569
 20
-5.4263935664859773
 30
0.0
 11
960.5130805205667457
 21
-5.4263935664859773
 31
0.0
  0
LINE
  5
E5FA
  8
0
 10
961.5625629617453569
 20
-4.8584924250954984
 30
0.0
 11
960.5130805205667457
 21
-4.8584924250954984
 31
0.0
  0
LINE
  5
E5FB
  8
0
 10
961.5110606908782529
 20
-4.9099934409919612
 30
0.0
 11
960.4583524138065513
 21
-4.9099934409919612
 31
0.0
  0
LINE
  5
E5FC
  8
0
 10
961.5110606908782529
 20
-5.3748804912262571
 30
0.0
 11
960.4583524138065513
 21
-5.3748804912262571
 31
0.0
  0
LINE
  5
E5FD
  8
0
 10
961.5414752991514433
 20
-4.9225968687578643
 30
0.0
 11
961.5888311477233401
 21
-4.8674485944439141
 31
0.0
  0
LINE
  5
E5FE
  8
0
 10
961.5929686693036729
 20
-5.4137990421092574
 30
0.0
 11
961.5414663984362278
 21
-5.3622859668498251
 31
0.0
  0
LINE
  5
E5FF
  8
0
 10
960.3862805205666291
 20
-5.5531935664859802
 30
0.0
 11
960.3862805205666291
 21
-6.6062922577697156
 31
0.0
  0
LINE
  5
E600
  8
0
 10
960.3862805205666291
 20
-4.7316924250954946
 30
0.0
 11
960.3862805205666291
 21
-3.6785946237473222
 31
0.0
  0
ARC
  5
E601
  8
0
 10
960.5130805205667457
 20
-5.5531935664859509
 30
0.0
 40
0.1268
 50
90.0
 51
180.0000000000032117
  0
ARC
  5
E602
  8
0
 10
960.5130805205667457
 20
-4.7316924250954946
 30
0.0
 40
0.1268
 50
179.9999999999984084
 51
270.0
  0
LINE
  5
E603
  8
0
 10
960.3315524138065484
 20
-4.7831934409919583
 30
0.0
 11
960.3315524138065484
 21
-3.7300934370703298
 31
0.0
  0
LINE
  5
E604
  8
0
 10
960.3315524138065484
 20
-5.50168049122626
 30
0.0
 11
960.3315524138065484
 21
-6.5547802615497437
 31
0.0
  0
ARC
  5
E605
  8
0
 10
960.4583524138065513
 20
-5.50168049122626
 30
0.0
 40
0.1268
 50
90.0
 51
180.0000000000015916
  0
ARC
  5
E606
  8
0
 10
960.4583524138065513
 20
-4.7831934409919583
 30
0.0
 40
0.1268
 50
180.0000000000048885
 51
270.0
  0
ARC
  5
E607
  8
0
 10
960.3436805205668634
 20
-6.6062922577697156
 30
0.0
 40
0.0426
 50
270.0
 51
0.0
  0
ARC
  5
E608
  8
0
 10
960.288952413806669
 20
-6.5547802615497437
 30
0.0
 40
0.0426
 50
270.0
 51
0.0
  0
ARC
  5
E609
  8
0
 10
960.288952413806669
 20
-3.7300934370703298
 30
0.0
 40
0.0426
 50
0.0
 51
90.0
  0
ARC
  5
E60A
  8
0
 10
960.3436805205668634
 20
-3.6785946237473222
 30
0.0
 40
0.0426
 50
359.9999999999951115
 51
90.0
  0
LINE
  5
E60B
  8
0
 10
960.3738032694459434
 20
-6.6364150066482841
 30
0.0
 11
960.3190751626857491
 21
-6.5849030104282837
 31
0.0
  0
LINE
  5
E60C
  8
0
 10
960.3190751626857491
 20
-3.6999706881917902
 30
0.0
 11
960.3738032694459434
 21
-3.6484718748687821
 31
0.0
  0
LINE
  5
E60D
  8
0
 10
961.6055629617453633
 20
-4.9014924250954968
 30
0.0
 11
961.6055629617453633
 21
-5.3833935664859771
 31
0.0
  0
ARC
  5
E60E
  8
0
 10
961.5625629617453569
 20
-4.9014924250954968
 30
0.0
 40
0.043
 50
0.0
 51
90.0
  0
ARC
  5
E60F
  8
0
 10
961.5625629617453569
 20
-5.3833935664859736
 30
0.0
 40
0.043
 50
270.0000000000064801
 51
359.999999999995282
  0
LINE
  5
E610
  8
0
 10
961.5540606908781456
 20
-5.331880491226257
 30
0.0
 11
961.5540606908781456
 21
-4.9529934409919596
 31
0.0
  0
ARC
  5
E611
  8
0
 10
961.5110606908782529
 20
-5.3318804912262543
 30
0.0
 40
0.043
 50
270.0000000000064801
 51
359.999999999995282
  0
ARC
  5
E612
  8
0
 10
961.5110606908782529
 20
-4.9529934409919596
 30
0.0
 40
0.043
 50
0.0
 51
89.9999999999934914
  0
ARC
  5
E613
  8
0
 10
956.1620997069599071
 20
-11.5790798182383305
 30
0.0
 40
0.038903472316389
 50
253.1853853964803989
 51
269.999694640343705
  0
ARC
  5
E614
  8
0
 10
956.402153205162449
 20
-10.7824630365242307
 30
0.0
 40
0.8709034482320406
 50
214.7567888976817869
 51
253.2282735960118032
  0
ARC
  5
E615
  8
0
 10
957.386246802090227
 20
-4.7446925148766113
 30
0.0
 40
2.3801346646578332
 50
180.9221858178852074
 51
215.078840774955097
  0
ARC
  5
E616
  8
0
 10
954.5521514195213513
 20
-4.7902787654140724
 30
0.0
 40
0.4543273212269433
 50
0.9180296232191633
 51
1.27840210477761
  0
ARC
  5
E617
  8
0
 10
955.1234340503676776
 20
-4.7864276589458177
 30
0.0
 40
0.1172369928293955
 50
173.4670881475298927
 51
176.9268625821040928
  0
ARC
  5
E618
  8
0
 10
955.0496280564769904
 20
-4.7812818229540923
 30
0.0
 40
0.0434491272128629
 50
140.9962238503970013
 51
169.1313626244975978
  0
ARC
  5
E619
  8
0
 10
956.9179648095991979
 20
-6.1828084925415601
 30
0.0
 40
2.3790051110645392
 50
108.5252893311848936
 51
143.0858579040086056
  0
ARC
  5
E61A
  8
0
 10
956.1698378580799726
 20
-3.8231613802956228
 30
0.0
 40
2.4131213563492162
 50
252.9707217898964018
 51
258.2786469239918006
  0
ARC
  5
E61B
  8
0
 10
955.4724251585524826
 20
-6.09169099557419
 30
0.0
 40
0.0398870855190967
 50
211.5527076834119953
 51
256.5245440363722764
  0
ARC
  5
E61C
  8
0
 10
956.402153205162449
 20
-5.4728867878683536
 30
0.0
 40
0.8709034482320406
 50
106.7717264039881968
 51
145.0781700206273115
  0
LINE
  5
E61D
  8
0
 10
955.4468671283098047
 20
-6.1223103163741754
 30
0.0
 11
955.6796068986789123
 21
-5.8038023445424001
 31
0.0
  0
LINE
  5
E61E
  8
0
 10
955.6819961687091336
 20
-4.9864417218119321
 30
0.0
 11
955.0083191793095239
 21
-4.7672644141741713
 31
0.0
  0
LINE
  5
E61F
  8
0
 10
951.9805184786782775
 20
-6.648892257769738
 30
0.0
 11
952.4696635781415353
 21
-6.648892257769738
 31
0.0
  0
LINE
  5
E620
  8
0
 10
952.0352465854384718
 20
-6.5973802615497368
 30
0.0
 11
952.4149354713813409
 21
-6.5973802615497368
 31
0.0
  0
LINE
  5
E621
  8
0
 10
952.0352465854384718
 20
-3.6874934370703372
 30
0.0
 11
952.4149354713813409
 21
-3.6874934370703372
 31
0.0
  0
LINE
  5
E622
  8
0
 10
951.9805184786782775
 20
-3.6359946237473291
 30
0.0
 11
952.4696635781415353
 21
-3.6359946237473291
 31
0.0
  0
ARC
  5
E623
  8
0
 10
951.0007660923414505
 20
-4.7446925148766113
 30
0.0
 40
2.3801346646578332
 50
357.2595074289480976
 51
359.0778141821147074
  0
ARC
  5
E624
  8
0
 10
951.0007660923414505
 20
-4.7446925148766113
 30
0.0
 40
2.3801346646578332
 50
324.9211592250447893
 51
343.3566825984190132
  0
ARC
  5
E625
  8
0
 10
953.8810335234919648
 20
-4.7910912491692939
 30
0.0
 40
0.5005064660219003
 50
178.7465361827898107
 51
179.0736579567312106
  0
ARC
  5
E626
  8
0
 10
953.264029215068831
 20
-4.7863829602079759
 30
0.0
 40
0.1167844608823171
 50
3.0630958095078742
 51
6.5362637002611619
  0
ARC
  5
E627
  8
0
 10
953.3373848379546871
 20
-4.7812818229540923
 30
0.0
 40
0.0434491272128629
 50
10.8686373755024803
 51
39.00377614960302
  0
ARC
  5
E628
  8
0
 10
951.4690480848316838
 20
-6.1828084925415601
 30
0.0
 40
2.3790051110645392
 50
36.914142095991437
 51
63.9912027483780221
  0
ARC
  5
E629
  8
0
 10
952.2171750363510228
 20
-3.8231613802956228
 30
0.0
 40
2.4131213563492162
 50
277.0239947572293886
 51
287.0292782101035982
  0
ARC
  5
E62A
  8
0
 10
952.9145877358790813
 20
-6.09169099557419
 30
0.0
 40
0.0398870855190967
 50
283.4754559636277236
 51
328.4472923165880047
  0
LINE
  5
E62B
  8
0
 10
952.9359396041212449
 20
-6.125380838474193
 30
0.0
 11
952.5127010393457567
 21
-5.5426698414257132
 31
0.0
  0
LINE
  5
E62C
  8
0
 10
953.1003609407192698
 20
-4.8584924250954984
 30
0.0
 11
953.3786973173206434
 21
-4.7678242710150762
 31
0.0
  0
LINE
  5
E62D
  8
0
 10
953.6885460193200288
 20
-5.4263935664859773
 30
0.0
 11
952.6390635781411902
 21
-5.4263935664859773
 31
0.0
  0
LINE
  5
E62E
  8
0
 10
953.6885460193200288
 20
-4.8584924250954984
 30
0.0
 11
952.6390635781411902
 21
-4.8584924250954984
 31
0.0
  0
LINE
  5
E62F
  8
0
 10
953.6370437484528111
 20
-4.9099934409919612
 30
0.0
 11
952.5843354713812232
 21
-4.9099934409919612
 31
0.0
  0
LINE
  5
E630
  8
0
 10
953.6370437484528111
 20
-5.3748804912262571
 30
0.0
 11
952.5843354713812232
 21
-5.3748804912262571
 31
0.0
  0
LINE
  5
E631
  8
0
 10
953.6674583567261152
 20
-4.9225968687578643
 30
0.0
 11
953.7148142052978983
 21
-4.8674485944439141
 31
0.0
  0
LINE
  5
E632
  8
0
 10
953.7189517268783447
 20
-5.4137990421092574
 30
0.0
 11
953.667449456010786
 21
-5.3622859668498251
 31
0.0
  0
LINE
  5
E633
  8
0
 10
952.5122635781411873
 20
-5.5531935664859802
 30
0.0
 11
952.5122635781411873
 21
-6.6062922577697156
 31
0.0
  0
LINE
  5
E634
  8
0
 10
952.5122635781411873
 20
-4.7316924250954946
 30
0.0
 11
952.5122635781411873
 21
-3.6785946237473222
 31
0.0
  0
ARC
  5
E635
  8
0
 10
952.6390635781411902
 20
-5.5531935664859509
 30
0.0
 40
0.1268
 50
90.0
 51
180.0000000000032117
  0
ARC
  5
E636
  8
0
 10
952.6390635781411902
 20
-4.7316924250954946
 30
0.0
 40
0.1268
 50
179.9999999999984084
 51
270.0
  0
LINE
  5
E637
  8
0
 10
952.4575354713809929
 20
-4.7831934409919583
 30
0.0
 11
952.4575354713809929
 21
-3.7300934370703298
 31
0.0
  0
LINE
  5
E638
  8
0
 10
952.4575354713809929
 20
-5.50168049122626
 30
0.0
 11
952.4575354713809929
 21
-6.5547802615497437
 31
0.0
  0
ARC
  5
E639
  8
0
 10
952.5843354713812232
 20
-5.50168049122626
 30
0.0
 40
0.1268
 50
90.0
 51
180.0000000000015916
  0
ARC
  5
E63A
  8
0
 10
952.5843354713812232
 20
-4.7831934409919583
 30
0.0
 40
0.1268
 50
180.0000000000048885
 51
270.0
  0
ARC
  5
E63B
  8
0
 10
952.4696635781415353
 20
-6.6062922577697156
 30
0.0
 40
0.0426
 50
270.0
 51
0.0
  0
ARC
  5
E63C
  8
0
 10
952.4149354713813409
 20
-6.5547802615497437
 30
0.0
 40
0.0426
 50
270.0
 51
0.0
  0
ARC
  5
E63D
  8
0
 10
952.4149354713813409
 20
-3.7300934370703298
 30
0.0
 40
0.0426
 50
0.0
 51
90.0
  0
ARC
  5
E63E
  8
0
 10
952.4696635781415353
 20
-3.6785946237473222
 30
0.0
 40
0.0426
 50
359.9999999999951115
 51
90.0
  0
LINE
  5
E63F
  8
0
 10
952.4997863270203879
 20
-6.6364150066482841
 30
0.0
 11
952.4450582202601936
 21
-6.5849030104282837
 31
0.0
  0
LINE
  5
E640
  8
0
 10
952.4450582202601936
 20
-3.6999706881917902
 30
0.0
 11
952.4997863270203879
 21
-3.6484718748687821
 31
0.0
  0
LINE
  5
E641
  8
0
 10
955.6796068986789123
 20
-11.2564979596677297
 30
0.0
 11
955.6796068986789123
 21
-5.0012364090864869
 31
0.0
  0
ARC
  5
E642
  8
0
 10
955.7190068986789129
 20
-11.2564979596677297
 30
0.0
 40
0.0394
 50
180.0000000000102887
 51
214.7567638371448027
  0
ARC
  5
E643
  8
0
 10
955.7266068986789378
 20
-5.0012364090865118
 30
0.0
 40
0.047
 50
145.078170020704988
 51
179.9999999999695888
  0
LINE
  5
E644
  8
0
 10
953.7315460193200352
 20
-4.9014924250954968
 30
0.0
 11
953.7315460193200352
 21
-5.3833935664859771
 31
0.0
  0
ARC
  5
E645
  8
0
 10
953.6885460193200288
 20
-4.9014924250954968
 30
0.0
 40
0.043
 50
0.0
 51
90.0
  0
ARC
  5
E646
  8
0
 10
953.6885460193200288
 20
-5.3833935664859736
 30
0.0
 40
0.043
 50
270.0000000000064801
 51
359.999999999995282
  0
LINE
  5
E647
  8
0
 10
953.6800437484528175
 20
-5.331880491226257
 30
0.0
 11
953.6800437484528175
 21
-4.9529934409919596
 31
0.0
  0
ARC
  5
E648
  8
0
 10
953.6370437484528111
 20
-5.3318804912262543
 30
0.0
 40
0.043
 50
270.0000000000064801
 51
359.999999999995282
  0
ARC
  5
E649
  8
0
 10
953.6370437484528111
 20
-4.9529934409919596
 30
0.0
 40
0.043
 50
0.0
 51
89.9999999999934914
  0
ARC
  5
E64A
  8
0
 10
953.4494159644782485
 20
-4.7446925148766113
 30
0.0
 40
2.3801346646578332
 50
180.9221858178852074
 51
182.7404925710519024
  0
ARC
  5
E64B
  8
0
 10
953.4494159644782485
 20
-4.7446925148766113
 30
0.0
 40
2.3801346646578332
 50
196.6433174015809016
 51
215.078840774955097
  0
ARC
  5
E64C
  8
0
 10
950.5691485333278479
 20
-4.7910912491692939
 30
0.0
 40
0.5005064660219003
 50
0.9263420432687413
 51
1.25346381721017
  0
ARC
  5
E64D
  8
0
 10
951.1861528417507543
 20
-4.7863829602079759
 30
0.0
 40
0.1167844608823171
 50
173.4637362997387982
 51
176.9369041904921005
  0
ARC
  5
E64E
  8
0
 10
951.1127972188651256
 20
-4.7812818229540923
 30
0.0
 40
0.0434491272128629
 50
140.9962238503968877
 51
169.1313626244975126
  0
ARC
  5
E64F
  8
0
 10
952.9811339719881289
 20
-6.1828084925415601
 30
0.0
 40
2.3790051110645392
 50
116.0087972516218997
 51
143.0858579040086056
  0
ARC
  5
E650
  8
0
 10
952.23300702046879
 20
-3.8231613802956228
 30
0.0
 40
2.4131213563492162
 50
252.9707217898964018
 51
262.9760052427704977
  0
ARC
  5
E651
  8
0
 10
951.5355943209407314
 20
-6.09169099557419
 30
0.0
 40
0.0398870855190967
 50
211.5527076834119953
 51
256.5245440363722764
  0
LINE
  5
E652
  8
0
 10
951.5142424526984541
 20
-6.125380838474193
 30
0.0
 11
951.937481017474056
 21
-5.5426698414257132
 31
0.0
  0
LINE
  5
E653
  8
0
 10
951.3498211161005429
 20
-4.8584924250954984
 30
0.0
 11
951.0714847394990556
 21
-4.7678242710150762
 31
0.0
  0
LINE
  5
E654
  8
0
 10
950.7616360374996702
 20
-5.4263935664859773
 30
0.0
 11
951.8111184786786225
 21
-5.4263935664859773
 31
0.0
  0
LINE
  5
E655
  8
0
 10
950.7616360374996702
 20
-4.8584924250954984
 30
0.0
 11
951.8111184786786225
 21
-4.8584924250954984
 31
0.0
  0
LINE
  5
E656
  8
0
 10
950.8131383083670016
 20
-4.9099934409919612
 30
0.0
 11
951.8658465854385895
 21
-4.9099934409919612
 31
0.0
  0
LINE
  5
E657
  8
0
 10
950.8131383083670016
 20
-5.3748804912262571
 30
0.0
 11
951.8658465854385895
 21
-5.3748804912262571
 31
0.0
  0
LINE
  5
E658
  8
0
 10
950.7827237000935838
 20
-4.9225968687578643
 30
0.0
 11
950.7353678515219144
 21
-4.8674485944439141
 31
0.0
  0
LINE
  5
E659
  8
0
 10
950.7312303299413543
 20
-5.4137990421092574
 30
0.0
 11
950.7827326008087994
 21
-5.3622859668498251
 31
0.0
  0
LINE
  5
E65A
  8
0
 10
951.9379184786785117
 20
-5.5531935664859802
 30
0.0
 11
951.9379184786785117
 21
-6.6062922577697156
 31
0.0
  0
LINE
  5
E65B
  8
0
 10
951.9379184786785117
 20
-4.7316924250954946
 30
0.0
 11
951.9379184786785117
 21
-3.6785946237473222
 31
0.0
  0
ARC
  5
E65C
  8
0
 10
951.8111184786786225
 20
-5.5531935664859509
 30
0.0
 40
0.1268
 50
359.9999999999968168
 51
90.0
  0
ARC
  5
E65D
  8
0
 10
951.8111184786786225
 20
-4.7316924250954946
 30
0.0
 40
0.1268
 50
270.0
 51
0.0000000000016284
  0
LINE
  5
E65E
  8
0
 10
951.9926465854387061
 20
-4.7831934409919583
 30
0.0
 11
951.9926465854387061
 21
-3.7300934370703298
 31
0.0
  0
LINE
  5
E65F
  8
0
 10
951.9926465854387061
 20
-5.50168049122626
 30
0.0
 11
951.9926465854387061
 21
-6.5547802615497437
 31
0.0
  0
ARC
  5
E660
  8
0
 10
951.8658465854385895
 20
-5.50168049122626
 30
0.0
 40
0.1268
 50
359.9999999999984084
 51
90.0
  0
ARC
  5
E661
  8
0
 10
951.8658465854385895
 20
-4.7831934409919583
 30
0.0
 40
0.1268
 50
270.0
 51
359.9999999999951115
  0
ARC
  5
E662
  8
0
 10
951.9805184786782775
 20
-6.6062922577697156
 30
0.0
 40
0.0426
 50
180.0
 51
270.0
  0
ARC
  5
E663
  8
0
 10
952.0352465854384718
 20
-6.5547802615497437
 30
0.0
 40
0.0426
 50
180.0
 51
270.0
  0
ARC
  5
E664
  8
0
 10
952.0352465854384718
 20
-3.7300934370703298
 30
0.0
 40
0.0426
 50
90.0
 51
180.0
  0
ARC
  5
E665
  8
0
 10
951.9805184786782775
 20
-3.6785946237473222
 30
0.0
 40
0.0426
 50
90.0
 51
180.0000000000046896
  0
LINE
  5
E666
  8
0
 10
951.9503957297994248
 20
-6.6364150066482841
 30
0.0
 11
952.0051238365593917
 21
-6.5849030104282837
 31
0.0
  0
LINE
  5
E667
  8
0
 10
952.0051238365593917
 20
-3.6999706881917902
 30
0.0
 11
951.9503957297994248
 21
-3.6484718748687821
 31
0.0
  0
LINE
  5
E668
  8
0
 10
950.7186360374997776
 20
-4.9014924250954968
 30
0.0
 11
950.7186360374997776
 21
-5.3833935664859771
 31
0.0
  0
ARC
  5
E669
  8
0
 10
950.7616360374996702
 20
-4.9014924250954968
 30
0.0
 40
0.043
 50
90.0
 51
180.0
  0
ARC
  5
E66A
  8
0
 10
950.7616360374996702
 20
-5.3833935664859736
 30
0.0
 40
0.043
 50
180.0000000000046896
 51
269.9999999999935199
  0
LINE
  5
E66B
  8
0
 10
950.7701383083669953
 20
-5.331880491226257
 30
0.0
 11
950.7701383083669953
 21
-4.9529934409919596
 31
0.0
  0
ARC
  5
E66C
  8
0
 10
950.8131383083670016
 20
-5.3318804912262543
 30
0.0
 40
0.043
 50
180.0000000000046896
 51
269.9999999999935199
  0
ARC
  5
E66D
  8
0
 10
950.8131383083670016
 20
-4.9529934409919596
 30
0.0
 40
0.043
 50
90.0000000000065086
 51
180.0
  0
ENDSEC
  0
EOF
