  0
SECTION
  2
HEADER
  9
$ACADVER
  1
AC1009
  9
$INSBASE
 10
892.2622423396687736
 20
50.7122213860007065
 30
0.0
  9
$EXTMIN
 10
885.6742761014302232
 20
50.7069133885342112
 30
-0.0000000000112498
  9
$EXTMAX
 10
893.7205282625640166
 20
60.287533050219281
 30
0.0000000000002956
  9
$LIMMIN
 10
0.0
 20
0.0
  9
$LIMMAX
 10
11.6929133858000007
 20
8.2677165353999982
  9
$ORTHOMODE
 70
     0
  9
$REGENMODE
 70
     1
  9
$FILLMODE
 70
     1
  9
$QTEXTMODE
 70
     0
  9
$MIRRTEXT
 70
     0
  9
$DRAGMODE
 70
     2
  9
$LTSCALE
 40
0.6431102362
  9
$OSMODE
 70
  4095
  9
$ATTMODE
 70
     1
  9
$TEXTSIZE
 40
0.2
  9
$TRACEWID
 40
0.05
  9
$TEXTSTYLE
  7
STANDARD
  9
$CLAYER
  8
0
  9
$CELTYPE
  6
BYLAYER
  9
$CECOLOR
 62
   256
  9
$DIMSCALE
 40
1.0
  9
$DIMASZ
 40
0.1875
  9
$DIMEXO
 40
0.0625
  9
$DIMDLI
 40
0.4443307087
  9
$DIMRND
 40
0.0
  9
$DIMDLE
 40
0.0
  9
$DIMEXE
 40
0.125
  9
$DIMTP
 40
0.01
  9
$DIMTM
 40
0.01
  9
$DIMTXT
 40
1.0
  9
$DIMCEN
 40
0.1052362205
  9
$DIMTSZ
 40
0.0
  9
$DIMTOL
 70
     1
  9
$DIMLIM
 70
     0
  9
$DIMTIH
 70
     0
  9
$DIMTOH
 70
     1
  9
$DIMSE1
 70
     0
  9
$DIMSE2
 70
     0
  9
$DIMTAD
 70
     0
  9
$DIMZIN
 70
     0
  9
$DIMBLK
  1

  9
$DIMASO
 70
     1
  9
$DIMSHO
 70
     1
  9
$DIMPOST
  1
\X
  9
$DIMAPOST
  1

  9
$DIMALT
 70
     1
  9
$DIMALTD
 70
     2
  9
$DIMALTF
 40
25.3999999999999986
  9
$DIMLFAC
 40
1.0
  9
$DIMTOFL
 70
     0
  9
$DIMTVP
 40
0.0
  9
$DIMTIX
 70
     0
  9
$DIMSOXD
 70
     0
  9
$DIMSAH
 70
     0
  9
$DIMBLK1
  1

  9
$DIMBLK2
  1

  9
$DIMSTYLE
  2
STANDARD
  9
$DIMCLRD
 70
     0
  9
$DIMCLRE
 70
     0
  9
$DIMCLRT
 70
     0
  9
$DIMTFAC
 40
1.0
  9
$DIMGAP
 40
0.09
  9
$LUNITS
 70
     2
  9
$LUPREC
 70
     4
  9
$SKETCHINC
 40
0.1
  9
$FILLETRAD
 40
0.0
  9
$AUNITS
 70
     0
  9
$AUPREC
 70
     0
  9
$MENU
  1
.
  9
$ELEVATION
 40
0.0
  9
$PELEVATION
 40
0.0
  9
$THICKNESS
 40
0.0
  9
$LIMCHECK
 70
     0
  9
$BLIPMODE
 70
     0
  9
$CHAMFERA
 40
0.0
  9
$CHAMFERB
 40
0.0
  9
$SKPOLY
 70
     0
  9
$TDCREATE
 40
2458172.5207638889551163
  9
$TDUPDATE
 40
2460171.5924652782268822
  9
$TDINDWG
 40
0.2345808333
  9
$TDUSRTIMER
 40
0.2345808333
  9
$USRTIMER
 70
     1
  9
$ANGBASE
 50
0.0
  9
$ANGDIR
 70
     0
  9
$PDMODE
 70
     0
  9
$PDSIZE
 40
0.3125
  9
$PLINEWID
 40
0.0
  9
$COORDS
 70
     1
  9
$SPLFRAME
 70
     0
  9
$SPLINETYPE
 70
     6
  9
$SPLINESEGS
 70
     8
  9
$ATTDIA
 70
     1
  9
$ATTREQ
 70
     1
  9
$HANDLING
 70
     1
  9
$HANDSEED
  5
10BC6
  9
$SURFTAB1
 70
     6
  9
$SURFTAB2
 70
     6
  9
$SURFTYPE
 70
     6
  9
$SURFU
 70
     6
  9
$SURFV
 70
     6
  9
$UCSNAME
  2

  9
$UCSORG
 10
0.0
 20
0.0
 30
0.0
  9
$UCSXDIR
 10
1.0
 20
0.0
 30
0.0
  9
$UCSYDIR
 10
0.0
 20
1.0
 30
0.0
  9
$PUCSNAME
  2

  9
$PUCSORG
 10
0.0
 20
0.0
 30
0.0
  9
$PUCSXDIR
 10
1.0
 20
0.0
 30
0.0
  9
$PUCSYDIR
 10
0.0
 20
1.0
 30
0.0
  9
$USERI1
 70
     0
  9
$USERI2
 70
     0
  9
$USERI3
 70
     0
  9
$USERI4
 70
     0
  9
$USERI5
 70
     0
  9
$USERR1
 40
0.0
  9
$USERR2
 40
0.0
  9
$USERR3
 40
0.0
  9
$USERR4
 40
0.0
  9
$USERR5
 40
0.0
  9
$WORLDVIEW
 70
     1
  9
$SHADEDGE
 70
     3
  9
$SHADEDIF
 70
    70
  9
$TILEMODE
 70
     1
  9
$MAXACTVP
 70
    64
  9
$PLIMCHECK
 70
     0
  9
$PEXTMIN
 10
1.0000000000000000E+20
 20
1.0000000000000000E+20
 30
1.0000000000000000E+20
  9
$PEXTMAX
 10
-1.0000000000000000E+20
 20
-1.0000000000000000E+20
 30
-1.0000000000000000E+20
  9
$PLIMMIN
 10
0.0
 20
0.0
  9
$PLIMMAX
 10
12.0
 20
9.0
  9
$UNITMODE
 70
     0
  9
$VISRETAIN
 70
     1
  9
$PLINEGEN
 70
     0
  9
$PSLTSCALE
 70
     1
  0
ENDSEC
  0
SECTION
  2
TABLES
  0
TABLE
  2
VPORT
 70
     1
  0
VPORT
  2
*ACTIVE
 70
     0
 10
0.0
 20
0.0
 11
1.0
 21
1.0
 12
515.8762657073878017
 22
13.6107750871132804
 13
0.0
 23
0.0
 14
1.0
 24
1.0
 15
0.0
 25
0.0
 16
0.0
 26
0.0
 36
25.5757211105568096
 17
373.821136474609375
 27
41.8864481322634603
 37
0.0
 40
9.6665445017001748
 41
2.8368263473053892
 42
50.0
 43
0.0
 44
0.0
 50
0.0
 51
0.0
 71
     0
 72
   100
 73
     1
 74
     1
 75
     0
 76
     0
 77
     0
 78
     0
  0
ENDTAB
  0
TABLE
  2
LTYPE
 70
     2
  0
LTYPE
  2
CONTINUOUS
 70
     0
  3
Solid line
 72
    65
 73
     0
 40
0.0
  0
LTYPE
  2
PHANTOM2
 70
     0
  3
___ _ _ ___ _ _ ___ _ _ ___ _ _
 72
    65
 73
     6
 40
1.25
 49
0.625
 49
-0.125
 49
0.125
 49
-0.125
 49
0.125
 49
-0.125
  0
ENDTAB
  0
TABLE
  2
LAYER
 70
     2
  0
LAYER
  2
0
 70
     0
 62
   255
  6
CONTINUOUS
  0
LAYER
  2
DEFPOINTS
 70
     0
 62
     7
  6
CONTINUOUS
  0
ENDTAB
  0
TABLE
  2
STYLE
 70
     1
  0
STYLE
  2
STANDARD
 70
     0
 40
0.0
 41
0.8
 50
0.0
 71
     0
 42
0.2
  3
txt
  4

  0
ENDTAB
  0
TABLE
  2
VIEW
 70
     0
  0
ENDTAB
  0
TABLE
  2
UCS
 70
     0
  0
ENDTAB
  0
TABLE
  2
APPID
 70
    10
  0
APPID
  2
ACAD
 70
     0
  0
APPID
  2
ACAD_MLEADERVER
 70
     0
  0
APPID
  2
ACAD_EXEMPT_FROM_CAD_STANDARDS
 70
     0
  0
APPID
  2
ACAD_DSTYLE_DIMJAG
 70
     0
  0
APPID
  2
ACAD_DSTYLE_DIMTALN
 70
     0
  0
APPID
  2
ACAD_NAV_VCDISPLAY
 70
     0
  0
APPID
  2
ACAECLAYERSTANDARD
 70
     0
  0
APPID
  2
ACCMTRANSPARENCY
 70
     0
  0
APPID
  2
DCO15
 70
     0
  0
APPID
  2
ACDBATTR
 70
     0
  0
ENDTAB
  0
TABLE
  2
DIMSTYLE
 70
     1
  0
DIMSTYLE
  2
STANDARD
 70
     0
  3

  4

  5

  6

  7

 40
1.0
 41
0.1875
 42
0.0625
 43
0.38
 44
0.125
 45
0.0
 46
0.0
 47
0.01
 48
0.01
140
0.15625
141
0.09
142
0.0
143
25.3999999999999986
144
1.0
145
0.0
146
1.0
147
0.09
 71
     1
 72
     0
 73
     1
 74
     1
 75
     0
 76
     0
 77
     0
 78
     4
170
     0
171
     2
172
     0
173
     0
174
     0
175
     0
176
     0
177
     0
178
     0
  0
ENDTAB
  0
ENDSEC
  0
SECTION
  2
BLOCKS
  0
BLOCK
  8
0
  2
$MODEL_SPACE
 70
     0
 10
0.0
 20
0.0
 30
0.0
  3
$MODEL_SPACE
  1

  0
ENDBLK
  5
21
  8
0
  0
BLOCK
 67
     1
  8
0
  2
$PAPER_SPACE
 70
     0
 10
0.0
 20
0.0
 30
0.0
  3
$PAPER_SPACE
  1

  0
ENDBLK
  5
1D
 67
     1
  8
0
  0
BLOCK
  8
0
  2
_FILLED
 70
     0
 10
0.0
 20
0.0
 30
0.0
  3
_FILLED
  1

  0
SOLID
  5
B17D
  8
0
  6
BYBLOCK
 62
     0
 10
0.0
 20
0.0
 30
0.0
 11
-1.0
 21
0.1666666667
 31
0.0
 12
-1.0
 22
-0.1666666667
 32
0.0
 13
-1.0
 23
-0.1666666667
 33
0.0
  0
ENDBLK
  5
B17E
  8
0
  6
BYBLOCK
 62
     0
  0
ENDSEC
  0
SECTION
  2
ENTITIES
  0
ATTDEF
  5
829
  8
DEFPOINTS
 10
892.2509590640307806
 20
50.7105759497098418
 30
0.0
 40
0.001
  1
K-EX27100T-3
  3

  2
MODELNUMBER
 70
     0
1001
ACDBATTR
1070
     0
1070
     1
  0
ATTDEF
  5
82A
  8
DEFPOINTS
 10
892.2509590640307806
 20
50.7089092830431696
 30
0.0
 40
0.001
  1
OCCASION
  3

  2
TRADENAME
 70
     0
1001
ACDBATTR
1070
     0
1070
     1
  0
ATTDEF
  5
82B
  8
DEFPOINTS
 10
892.2509590640307806
 20
50.7072426163764973
 30
0.0
 40
0.001
  1
BATHROOM SINK FAUCET
  3

  2
PRODUCT
 70
     0
1001
ACDBATTR
1070
     0
1070
     1
  0
LINE
  5
1074B
  8
0
 10
891.2112479408266381
 20
50.7122213860007065
 30
0.0
 11
893.3132367385111365
 21
50.7122213860007065
 31
0.0
  0
LINE
  5
1074C
  8
0
 10
885.8022472658526567
 20
56.7921418860006995
 30
0.0
 11
886.6169375707983136
 21
56.7921418860006995
 31
0.0
  0
LINE
  5
1074D
  8
0
 10
891.1749800457970423
 20
50.7362265884982406
 30
0.0
 11
891.1133249121345443
 21
50.8814770807726333
 31
0.0
  0
ARC
  5
1074E
  8
0
 10
890.0974166826404144
 20
52.2215955365702698
 30
0.0
 40
1.652335017035037
 50
308.4587402588866212
 51
320.5172790163222771
  0
ARC
  5
1074F
  8
0
 10
890.2615402436547356
 20
52.0863856223052082
 30
0.0
 40
1.439689151344544
 50
320.5172790163222771
 51
335.4599571830730156
  0
ARC
  5
10750
  8
0
 10
890.0935172674842306
 20
52.1630999651578335
 30
0.0
 40
1.624396516980978
 50
335.4599571830730156
 51
347.9134581039187992
  0
ARC
  5
10751
  8
0
 10
889.5706435848519504
 20
52.2750659149493728
 30
0.0
 40
2.1591237950418449
 50
347.9134581039187992
 51
357.3616380316876757
  0
ARC
  5
10752
  8
0
 10
879.702553591093988
 20
52.7297941930387566
 30
0.0
 40
12.0376853265504309
 50
357.3616380316876757
 51
359.5747617346971765
  0
ARC
  5
10753
  8
0
 10
814.5325589163910536
 20
53.0383024662297515
 30
0.0
 40
77.2083735145897947
 50
359.7047579262082877
 51
0.0358196091646653
  0
LINE
  5
10754
  8
0
 10
891.7409173430100964
 20
53.086570830965762
 30
0.0
 11
891.7409173430100964
 21
53.4262893559735375
 31
0.0
  0
LINE
  5
10755
  8
0
 10
891.7409173430100964
 20
53.8107364252999076
 30
0.0
 11
891.7409173430100964
 21
56.7921414716810133
 31
0.0
  0
ARC
  5
10756
  8
0
 10
891.2112479408266381
 20
50.751621386000707
 30
0.0
 40
0.0394
 50
202.9999858450597969
 51
270.0
  0
ARC
  5
10757
  8
0
 10
891.1495928071632306
 20
50.8968718782750997
 30
0.0
 40
0.0394
 50
128.4587402588279872
 51
202.9999858450761963
  0
LINE
  5
10758
  8
0
 10
891.78993368751037
 20
52.4593048665560886
 30
0.0
 11
891.78993368751037
 21
53.3712902404693281
 31
0.0
  0
LINE
  5
10759
  8
0
 10
891.78993368751037
 20
53.8107364252999076
 30
0.0
 11
891.78993368751037
 21
56.7921454038429587
 31
0.0
  0
ARC
  5
1075A
  8
0
 10
890.1960174625152149
 20
52.1315145355636886
 30
0.0
 40
1.587561099345983
 50
310.6371477713087756
 51
319.7743996609526107
  0
ARC
  5
1075B
  8
0
 10
890.303110506510734
 20
52.0409318438692807
 30
0.0
 40
1.4472965489177461
 50
319.7743996609526107
 51
328.9291118656846038
  0
ARC
  5
1075C
  8
0
 10
890.2655735867197109
 20
52.0635495567061497
 30
0.0
 40
1.491120985951867
 50
328.9291118656846038
 51
339.5400888512202755
  0
ARC
  5
1075D
  8
0
 10
890.0413430422227066
 20
52.1472071468896203
 30
0.0
 40
1.7304490651255851
 50
339.5400888512202755
 51
352.0606713327476882
  0
ARC
  5
1075E
  8
0
 10
888.7191967938011885
 20
52.3315952030853779
 30
0.0
 40
3.0653908831395169
 50
352.0606713327476882
 51
358.9873968124729231
  0
ARC
  5
1075F
  8
0
 10
898.1281457572290492
 20
52.1652910900651534
 30
0.0
 40
6.3450276864250323
 50
177.3440962513222985
 51
178.9873968124728947
  0
LINE
  5
10760
  8
0
 10
891.2713704789052827
 20
50.7381632472978126
 30
0.0
 11
891.2185722492481545
 21
50.8834382393626612
 31
0.0
  0
ARC
  5
10761
  8
0
 10
891.3084007165848561
 20
50.751621386000707
 30
0.0
 40
0.0394
 50
199.9729901721264866
 51
270.0
  0
ARC
  5
10762
  8
0
 10
891.2556024869287512
 20
50.8968963780655699
 30
0.0
 40
0.0394
 50
130.6371477713016134
 51
199.9729901721437102
  0
LINE
  5
10763
  8
0
 10
893.3491829712871777
 20
50.7354897912495275
 30
0.0
 11
893.4133903501747227
 21
50.8785638904323818
 31
0.0
  0
ARC
  5
10764
  8
0
 10
894.6232777861390559
 20
52.6453064517659683
 30
0.0
 40
2.1092601142310738
 50
227.3849067133290021
 51
234.5621964215658863
  0
ARC
  5
10765
  8
0
 10
894.1696477725486147
 20
52.152248265673613
 30
0.0
 40
1.439270141094589
 50
211.9412337930866101
 51
227.3849067133290021
  0
ARC
  5
10766
  8
0
 10
894.1498269482111709
 20
52.1398910893144532
 30
0.0
 40
1.415912810661017
 50
199.0932564045089919
 51
211.9412337930866101
  0
ARC
  5
10767
  8
0
 10
945.1642640349049316
 20
52.9497472369506994
 30
0.0
 40
52.4558478886578428
 50
179.881880888617701
 51
180.5855180051082129
  0
LINE
  5
10768
  8
0
 10
892.7085276164621064
 20
53.057888426461588
 30
0.0
 11
892.7085276164621064
 21
53.4627577201771871
 31
0.0
  0
LINE
  5
10769
  8
0
 10
892.7085276164621064
 20
53.8107364253003126
 30
0.0
 11
892.7085276164621064
 21
56.7906192888052814
 31
0.0
  0
ARC
  5
1076A
  8
0
 10
893.3132367385111365
 20
50.751621386000707
 30
0.0
 40
0.0394
 50
270.0
 51
335.8308825956378882
  0
ARC
  5
1076B
  8
0
 10
893.3774441173986816
 20
50.89469548518354
 30
0.0
 40
0.0394
 50
335.8308825956794976
 51
54.5621964215666111
  0
LINE
  5
1076C
  8
0
 10
892.7425160498455625
 20
52.5691735181236126
 30
0.0
 11
892.666854902167529
 21
52.1940759730602366
 31
0.0
  0
ARC
  5
1076D
  8
0
 10
892.9825089941266469
 20
52.9710183704362265
 30
0.0
 40
0.8618173740646543
 50
253.2740497029402889
 51
258.7089667407125262
  0
ARC
  5
1076E
  8
0
 10
892.8293836732469799
 20
52.4614637002177631
 30
0.0
 40
0.3297522221932728
 50
245.3580531934753139
 51
253.2740497029402889
  0
ARC
  5
1076F
  8
0
 10
892.7199180266129588
 20
52.2228317205978527
 30
0.0
 40
0.0672108930843234
 50
229.2869801383635036
 51
245.3580531934753139
  0
ARC
  5
10770
  8
0
 10
892.6940764126017029
 20
52.1928018784561374
 30
0.0
 40
0.0275929623740013
 50
198.3019605915991974
 51
229.2869801383635036
  0
ARC
  5
10771
  8
0
 10
892.6899364761198967
 20
52.1914325682094216
 30
0.0
 40
0.0232324481121649
 50
173.4666957000289074
 51
198.3019605915991974
  0
ARC
  5
10772
  8
0
 10
892.7889024046022541
 20
52.003572831550791
 30
0.0
 40
0.6248017233517004
 50
78.5780450860545869
 51
81.7839367289272872
  0
ARC
  5
10773
  8
0
 10
892.8206264289107139
 20
52.2232859535970917
 30
0.0
 40
0.402810125047497
 50
81.7839367289272872
 51
86.8120348841519842
  0
ARC
  5
10774
  8
0
 10
892.8359559599908835
 20
52.4985119457368228
 30
0.0
 40
0.1271575515561105
 50
86.8120348841519842
 51
95.3202601807773391
  0
ARC
  5
10775
  8
0
 10
892.8278234680878995
 20
52.585841789870102
 30
0.0
 40
0.0394498603261705
 50
95.3202601807773391
 51
124.5228721561977068
  0
LINE
  5
10776
  8
0
 10
892.7522615424683181
 20
52.5837623474924882
 30
0.0
 11
892.805465844459377
 21
52.6183445304534132
 31
0.0
  0
ARC
  5
10777
  8
0
 10
892.7658364175155157
 20
52.5641447262432777
 30
0.0
 40
0.0238564099567117
 50
124.6822095818912999
 51
167.83110394263079
  0
LINE
  5
10778
  8
0
 10
893.051296968549309
 20
52.5068891363736086
 30
0.0
 11
892.9756358208710481
 21
52.1317915913102112
 31
0.0
  0
ARC
  5
10779
  8
0
 10
892.9858444588440989
 20
52.9703455718752281
 30
0.0
 40
0.8618173740646541
 50
258.4827503238510076
 51
263.9176673616199764
  0
ARC
  5
1077A
  8
0
 10
892.9294681875559263
 20
52.4412755936383732
 30
0.0
 40
0.3297522221932727
 50
263.9176673616199764
 51
271.833663871114311
  0
ARC
  5
1077B
  8
0
 10
892.9378689873916528
 20
52.1788687033850778
 30
0.0
 40
0.0672108930843234
 50
271.833663871114311
 51
287.9047369262119105
  0
ARC
  5
1077C
  8
0
 10
892.9500489374000836
 20
52.1411695090758798
 30
0.0
 40
0.0275929623740013
 50
287.9047369262119105
 51
318.8897564729772967
  0
ARC
  5
1077D
  8
0
 10
892.953334348786143
 20
52.1383024275187807
 30
0.0
 40
0.0232324481121649
 50
318.8897564729772967
 51
343.7250213645630765
  0
ARC
  5
1077E
  8
0
 10
892.7892832400972338
 20
52.0034960129978217
 30
0.0
 40
0.6248017233517001
 50
75.4077803356341718
 51
78.6136719781849393
  0
ARC
  5
1077F
  8
0
 10
892.8452113479130503
 20
52.2183269150435621
 30
0.0
 40
0.402810125047497
 50
70.3796821804234298
 51
75.4077803356341718
  0
ARC
  5
10780
  8
0
 10
892.9377715166442613
 20
52.477974669582089
 30
0.0
 40
0.1271575515561105
 50
61.8714568837703709
 51
70.3796821804234298
  0
ARC
  5
10781
  8
0
 10
892.9791214193352289
 20
52.5553233906341219
 30
0.0
 40
0.0394498603261705
 50
32.6688449083951014
 51
61.8714568837703709
  0
LINE
  5
10782
  8
0
 10
893.047968846995559
 20
52.5241150521907727
 30
0.0
 11
893.0123304860477447
 21
52.5766177412419466
 31
0.0
  0
ARC
  5
10783
  8
0
 10
893.0278506821728115
 20
52.5112936739425606
 30
0.0
 40
0.0238564099567117
 50
349.3606131219373765
 51
32.5095074827067876
  0
LINE
  5
10784
  8
0
 10
892.784551442940483
 20
51.5416136858507912
 30
0.0
 11
892.8997784144107754
 21
52.11286267456844
 31
0.0
  0
LINE
  5
10785
  8
0
 10
892.65354140164402
 20
51.7881230877217078
 30
0.0
 11
892.7261878600753562
 21
52.1482750155796992
 31
0.0
  0
ARC
  5
10786
  8
0
 10
892.8120932130392475
 20
52.617749589557512
 30
0.0
 40
0.0050592429227345
 50
158.6987762498320933
 51
247.3777443898077024
  0
ARC
  5
10787
  8
0
 10
892.9203975675186484
 20
52.8259257671803795
 30
0.0
 40
0.2397053275902135
 50
242.6166716190103045
 51
254.5827736609695933
  0
ARC
  5
10788
  8
0
 10
893.04340300845206
 20
53.2719703524820432
 30
0.0
 40
0.7023997305995452
 50
254.5827736609695933
 51
264.3123648267664976
  0
ARC
  5
10789
  8
0
 10
892.9883531543669051
 20
52.7192349867168772
 30
0.0
 40
0.1469297755143666
 50
264.3123648267664976
 51
275.916376094800512
  0
ARC
  5
1078A
  8
0
 10
893.0018747969311335
 20
52.5887535056585165
 30
0.0
 40
0.0157495494252366
 50
275.916376094800512
 51
302.0337867153917273
  0
ARC
  5
1078B
  8
0
 10
893.0087935820806706
 20
52.5775126019145986
 30
0.0
 40
0.002552227299693
 50
304.2139692493370262
 51
16.1427003165282912
  0
ARC
  5
1078C
  8
0
 10
892.756622976329254
 20
52.5742859723118201
 30
0.0
 40
0.0156862473148188
 50
203.7984025961685006
 51
240.2550967919148945
  0
ARC
  5
1078D
  8
0
 10
892.9014288462726654
 20
52.8506106576756878
 30
0.0
 40
0.3276443885114784
 50
242.243588060705008
 51
256.0672167044759817
  0
ARC
  5
1078E
  8
0
 10
893.0850509441747818
 20
53.4782855823788097
 30
0.0
 40
0.981439399518339
 50
254.4857526171774111
 51
264.9232309539107746
  0
ARC
  5
1078F
  8
0
 10
893.0166179654758025
 20
52.6922648447869619
 30
0.0
 40
0.1924515618864061
 50
264.5091644244917006
 51
277.6986610086349856
  0
ARC
  5
10790
  8
0
 10
893.0389975075954681
 20
52.5192893228771567
 30
0.0
 40
0.0180645488349319
 50
280.8545498352693812
 51
312.0275879020895786
  0
ARC
  5
10791
  8
0
 10
889.2167973202044777
 20
56.7921414716810133
 30
0.0
 40
2.5241200228058869
 50
0.0000094047705282
 51
178.301084967249011
  0
ARC
  5
10792
  8
0
 10
889.2170221831062236
 20
56.792363058199598
 30
0.0
 40
2.572911513609887
 50
359.9951530878631729
 51
178.3670438443178909
  0
ARC
  5
10793
  8
0
 10
889.2168240710103646
 20
56.7921663665961134
 30
0.0
 40
3.4917038881854472
 50
359.9746138178571755
 51
178.7511628624237119
  0
LINE
  5
10794
  8
0
 10
886.6819367335989455
 20
56.8391522769166713
 30
0.0
 11
886.6444701392443903
 21
56.8033582440295319
 31
0.0
  0
LINE
  5
10795
  8
0
 10
886.6047870640099973
 20
56.8056707371209697
 30
0.0
 11
886.6354876075242828
 21
56.8391522769167068
 31
0.0
  0
LINE
  5
10796
  8
0
 10
885.7378815472188762
 20
56.8391522769166997
 30
0.0
 11
885.7747886032062752
 21
56.8032862344309919
 31
0.0
  0
ARC
  5
10797
  8
0
 10
885.7653402098654851
 20
56.8674079284864291
 30
0.0
 40
0.0394
 50
178.751162862435109
 51
225.8195557612961011
  0
ARC
  5
10798
  8
0
 10
885.8022472658526567
 20
56.8315418860007284
 30
0.0
 40
0.0394
 50
225.819555761296499
 51
270.0
  0
ARC
  5
10799
  8
0
 10
886.6502727780809892
 20
56.869073369230982
 30
0.0
 40
0.0435646398391868
 50
316.6210437979008816
 51
357.2389879260464909
  0
ARC
  5
1079A
  8
0
 10
886.6169375707983136
 20
56.8315418860007
 30
0.0
 40
0.0394
 50
270.0
 51
314.3304988434463212
  0
ARC
  5
1079B
  8
0
 10
886.5750710135384907
 20
56.8315418860007
 30
0.0
 40
0.0394
 50
270.0
 51
318.9567799382766111
  0
ARC
  5
1079C
  8
0
 10
886.5946244052307748
 20
56.8690700434337302
 30
0.0
 40
0.0506445856434711
 50
323.790483996555281
 51
356.1644738117793167
  0
LINE
  5
1079D
  8
0
 10
892.368617811972058
 20
56.7921427634823317
 30
0.0
 11
892.368617811972058
 21
53.8107364253001705
 31
0.0
  0
ARC
  5
1079E
  8
0
 10
889.216796895421453
 20
56.7921427634823317
 30
0.0
 40
3.1518209165502018
 50
0.0
 51
178.8148911335879063
  0
LINE
  5
1079F
  8
0
 10
886.067356382564526
 20
56.8450189886843305
 30
0.0
 11
886.0749751183135459
 21
56.8200452263482916
 31
0.0
  0
ARC
  5
107A0
  8
0
 10
886.1050417486471815
 20
56.8565156483367318
 30
0.0
 40
0.0394
 50
178.8148911335586035
 51
196.9653543429027138
  0
ARC
  5
107A1
  8
0
 10
886.1126604843972245
 20
56.8315418860007
 30
0.0
 40
0.0394
 50
196.9653543429027138
 51
270.0
  0
LINE
  5
107A2
  8
0
 10
892.5888367200393532
 20
50.8976774303373531
 30
0.0
 11
892.5678091089699819
 21
50.7462038185543918
 31
0.0
  0
ARC
  5
107A3
  8
0
 10
899.2466413612141878
 20
53.4983309641017613
 30
0.0
 40
7.1427456006939076
 50
197.1766714777822074
 51
201.1706833599498054
  0
ARC
  5
107A4
  8
0
 10
896.1022730891750143
 20
52.3107041204053687
 30
0.0
 40
3.7934923715067388
 50
188.7561532343362956
 51
194.0627914795848881
  0
ARC
  5
107A5
  8
0
 10
896.7668813845479008
 20
52.3988191167580908
 30
0.0
 40
4.463790694847467
 50
180.9836764499991091
 51
188.5753627021732939
  0
ARC
  5
107A6
  8
0
 10
892.5498109597907614
 20
50.90309499778364
 30
0.0
 40
0.0394
 50
352.0966932450779154
 51
23.4059792869406493
  0
ARC
  5
107A7
  8
0
 10
892.5287833487216176
 20
50.751621386000707
 30
0.0
 40
0.0394
 50
270.0
 51
352.0966932450090781
  0
LINE
  5
107A8
  8
0
 10
891.1248953493492309
 20
50.9275703404110232
 30
0.0
 11
893.3992022650895706
 21
50.9275703404110232
 31
0.0
  0
LINE
  5
107A9
  8
0
 10
892.5184177939896699
 20
52.4617100409907806
 30
0.0
 11
892.5184177939896699
 21
53.0153513860006882
 31
0.0
  0
LINE
  5
107AA
  8
0
 10
892.5184177939896699
 20
53.0744364253007106
 30
0.0
 11
892.5184177939896699
 21
53.0796364253071928
 31
0.0
  0
ARC
  5
107AB
  8
0
 10
899.8949417825436967
 20
52.7815938280913528
 30
0.0
 40
7.3834566289079948
 50
182.4830821553414921
 51
184.2775629463216944
  0
LINE
  5
107AC
  8
0
 10
892.4987177939890444
 20
53.0350513860006885
 30
0.0
 11
891.9081173495146686
 21
53.0350513860006885
 31
0.0
  0
LINE
  5
107AD
  8
0
 10
892.4987177939890444
 20
53.0547364253007103
 30
0.0
 11
891.9081173495146686
 21
53.0547364253007103
 31
0.0
  0
LINE
  5
107AE
  8
0
 10
892.999517793989753
 20
53.5607364253071907
 30
0.0
 11
893.6685292098658238
 21
53.5607364253071907
 31
0.0
  0
LINE
  5
107AF
  8
0
 10
893.7079157084693861
 20
53.6011677970765206
 30
0.0
 11
893.7043518085341702
 21
53.7372676439144001
 31
0.0
  0
LINE
  5
107B0
  8
0
 10
893.6924582540573283
 20
53.764458568707127
 30
0.0
 11
893.6564269389976971
 21
53.7995587218628017
 31
0.0
  0
LINE
  5
107B1
  8
0
 10
893.6289339948713177
 20
53.810736425300739
 30
0.0
 11
890.7759577958355521
 21
53.81073642529946
 31
0.0
  0
ARC
  5
107B2
  8
0
 10
892.999517793989753
 20
53.0796364253071928
 30
0.0
 40
0.4811
 50
90.0
 51
180.0
  0
ARC
  5
107B3
  8
0
 10
892.4987177939890444
 20
53.0153513860007308
 30
0.0
 40
0.0197
 50
359.9999999999902229
 51
90.0
  0
ARC
  5
107B4
  8
0
 10
892.4987177939890444
 20
53.0744364253007106
 30
0.0
 40
0.0197
 50
270.0
 51
0.0000000000048853
  0
LINE
  5
107B5
  8
0
 10
892.4790083450894826
 20
53.0547364253007103
 30
0.0
 11
892.4790083450894826
 21
53.0350513860006885
 31
0.0
  0
ARC
  5
107B6
  8
0
 10
893.6685292098658238
 20
53.6001364253071912
 30
0.0
 40
0.0394
 50
270.0
 51
1.5000000087108909
  0
ARC
  5
107B7
  8
0
 10
893.6649653099298121
 20
53.7362362721450921
 30
0.0
 40
0.0394
 50
1.5000000087027521
 51
45.7499999815264431
  0
ARC
  5
107B8
  8
0
 10
893.6289339948713177
 20
53.77133642530071
 30
0.0
 40
0.0394
 50
45.7499999815269973
 51
90.0
  0
LINE
  5
107B9
  8
0
 10
892.4719016068142992
 20
53.7644585687456384
 30
0.0
 11
892.4358702916547372
 21
53.7995587219007732
 31
0.0
  0
LINE
  5
107BA
  8
0
 10
892.4905899141464261
 20
53.477786500878679
 30
0.0
 11
892.4837951613313862
 21
53.7372676439016104
 31
0.0
  0
LINE
  5
107BB
  8
0
 10
892.4479725626183608
 20
53.5607364253006821
 30
0.0
 11
891.9588625808852385
 21
53.5607364253008171
 31
0.0
  0
ARC
  5
107BC
  8
0
 10
892.4479725626183608
 20
53.6001364253006827
 30
0.0
 40
0.0394
 50
270.0
 51
1.499999990121246
  0
ARC
  5
107BD
  8
0
 10
892.4444086627270281
 20
53.7362362721450708
 30
0.0
 40
0.0394
 50
1.499999990124502
 51
45.7500000617708267
  0
ARC
  5
107BE
  8
0
 10
892.4083773475673524
 20
53.7713364253001984
 30
0.0
 40
0.0394
 50
45.7500000617708267
 51
90.0000000000521254
  0
ARC
  5
107BF
  8
0
 10
892.5410932380942768
 20
53.473971274123457
 30
0.0
 40
0.0506472278117632
 50
175.6798492536140088
 51
222.3052949385609054
  0
ARC
  5
107C0
  8
0
 10
892.5295575474051475
 20
53.4621962786972915
 30
0.0
 40
0.034203294341663
 50
220.7238029800739127
 51
305.7515286446842993
  0
ARC
  5
107C1
  8
0
 10
892.3889330123945456
 20
53.7085275960756334
 30
0.0
 40
0.3176791471896818
 50
300.369091443770003
 51
314.2153537290668055
  0
ARC
  5
107C2
  8
0
 10
892.983490551000159
 20
52.6447545571058271
 30
0.0
 40
0.9155233798913558
 50
90.3331110662968655
 51
114.0441793340479961
  0
ARC
  5
107C3
  8
0
 10
890.3451526271544481
 20
52.3488194179617707
 30
0.0
 40
1.5341705523844049
 50
330.5637498860705819
 51
355.5908445564484737
  0
LINE
  5
107C4
  8
0
 10
891.8884173495140431
 20
52.4617100409907806
 30
0.0
 11
891.8884173495140431
 21
53.0153513860006882
 31
0.0
  0
LINE
  5
107C5
  8
0
 10
891.8884173495140431
 20
53.0744364253007106
 30
0.0
 11
891.8884173495140431
 21
53.0796364253071928
 31
0.0
  0
ARC
  5
107C6
  8
0
 10
884.5118933609605847
 20
52.7815938280913528
 30
0.0
 40
7.3834566289079948
 50
355.7224370536782772
 51
357.5169178446583942
  0
LINE
  5
107C7
  8
0
 10
891.4073173495139599
 20
53.5607364253071907
 30
0.0
 11
890.7363625808416145
 21
53.5607364253071907
 31
0.0
  0
LINE
  5
107C8
  8
0
 10
890.6969760822372564
 20
53.6011677970765206
 30
0.0
 11
890.7005399821733818
 21
53.7372676439144001
 31
0.0
  0
LINE
  5
107C9
  8
0
 10
890.7124335366503374
 20
53.764458568707127
 30
0.0
 11
890.7484648517089454
 21
53.7995587218628017
 31
0.0
  0
ARC
  5
107CA
  8
0
 10
891.4073173495139599
 20
53.0796364253071928
 30
0.0
 40
0.4811
 50
0.0
 51
90.0
  0
ARC
  5
107CB
  8
0
 10
891.9081173495146686
 20
53.0153513860007308
 30
0.0
 40
0.0197
 50
90.0
 51
180.0000000000098055
  0
ARC
  5
107CC
  8
0
 10
891.9081173495146686
 20
53.0744364253007106
 30
0.0
 40
0.0197
 50
179.9999999999951115
 51
270.0
  0
LINE
  5
107CD
  8
0
 10
891.9278267984141166
 20
53.0547364253007103
 30
0.0
 11
891.9278267984141166
 21
53.0350513860006885
 31
0.0
  0
ARC
  5
107CE
  8
0
 10
890.7363625808416145
 20
53.6001364253071912
 30
0.0
 40
0.0394
 50
178.4999999912890871
 51
270.0
  0
ARC
  5
107CF
  8
0
 10
890.7399264807769441
 20
53.7362362721450921
 30
0.0
 40
0.0394
 50
134.2500000184735995
 51
178.4999999912971873
  0
ARC
  5
107D0
  8
0
 10
890.7759577958355521
 20
53.77133642530071
 30
0.0
 40
0.0394
 50
90.0
 51
134.2500000184730879
  0
LINE
  5
107D1
  8
0
 10
891.9349335366893001
 20
53.7644585687456384
 30
0.0
 11
891.9709648518488621
 21
53.7995587219007732
 31
0.0
  0
LINE
  5
107D2
  8
0
 10
891.9162452293572869
 20
53.477786500878679
 30
0.0
 11
891.9230399821723267
 21
53.7372676439016104
 31
0.0
  0
ARC
  5
107D3
  8
0
 10
891.9588625808852385
 20
53.6001364253006827
 30
0.0
 40
0.0394
 50
178.5000000098787041
 51
270.0
  0
ARC
  5
107D4
  8
0
 10
891.9624264807766849
 20
53.7362362721450708
 30
0.0
 40
0.0394
 50
134.2499999382291094
 51
178.5000000098754924
  0
ARC
  5
107D5
  8
0
 10
891.9984577959362468
 20
53.7713364253001984
 30
0.0
 40
0.0394
 50
89.9999999999478888
 51
134.2499999382291094
  0
ARC
  5
107D6
  8
0
 10
891.8657419054094362
 20
53.473971274123457
 30
0.0
 40
0.0506472278117632
 50
317.6947050614390946
 51
4.320150746385945
  0
ARC
  5
107D7
  8
0
 10
891.8772775960984518
 20
53.4621962786972915
 30
0.0
 40
0.034203294341663
 50
234.2484713553157007
 51
319.2761970199259736
  0
ARC
  5
107D8
  8
0
 10
892.0179021311091674
 20
53.7085275960756334
 30
0.0
 40
0.3176791471896818
 50
225.7846462709331092
 51
239.630908556229997
  0
ARC
  5
107D9
  8
0
 10
891.4233445925034403
 20
52.6447545571058271
 30
0.0
 40
0.9155233798913558
 50
65.9558206659520181
 51
89.6668889337031345
  0
LINE
  5
107DA
  8
0
 10
890.7124335366503374
 20
53.764458568707127
 30
0.0
 11
893.6924582540573283
 21
53.764458568707127
 31
0.0
  0
ARC
  5
107DB
  8
0
 10
894.1919209739711505
 20
52.4482911667125506
 30
0.0
 40
1.674047072537552
 50
187.4623478471526994
 51
211.284708370118409
  0
ARC
  5
107DC
  8
0
 10
894.4744396924884313
 20
52.6199619815723878
 30
0.0
 40
2.0046339672978051
 50
211.284708370118409
 51
223.0541963367076903
  0
ARC
  5
107DD
  8
0
 10
894.483699042405874
 20
52.6286128542012506
 30
0.0
 40
2.0173057137494368
 50
223.0541963367076903
 51
237.4591660082446083
  0
ARC
  5
107DE
  8
0
 10
912.4319590483731872
 20
52.6687998974611205
 30
0.0
 40
20.1311946792174403
 50
179.9537463215623916
 51
180.9865510236166131
  0
ARC
  5
107DF
  8
0
 10
886.2434937236844235
 20
57.1317298217524723
 30
0.0
 40
0.351505872721925
 50
274.9584833674539937
 51
284.9625858610286855
  0
ARC
  5
107E0
  8
0
 10
886.256210721962475
 20
57.1370010862977296
 30
0.0
 40
0.3544222288969942
 50
277.3074736702890846
 51
278.454273958683018
  0
ARC
  5
107E1
  8
0
 10
-215922.5023915852943901
 20
56.7890839137495718
 30
0.0
 40
216808.803682684811065
 50
359.9999990416591231
 51
0.0000003824498433
  0
ARC
  5
107E2
  8
0
 10
886.2112581440020449
 20
57.1539100218646396
 30
0.0
 40
0.3743663481197507
 50
283.9157134515272105
 51
284.8574119628956964
  0
LINE
  5
107E3
  8
0
 10
886.2701453644627918
 20
56.7854853538716071
 30
0.0
 11
886.2701453644627918
 21
56.7921418860006995
 31
0.0
  0
ARC
  5
107E4
  8
0
 10
886.2741429231880375
 20
56.7855282789940006
 30
0.0
 40
0.0039977891800278
 50
180.6152089308168911
 51
266.167887881898821
  0
ARC
  5
107E5
  8
0
 10
886.2143942282788203
 20
57.1317298217524723
 30
0.0
 40
0.351505872721925
 50
255.0374141389712008
 51
265.0415166325458927
  0
ARC
  5
107E6
  8
0
 10
886.201677229999973
 20
57.1370010862977296
 30
0.0
 40
0.3544222288969942
 50
261.545726041316982
 51
262.6925263297109154
  0
ARC
  5
107E7
  8
0
 10
217694.9602795371902175
 20
56.7890839137495718
 30
0.0
 40
216808.803682684811065
 50
179.9999996175500883
 51
180.0000009583409053
  0
ARC
  5
107E8
  8
0
 10
886.2466298079613125
 20
57.1539100218646396
 30
0.0
 40
0.3743663481197507
 50
255.1425880371043888
 51
256.0842865484727895
  0
LINE
  5
107E9
  8
0
 10
886.1877425875005656
 20
56.7854853538716071
 30
0.0
 11
886.1877425875005656
 21
56.7921418860006995
 31
0.0
  0
ARC
  5
107EA
  8
0
 10
886.1837450287755473
 20
56.7855282789940006
 30
0.0
 40
0.0039977891800278
 50
273.832112118101179
 51
359.3847910691828815
  0
LINE
  5
107EB
  8
0
 10
892.3007709288991691
 20
52.6850513860006231
 30
0.0
 11
892.3004924439196657
 21
53.0350513860006885
 31
0.0
  0
LINE
  5
107EC
  8
0
 10
886.6819367335989455
 20
56.8391522769166997
 30
0.0
 11
885.7378815472188762
 21
56.8391522769166997
 31
0.0
  0
ENDSEC
  0
EOF
