  0
SECTION
  2
HEADER
  9
$ACADVER
  1
AC1009
  9
$INSBASE
 10
4345.8059431006749946
 20
180.7410838731983063
 30
0.0
  9
$EXTMIN
 10
4338.8415769565999653
 20
180.7355331602547039
 30
-0.0015258207003583
  9
$EXTMAX
 10
4352.7889869187183649
 20
190.3185410361112986
 30
0.0000000349246037
  9
$LIMMIN
 10
0.0
 20
0.0
  9
$LIMMAX
 10
11.6929133858000007
 20
8.2677165353999982
  9
$ORTHOMODE
 70
     0
  9
$REGENMODE
 70
     1
  9
$FILLMODE
 70
     1
  9
$QTEXTMODE
 70
     0
  9
$MIRRTEXT
 70
     0
  9
$DRAGMODE
 70
     2
  9
$LTSCALE
 40
0.6431102362
  9
$OSMODE
 70
  4095
  9
$ATTMODE
 70
     1
  9
$TEXTSIZE
 40
0.2
  9
$TRACEWID
 40
0.05
  9
$TEXTSTYLE
  7
STANDARD
  9
$CLAYER
  8
0
  9
$CELTYPE
  6
BYLAYER
  9
$CECOLOR
 62
   256
  9
$DIMSCALE
 40
1.0
  9
$DIMASZ
 40
0.1875
  9
$DIMEXO
 40
0.0625
  9
$DIMDLI
 40
0.4443307087
  9
$DIMRND
 40
0.0
  9
$DIMDLE
 40
0.0
  9
$DIMEXE
 40
0.125
  9
$DIMTP
 40
0.01
  9
$DIMTM
 40
0.01
  9
$DIMTXT
 40
2.0
  9
$DIMCEN
 40
0.1052362205
  9
$DIMTSZ
 40
0.0
  9
$DIMTOL
 70
     1
  9
$DIMLIM
 70
     0
  9
$DIMTIH
 70
     1
  9
$DIMTOH
 70
     1
  9
$DIMSE1
 70
     0
  9
$DIMSE2
 70
     0
  9
$DIMTAD
 70
     0
  9
$DIMZIN
 70
     0
  9
$DIMBLK
  1

  9
$DIMASO
 70
     1
  9
$DIMSHO
 70
     1
  9
$DIMPOST
  1
\X
  9
$DIMAPOST
  1

  9
$DIMALT
 70
     1
  9
$DIMALTD
 70
     2
  9
$DIMALTF
 40
25.3999999999999986
  9
$DIMLFAC
 40
1.0
  9
$DIMTOFL
 70
     0
  9
$DIMTVP
 40
0.0
  9
$DIMTIX
 70
     0
  9
$DIMSOXD
 70
     0
  9
$DIMSAH
 70
     0
  9
$DIMBLK1
  1

  9
$DIMBLK2
  1

  9
$DIMSTYLE
  2
STANDARD
  9
$DIMCLRD
 70
     0
  9
$DIMCLRE
 70
     0
  9
$DIMCLRT
 70
     0
  9
$DIMTFAC
 40
1.0
  9
$DIMGAP
 40
0.09
  9
$LUNITS
 70
     2
  9
$LUPREC
 70
     4
  9
$SKETCHINC
 40
0.1
  9
$FILLETRAD
 40
0.0
  9
$AUNITS
 70
     0
  9
$AUPREC
 70
     0
  9
$MENU
  1
.
  9
$ELEVATION
 40
0.0
  9
$PELEVATION
 40
0.0
  9
$THICKNESS
 40
0.0
  9
$LIMCHECK
 70
     0
  9
$BLIPMODE
 70
     0
  9
$CHAMFERA
 40
0.0
  9
$CHAMFERB
 40
0.0
  9
$SKPOLY
 70
     0
  9
$TDCREATE
 40
2458060.468368056230247
  9
$TDUPDATE
 40
2460167.6084837960079312
  9
$TDINDWG
 40
0.4236760417
  9
$TDUSRTIMER
 40
0.4236760417
  9
$USRTIMER
 70
     1
  9
$ANGBASE
 50
0.0
  9
$ANGDIR
 70
     0
  9
$PDMODE
 70
     0
  9
$PDSIZE
 40
0.3125
  9
$PLINEWID
 40
0.0
  9
$COORDS
 70
     1
  9
$SPLFRAME
 70
     0
  9
$SPLINETYPE
 70
     6
  9
$SPLINESEGS
 70
     8
  9
$ATTDIA
 70
     1
  9
$ATTREQ
 70
     1
  9
$HANDLING
 70
     1
  9
$HANDSEED
  5
AB36
  9
$SURFTAB1
 70
     6
  9
$SURFTAB2
 70
     6
  9
$SURFTYPE
 70
     6
  9
$SURFU
 70
     6
  9
$SURFV
 70
     6
  9
$UCSNAME
  2

  9
$UCSORG
 10
0.0
 20
0.0
 30
0.0
  9
$UCSXDIR
 10
1.0
 20
0.0
 30
0.0
  9
$UCSYDIR
 10
0.0
 20
1.0
 30
0.0
  9
$PUCSNAME
  2

  9
$PUCSORG
 10
0.0
 20
0.0
 30
0.0
  9
$PUCSXDIR
 10
1.0
 20
0.0
 30
0.0
  9
$PUCSYDIR
 10
0.0
 20
1.0
 30
0.0
  9
$USERI1
 70
     0
  9
$USERI2
 70
     0
  9
$USERI3
 70
     0
  9
$USERI4
 70
     0
  9
$USERI5
 70
     0
  9
$USERR1
 40
0.0
  9
$USERR2
 40
0.0
  9
$USERR3
 40
0.0
  9
$USERR4
 40
0.0
  9
$USERR5
 40
0.0
  9
$WORLDVIEW
 70
     1
  9
$SHADEDGE
 70
     3
  9
$SHADEDIF
 70
    70
  9
$TILEMODE
 70
     1
  9
$MAXACTVP
 70
    64
  9
$PLIMCHECK
 70
     0
  9
$PEXTMIN
 10
1.0000000000000000E+20
 20
1.0000000000000000E+20
 30
1.0000000000000000E+20
  9
$PEXTMAX
 10
-1.0000000000000000E+20
 20
-1.0000000000000000E+20
 30
-1.0000000000000000E+20
  9
$PLIMMIN
 10
0.0
 20
0.0
  9
$PLIMMAX
 10
12.0
 20
9.0
  9
$UNITMODE
 70
     0
  9
$VISRETAIN
 70
     1
  9
$PLINEGEN
 70
     0
  9
$PSLTSCALE
 70
     1
  0
ENDSEC
  0
SECTION
  2
TABLES
  0
TABLE
  2
VPORT
 70
     1
  0
VPORT
  2
*ACTIVE
 70
     0
 10
0.0
 20
0.0
 11
1.0
 21
1.0
 12
542.2712145548465514
 22
59.5317749014331028
 13
0.0
 23
0.0
 14
1.0
 24
1.0
 15
0.0
 25
0.0
 16
0.0
 26
0.0
 36
17.1152628219792007
 17
3803.5440673828129547
 27
125.9952621967499056
 37
0.0
 40
9.6515145121619152
 41
1.613013698630136
 42
50.0
 43
0.0
 44
0.0
 50
0.0
 51
0.0
 71
     0
 72
   100
 73
     1
 74
     1
 75
     0
 76
     0
 77
     0
 78
     0
  0
ENDTAB
  0
TABLE
  2
LTYPE
 70
     2
  0
LTYPE
  2
CONTINUOUS
 70
     0
  3
Solid line
 72
    65
 73
     0
 40
0.0
  0
LTYPE
  2
PHANTOM2
 70
     0
  3
___ _ _ ___ _ _ ___ _ _ ___ _ _
 72
    65
 73
     6
 40
1.25
 49
0.625
 49
-0.125
 49
0.125
 49
-0.125
 49
0.125
 49
-0.125
  0
ENDTAB
  0
TABLE
  2
LAYER
 70
     2
  0
LAYER
  2
0
 70
     0
 62
   255
  6
CONTINUOUS
  0
LAYER
  2
DEFPOINTS
 70
     0
 62
     7
  6
CONTINUOUS
  0
ENDTAB
  0
TABLE
  2
STYLE
 70
     1
  0
STYLE
  2
STANDARD
 70
     0
 40
0.0
 41
0.8
 50
0.0
 71
     0
 42
0.2
  3
txt
  4

  0
ENDTAB
  0
TABLE
  2
VIEW
 70
     0
  0
ENDTAB
  0
TABLE
  2
UCS
 70
     0
  0
ENDTAB
  0
TABLE
  2
APPID
 70
     9
  0
APPID
  2
ACAD
 70
     0
  0
APPID
  2
ACAD_MLEADERVER
 70
     0
  0
APPID
  2
ACAD_EXEMPT_FROM_CAD_STANDARDS
 70
     0
  0
APPID
  2
ACAD_NAV_VCDISPLAY
 70
     0
  0
APPID
  2
ACAECLAYERSTANDARD
 70
     0
  0
APPID
  2
ACCMTRANSPARENCY
 70
     0
  0
APPID
  2
ACAD_DSTYLE_DIMJAG
 70
     0
  0
APPID
  2
ACAD_DSTYLE_DIMTALN
 70
     0
  0
APPID
  2
ACDBATTR
 70
     0
  0
ENDTAB
  0
TABLE
  2
DIMSTYLE
 70
     1
  0
DIMSTYLE
  2
STANDARD
 70
     0
  3

  4

  5

  6

  7

 40
1.0
 41
0.1875
 42
0.0625
 43
0.38
 44
0.125
 45
0.0
 46
0.0
 47
0.01
 48
0.01
140
0.15625
141
0.09
142
0.0
143
25.3999999999999986
144
1.0
145
0.0
146
1.0
147
0.09
 71
     1
 72
     0
 73
     1
 74
     1
 75
     0
 76
     0
 77
     0
 78
     4
170
     0
171
     2
172
     0
173
     0
174
     0
175
     0
176
     0
177
     0
178
     0
  0
ENDTAB
  0
ENDSEC
  0
SECTION
  2
BLOCKS
  0
BLOCK
  8
0
  2
$MODEL_SPACE
 70
     0
 10
0.0
 20
0.0
 30
0.0
  3
$MODEL_SPACE
  1

  0
ENDBLK
  5
21
  8
0
  0
BLOCK
 67
     1
  8
0
  2
$PAPER_SPACE
 70
     0
 10
0.0
 20
0.0
 30
0.0
  3
$PAPER_SPACE
  1

  0
ENDBLK
  5
1D
 67
     1
  8
0
  0
ENDSEC
  0
SECTION
  2
ENTITIES
  0
ATTDEF
  5
3930
  8
DEFPOINTS
 10
4345.8027432282888185
 20
180.7451285271770018
 30
0.0
 40
0.001
  1
K-EX27100T-4
  3

  2
MODELNUMBER
 70
     0
1001
ACDBATTR
1070
     0
1070
     1
  0
ATTDEF
  5
3931
  8
DEFPOINTS
 10
4345.8027432282888185
 20
180.7434618605103935
 30
0.0
 40
0.001
  1
OCCASION
  3

  2
TRADENAME
 70
     0
1001
ACDBATTR
1070
     0
1070
     1
  0
ATTDEF
  5
3932
  8
DEFPOINTS
 10
4345.8027432282888185
 20
180.7417951938437
 30
0.0
 40
0.001
  1
BATHROOM SINK FAUCET
  3

  2
PRODUCT
 70
     0
1001
ACDBATTR
1070
     0
1070
     1
  0
LINE
  5
A849
  8
0
 10
4344.7511701555704349
 20
180.7410838731983063
 30
0.0
 11
4346.8607160457777354
 21
180.7410838731983063
 31
0.0
  0
LINE
  5
A84A
  8
0
 10
4344.6533778196280764
 20
180.9090849151315012
 30
0.0
 11
4344.7149387198378463
 21
180.765003464136413
 31
0.0
  0
LINE
  5
A84B
  8
0
 10
4345.323450499730825
 20
182.6157661683845106
 30
0.0
 11
4345.323450499730825
 21
189.9512538671837092
 31
0.0
  0
LINE
  5
A84C
  8
0
 10
4345.3987740298989593
 20
186.8210043731982921
 30
0.0
 11
4346.21311217145103
 21
186.8210043731982921
 31
0.0
  0
LINE
  5
A84D
  8
0
 10
4345.3709138342201186
 20
186.8325445545206094
 30
0.0
 11
4345.3349903040516438
 21
186.8684685708078916
 31
0.0
  0
ARC
  5
A84E
  8
0
 10
4343.6685963098098
 20
182.3288787415872036
 30
0.0
 40
1.6968498694760761
 50
306.0192094109480081
 51
318.4328291575554886
  0
ARC
  5
A84F
  8
0
 10
4343.8913409875858633
 20
182.1313448781002933
 30
0.0
 40
1.3991338660401029
 50
318.4328291575554886
 51
339.0097774282589853
  0
ARC
  5
A850
  8
0
 10
4343.6144045973405809
 20
182.2375965794817887
 30
0.0
 40
1.695753468037384
 50
339.0097774282589853
 51
357.3613583071655171
  0
ARC
  5
A851
  8
0
 10
4327.7548809165600687
 20
182.9684917768634875
 30
0.0
 40
17.572110076869091
 50
357.3613583071655171
 51
358.8498224731918071
  0
ARC
  5
A852
  8
0
 10
4344.689609255360665
 20
180.9245653241933951
 30
0.0
 40
0.0394
 50
126.0192094109479939
 51
203.1353023700388007
  0
ARC
  5
A853
  8
0
 10
4344.7511701555704349
 20
180.7804838731983068
 30
0.0
 40
0.0394
 50
203.1353023700388007
 51
270.0
  0
ARC
  5
A854
  8
0
 10
4345.3987740298989593
 20
186.8604043731982927
 30
0.0
 40
0.0394
 50
224.9996123376203059
 51
270.0
  0
ARC
  5
A855
  8
0
 10
4345.3628504997313939
 20
186.8963283894856033
 30
0.0
 40
0.0394
 50
179.9999999999917861
 51
224.9996123376583057
  0
ARC
  5
A856
  8
0
 10
4346.0459965988766271
 20
189.4772186452399012
 30
0.0
 40
0.8709034482320406
 50
106.7717264039896037
 51
145.2432111023269954
  0
ARC
  5
A857
  8
0
 10
4345.3628504997313939
 20
189.9512538671835955
 30
0.0
 40
0.0394
 50
145.2432111023688037
 51
179.9999999999901945
  0
LINE
  5
A858
  8
0
 10
4345.5017099551250794
 20
182.6157661683845106
 30
0.0
 11
4345.5017099551250794
 21
186.8210043731982921
 31
0.0
  0
ARC
  5
A859
  8
0
 10
4327.9331403719515947
 20
182.9684917768634875
 30
0.0
 40
17.572110076869091
 50
357.3613583071655171
 51
358.8498224731918071
  0
ARC
  5
A85A
  8
0
 10
4343.3323943502191469
 20
182.1473099306230949
 30
0.0
 40
2.1542599033737551
 50
348.971205348958506
 51
0.3250041230507733
  0
ARC
  5
A85B
  8
0
 10
4343.4044282026388828
 20
182.1332703951846952
 30
0.0
 40
2.0808706367897161
 50
335.4488981181294207
 51
348.971205348958506
  0
ARC
  5
A85C
  8
0
 10
4344.1269885140836777
 20
181.8032020814079885
 30
0.0
 40
1.286491322208738
 50
318.7041856673989741
 51
335.4488981181279996
  0
LINE
  5
A85D
  8
0
 10
4345.1240534060489153
 20
180.7704249635744986
 30
0.0
 11
4345.0850527005886761
 21
180.9181254582994995
 31
0.0
  0
ARC
  5
A85E
  8
0
 10
4345.1621477407616112
 20
180.7804838731983068
 30
0.0
 40
0.0394
 50
194.7914970801477068
 51
270.0
  0
ARC
  5
A85F
  8
0
 10
4345.1231470353022814
 20
180.9281843679233077
 30
0.0
 40
0.0394
 50
138.7041856673990878
 51
194.7914970801523964
  0
ARC
  5
A860
  8
0
 10
4345.8064754607848954
 20
190.2700747061030881
 30
0.0
 40
0.0426613249307359
 50
90.714998401975464
 51
106.0379297661662008
  0
LINE
  5
A861
  8
0
 10
4346.9585083817219129
 20
180.9090849151315012
 30
0.0
 11
4346.8969474815112335
 21
180.765003464136413
 31
0.0
  0
LINE
  5
A862
  8
0
 10
4346.2884357016191643
 20
182.6157258920119943
 30
0.0
 11
4346.2884357016191643
 21
189.9512538671837092
 31
0.0
  0
LINE
  5
A863
  8
0
 10
4346.2409723671289612
 20
186.8325445545206094
 30
0.0
 11
4346.276895897297436
 21
186.8684685708078916
 31
0.0
  0
ARC
  5
A864
  8
0
 10
4347.9432898915401893
 20
182.3288787415872036
 30
0.0
 40
1.6968498694760761
 50
221.5671708424445114
 51
233.9807905890519919
  0
ARC
  5
A865
  8
0
 10
4347.7205452137632165
 20
182.1313448781002933
 30
0.0
 40
1.3991338660401029
 50
200.990222571740901
 51
221.5671708424445114
  0
ARC
  5
A866
  8
0
 10
4347.9974816040103178
 20
182.2375965794817887
 30
0.0
 40
1.695753468037384
 50
182.6386416928343976
 51
200.990222571740901
  0
ARC
  5
A867
  8
0
 10
4363.8570044859416157
 20
182.9684912872754126
 30
0.0
 40
17.572110076869091
 50
181.1503072821004992
 51
182.6386416928343976
  0
ARC
  5
A868
  8
0
 10
4346.9222769459884148
 20
180.9245653241933951
 30
0.0
 40
0.0394
 50
336.8646976299610856
 51
53.9807905890519635
  0
ARC
  5
A869
  8
0
 10
4346.8607160457777354
 20
180.7804838731983068
 30
0.0
 40
0.0394
 50
270.0
 51
336.8646976299610856
  0
ARC
  5
A86A
  8
0
 10
4346.21311217145103
 20
186.8604043731982927
 30
0.0
 40
0.0394
 50
270.0
 51
315.0003876623796941
  0
ARC
  5
A86B
  8
0
 10
4346.2490357016176858
 20
186.8963283894856033
 30
0.0
 40
0.0394
 50
315.0003876623417227
 51
0.0000000000081422
  0
ARC
  5
A86C
  8
0
 10
4345.5658896024724527
 20
189.4772186452399012
 30
0.0
 40
0.8709034482320406
 50
34.7567888976729122
 51
73.2282735960104105
  0
ARC
  5
A86D
  8
0
 10
4346.2490357016176858
 20
189.9512538671835955
 30
0.0
 40
0.0394
 50
0.0000000000097707
 51
34.7567888976311608
  0
LINE
  5
A86E
  8
0
 10
4346.1101762462249098
 20
182.6157661683845106
 30
0.0
 11
4346.1101762462249098
 21
186.8210043731982921
 31
0.0
  0
ARC
  5
A86F
  8
0
 10
4363.6787458293956661
 20
182.9684917768634875
 30
0.0
 40
17.572110076869091
 50
181.1501775268081929
 51
182.6386416928343976
  0
ARC
  5
A870
  8
0
 10
4348.2794918511308424
 20
182.1473099306230949
 30
0.0
 40
2.1542599033737551
 50
179.6749958769491968
 51
191.028794651041494
  0
ARC
  5
A871
  8
0
 10
4348.2074579987111065
 20
182.1332703951846952
 30
0.0
 40
2.0808706367897161
 50
191.028794651041494
 51
204.5511018818706077
  0
ARC
  5
A872
  8
0
 10
4347.4848976872663116
 20
181.8032020814079885
 30
0.0
 40
1.286491322208738
 50
204.5511018818706077
 51
221.2958143326009122
  0
LINE
  5
A873
  8
0
 10
4346.4878327953001644
 20
180.7704249635744986
 30
0.0
 11
4346.5268335007604037
 21
180.9181254582994995
 31
0.0
  0
ARC
  5
A874
  8
0
 10
4346.4497384605865591
 20
180.7804838731983068
 30
0.0
 40
0.0394
 50
270.0
 51
345.2085029198506732
  0
ARC
  5
A875
  8
0
 10
4346.4887391660467983
 20
180.9281843679233077
 30
0.0
 40
0.0394
 50
345.2085029198474899
 51
41.2958143326009193
  0
ARC
  5
A876
  8
0
 10
4345.8050133838150941
 20
190.2673761413894908
 30
0.0
 40
0.0453660955662005
 50
74.4213536599417154
 51
88.8257181719362734
  0
LINE
  5
A877
  8
0
 10
4346.463210051659189
 20
182.5436485408023088
 30
0.0
 11
4346.4083916964436867
 21
182.169592857896987
 31
0.0
  0
ARC
  5
A878
  8
0
 10
4346.3785209498182667
 20
182.17574869900659
 30
0.0
 40
0.0304984570716012
 50
292.7822117710200018
 51
348.3553597098263026
  0
ARC
  5
A879
  8
0
 10
4346.3538308523829983
 20
182.236704261801691
 30
0.0
 40
0.0962628701838857
 50
276.4554744927036154
 51
292.2822819915214723
  0
ARC
  5
A87A
  8
0
 10
4346.331284378548844
 20
182.4359687610094056
 30
0.0
 40
0.296798862282264
 50
270.7909939839357776
 51
276.4554744927036154
  0
ARC
  5
A87B
  8
0
 10
4346.3332650107822701
 20
182.3438815520370895
 30
0.0
 40
0.2040242739483963
 50
270.6220560302576814
 51
278.7242085741837059
  0
ARC
  5
A87C
  8
0
 10
4346.3545283533148904
 20
182.205316572852297
 30
0.0
 40
0.0638373159525376
 50
278.7242085741837059
 51
292.8588189541284237
  0
ARC
  5
A87D
  8
0
 10
4346.3739910457752558
 20
182.159149384332693
 30
0.0
 40
0.0137353629610775
 50
292.8588189541284237
 51
320.5736651136185742
  0
ARC
  5
A87E
  8
0
 10
4346.3802178214173182
 20
182.15402985828959
 30
0.0
 40
0.0056742041224666
 50
320.5736651136160731
 51
37.942756195034093
  0
ARC
  5
A87F
  8
0
 10
4346.3549134912991576
 20
182.1343006304487062
 30
0.0
 40
0.0377608299023498
 50
37.942756195034093
 51
68.1738290665581985
  0
ARC
  5
A880
  8
0
 10
4346.2718876345479657
 20
181.9646878125485046
 30
0.0
 40
0.2265173731255575
 50
64.6269428847830198
 51
82.3136568953305243
  0
ARC
  5
A881
  8
0
 10
4346.2991263800131492
 20
182.080757331297491
 30
0.0
 40
0.1004583355409497
 50
57.7643718719622683
 51
88.0516288678065564
  0
ARC
  5
A882
  8
0
 10
4346.34400986745095
 20
182.1519329079123111
 30
0.0
 40
0.0163126871026325
 50
27.4550812590952518
 51
57.7643718719614014
  0
ARC
  5
A883
  8
0
 10
4346.3548236627630104
 20
182.1575514426390043
 30
0.0
 40
0.00412637914993
 50
306.4094493811555253
 51
27.4550812591236202
  0
ARC
  5
A884
  8
0
 10
4346.3398206360598124
 20
182.1778940281261896
 30
0.0
 40
0.029403079776359
 50
278.1197815663807091
 51
306.4094493811555253
  0
ARC
  5
A885
  8
0
 10
4346.3163208076266528
 20
182.342604747609613
 30
0.0
 40
0.1957817534371905
 50
275.9613661718378808
 51
278.1197815663807091
  0
LINE
  5
A886
  8
0
 10
4346.4165138798662156
 20
182.6161573056076861
 30
0.0
 11
4346.4572982129720913
 21
182.5635859892080077
 31
0.0
  0
ARC
  5
A887
  8
0
 10
4346.3824706708983285
 20
182.5838190178523917
 30
0.0
 40
0.046954285553966
 50
43.5287568977239872
 51
60.0301055068834515
  0
ARC
  5
A888
  8
0
 10
4346.3496844535447963
 20
182.526962652046592
 30
0.0
 40
0.1125864604443437
 50
60.0301055068834515
 51
73.5978542682799599
  0
ARC
  5
A889
  8
0
 10
4346.2465665289855679
 20
182.1766464383871948
 30
0.0
 40
0.4777641650186212
 50
73.5978542682799599
 51
84.9723977864327367
  0
ARC
  5
A88A
  8
0
 10
4346.4458112883958165
 20
182.5398704823668083
 30
0.0
 40
0.0176753280756556
 50
11.1085577095406407
 51
61.2471359141038008
  0
ARC
  5
A88B
  8
0
 10
4346.3685511645426232
 20
182.417549223694607
 30
0.0
 40
0.1623231684984425
 50
58.1063410777828295
 51
73.5331171281143838
  0
ARC
  5
A88C
  8
0
 10
4346.2261142110273795
 20
181.9717919918024052
 30
0.0
 40
0.6302556295502868
 50
72.6021802871964468
 51
84.2935992303651886
  0
ARC
  5
A88D
  8
0
 10
4346.4356106658406134
 20
182.5463100010298945
 30
0.0
 40
0.0277274136575062
 50
354.4918925220388246
 51
38.5403230985132765
  0
LINE
  5
A88E
  8
0
 10
4344.6664398309821991
 20
180.9564328276086087
 30
0.0
 11
4346.9454463703677902
 21
180.9564328276086087
 31
0.0
  0
LINE
  5
A890
  8
0
 10
4345.8059431006749946
 20
186.8210043731982921
 30
0.0
 11
4345.8059431006749946
 21
190.3127327093095005
 31
0.0
  0
LINE
  5
A891
  8
0
 10
4346.3167723457672764
 20
182.0122164259178135
 30
0.0
 11
4346.3402493773355673
 21
182.1724130800037074
 31
0.0
  0
ARC
  5
A892
  8
0
 10
4345.8059422813248602
 20
187.2806500424983085
 30
0.0
 40
0.4702481270999773
 50
257.8101952614049992
 51
282.1898047385948871
  0
ARC
  5
A893
  8
0
 10
4345.8059422813248602
 20
187.280650042497399
 30
0.0
 40
0.4668473733990761
 50
259.9230828634870818
 51
267.302388716365499
  0
ARC
  5
A894
  8
0
 10
4345.8059422813248602
 20
187.2806500425004117
 30
0.0
 40
0.4651979287020775
 50
268.1403826291198129
 51
271.8597538312183133
  0
ARC
  5
A895
  8
0
 10
4345.7766462224599309
 20
186.9462361545703004
 30
0.0
 40
0.1378810574927525
 50
288.7819385101930152
 51
294.7340743255289794
  0
ARC
  5
A896
  8
0
 10
4345.835324136233794
 20
186.9464636649009037
 30
0.0
 40
0.1381237542749204
 50
245.2729445002350133
 51
251.2151923757513998
  0
ARC
  5
A897
  8
0
 10
4345.8340035958335648
 20
186.9473649945564091
 30
0.0
 40
0.1392162033964071
 50
245.183606808616986
 51
251.1940416138230034
  0
ARC
  5
A898
  8
0
 10
4345.7780866128014168
 20
186.9468604568625096
 30
0.0
 40
0.1386718615661859
 50
288.7924768693478086
 51
294.8266900469242842
  0
ARC
  5
A899
  8
0
 10
4345.8548223396346657
 20
186.9355504504154908
 30
0.0
 40
0.1241803568197252
 50
255.0365200110464059
 51
257.4863255682682279
  0
ARC
  5
A89A
  8
0
 10
4345.7569082293266547
 20
186.9361450636909865
 30
0.0
 40
0.1247946055924334
 50
282.5242080264537776
 51
284.9609488540510824
  0
ARC
  5
A89B
  8
0
 10
4345.8059422813248602
 20
187.2806500424991043
 30
0.0
 40
0.4668473734007897
 50
272.6977949297328223
 51
280.0769171365121792
  0
LINE
  5
A89C
  8
0
 10
4346.276895897297436
 20
186.8684685708078916
 30
0.0
 11
4345.3349903040516438
 21
186.8684685708078916
 31
0.0
  0
LINE
  5
A89D
  8
0
 10
4340.716544765566141
 20
180.9090833583871927
 30
0.0
 11
4340.7781050006342412
 21
180.765003464136413
 31
0.0
  0
ARC
  5
A89E
  8
0
 10
4339.537880717558437
 20
182.7028631039001141
 30
0.0
 40
2.114293061049477
 50
304.3087539972034961
 51
314.64986452760661
  0
ARC
  5
A89F
  8
0
 10
4339.6072149747942603
 20
182.6107908162072135
 30
0.0
 40
2.000124412884531
 50
315.0904591602812275
 51
330.0925219649705014
  0
ARC
  5
A8A0
  8
0
 10
4340.7527762012978201
 20
180.9245637674490865
 30
0.0
 40
0.0394
 50
126.0192094109490029
 51
203.1353023700388007
  0
ARC
  5
A8A1
  8
0
 10
4338.8619880467522307
 20
182.647424301481891
 30
0.0
 40
2.8729237541933101
 50
331.226921947269318
 51
341.0592030720071079
  0
ARC
  5
A8A2
  8
0
 10
4339.8223300452027615
 20
182.1506500264501085
 30
0.0
 40
1.79223468814417
 50
318.1192116482459937
 51
330.3696825174209835
  0
LINE
  5
A8A3
  8
0
 10
4341.1872199409253881
 20
180.7704249635744986
 30
0.0
 11
4341.1482196465276502
 21
180.9181239015553047
 31
0.0
  0
ARC
  5
A8A4
  8
0
 10
4341.1863139812394365
 20
180.9281828111791128
 30
0.0
 40
0.0394
 50
138.7041856673990878
 51
194.79149708015089
  0
LINE
  5
A8A5
  8
0
 10
4340.7296067769193542
 20
180.9564312708644138
 30
0.0
 11
4343.0082572197534319
 21
180.9564312708644138
 31
0.0
  0
ARC
  5
A8A6
  8
0
 10
4340.0106670537379614
 20
182.3776803484151117
 30
0.0
 40
1.5341705523844049
 50
330.1263569701147276
 51
355.5908445564452904
  0
LINE
  5
A8A7
  8
0
 10
4341.5539317761003986
 20
182.4905709714442139
 30
0.0
 11
4341.5539317761003986
 21
183.0442123164540931
 31
0.0
  0
LINE
  5
A8A8
  8
0
 10
4341.5539317761003986
 20
183.1032973557539947
 30
0.0
 11
4341.5539317761003986
 21
183.4729128336539929
 31
0.0
  0
ARC
  5
A8A9
  8
0
 10
4334.1774077875452349
 20
182.8104547585446937
 30
0.0
 40
7.3834566289079948
 50
355.7224370536782203
 51
357.5169178446585079
  0
ARC
  5
A8AA
  8
0
 10
4338.8293344265266569
 20
182.4666361661537906
 30
0.0
 40
2.850916752418204
 50
344.7113151150127237
 51
356.0374816226234884
  0
ARC
  5
A8AB
  8
0
 10
4336.9074625588827985
 20
182.5997632030399984
 30
0.0
 40
4.777393921655074
 50
356.0374816226234884
 51
1.369132420552241
  0
LINE
  5
A8AC
  8
0
 10
4341.5736317760993188
 20
183.0639123164540933
 30
0.0
 11
4342.1642322205725577
 21
183.0639123164540933
 31
0.0
  0
LINE
  5
A8AD
  8
0
 10
4341.5736317760993188
 20
183.0835973557539944
 30
0.0
 11
4342.1642322205725577
 21
183.0835973557539944
 31
0.0
  0
ARC
  5
A8AE
  8
0
 10
4341.5736317760993188
 20
183.0442123164540931
 30
0.0
 40
0.0197
 50
90.0
 51
180.0000000000098055
  0
ARC
  5
A8AF
  8
0
 10
4341.5736317760993188
 20
183.1032973557539947
 30
0.0
 40
0.0197
 50
179.9999999999951115
 51
270.0
  0
LINE
  5
A8B0
  8
0
 10
4341.5933412249978574
 20
183.0835973557539944
 30
0.0
 11
4341.5933412249978574
 21
183.0639123164540933
 31
0.0
  0
LINE
  5
A8B1
  8
0
 10
4343.0213192311057355
 20
180.9090833583871927
 30
0.0
 11
4342.9597589960376354
 21
180.765003464136413
 31
0.0
  0
ARC
  5
A8B2
  8
0
 10
4344.1999832791152585
 20
182.7028631039001141
 30
0.0
 40
2.114293061049477
 50
225.35013547239339
 51
235.6912460027965039
  0
ARC
  5
A8B3
  8
0
 10
4344.1306490218776162
 20
182.6107908162072135
 30
0.0
 40
2.000124412884531
 50
209.9074780350294986
 51
224.909540839718801
  0
ARC
  5
A8B4
  8
0
 10
4342.9850877953740564
 20
180.9245637674490865
 30
0.0
 40
0.0394
 50
336.8646976299610856
 51
53.9807905890510114
  0
ARC
  5
A8B5
  8
0
 10
4344.8758759499205553
 20
182.647424301481891
 30
0.0
 40
2.8729237541933101
 50
198.9407969279928068
 51
208.7730780527307957
  0
ARC
  5
A8B6
  8
0
 10
4343.915533951469115
 20
182.1506500264501085
 30
0.0
 40
1.79223468814417
 50
209.6303174825789881
 51
221.8807883517528126
  0
LINE
  5
A8B7
  8
0
 10
4342.5506440557473979
 20
180.7704249635744986
 30
0.0
 11
4342.5896443501451358
 21
180.9181239015553047
 31
0.0
  0
ARC
  5
A8B8
  8
0
 10
4342.5515500154333495
 20
180.9281828111791128
 30
0.0
 40
0.0394
 50
345.2085029198474899
 51
41.2958143326009193
  0
ARC
  5
A8B9
  8
0
 10
4343.7271969429339151
 20
182.3776803484151117
 30
0.0
 40
1.5341705523844049
 50
184.4091554435530043
 51
209.8736430298853008
  0
LINE
  5
A8BA
  8
0
 10
4342.1839322205732969
 20
182.4905709714442139
 30
0.0
 11
4342.1839322205732969
 21
183.0442123164540931
 31
0.0
  0
LINE
  5
A8BB
  8
0
 10
4342.1839322205732969
 20
183.1032973557539947
 30
0.0
 11
4342.1839322205732969
 21
183.4570327995517971
 31
0.0
  0
ARC
  5
A8BC
  8
0
 10
4349.5604562091275511
 20
182.8104547585446937
 30
0.0
 40
7.3834566289079948
 50
182.4830821553414921
 51
184.2775629463218081
  0
ARC
  5
A8BD
  8
0
 10
4344.9085295701452196
 20
182.4666361661537906
 30
0.0
 40
2.850916752418204
 50
183.9625183773763979
 51
195.2886848849873047
  0
ARC
  5
A8BE
  8
0
 10
4346.830401437789078
 20
182.5997632030399984
 30
0.0
 40
4.777393921655074
 50
178.6308675794460896
 51
183.9625183773763979
  0
ARC
  5
A8BF
  8
0
 10
4342.1642322205725577
 20
183.0442123164540931
 30
0.0
 40
0.0197
 50
359.9999999999902229
 51
90.0
  0
ARC
  5
A8C0
  8
0
 10
4342.1642322205725577
 20
183.1032973557539947
 30
0.0
 40
0.0197
 50
270.0
 51
0.0000000000048853
  0
LINE
  5
A8C1
  8
0
 10
4342.1445227716740192
 20
183.0835973557539944
 30
0.0
 11
4342.1445227716740192
 21
183.0639123164540933
 31
0.0
  0
LINE
  5
A8C2
  8
0
 10
4341.353931776097852
 20
183.6729128336540953
 30
0.0
 11
4339.0310626187938396
 21
183.6729128336540953
 31
0.0
  0
LINE
  5
A8C3
  8
0
 10
4338.9557419410357397
 20
183.7482334908162045
 30
0.0
 11
4338.9557419410357397
 21
184.2033438985673968
 31
0.0
  0
LINE
  5
A8C4
  8
0
 10
4339.0032026196031438
 20
183.6844528184882961
 30
0.0
 11
4338.9672819418447034
 21
183.7203734756504048
 31
0.0
  0
LINE
  5
A8C5
  8
0
 10
4341.3583322205740842
 20
184.2826327995518056
 30
0.0
 11
4339.0319051787100761
 21
184.2826327995518056
 31
0.0
  0
LINE
  5
A8C6
  8
0
 10
4339.0029331941641431
 20
184.2699345618815983
 30
0.0
 11
4338.9661699564912851
 21
184.2300456608973036
 31
0.0
  0
LINE
  5
A8C7
  8
0
 10
4341.3972360362913605
 20
184.0728701310023894
 30
0.0
 11
4339.0192127366599379
 21
184.0728701310023894
 31
0.0
  0
LINE
  5
A8C8
  8
0
 10
4338.9825477489403056
 20
184.0626828026186956
 30
0.0
 11
4339.0066185445639348
 21
184.0708030430971007
 31
0.0
  0
LINE
  5
A8C9
  8
0
 10
4341.4184065988947623
 20
183.693824348552198
 30
0.0
 11
4339.0294616349701755
 21
183.693824348552198
 31
0.0
  0
LINE
  5
A8CA
  8
0
 10
4339.0034159212027589
 20
183.7036611823766918
 30
0.0
 11
4338.9690962272688921
 21
183.733897487903107
 31
0.0
  0
ARC
  5
A8CB
  8
0
 10
4341.3583322205740842
 20
183.4570327995517971
 30
0.0
 40
0.8256
 50
0.0
 51
90.0
  0
ARC
  5
A8CC
  8
0
 10
4341.353931776097852
 20
183.4729128336539929
 30
0.0
 40
0.2
 50
0.0
 51
90.0
  0
LINE
  5
A8CD
  8
0
 10
4341.6184065988963994
 20
183.4938243485522094
 30
0.0
 11
4341.6184065988963994
 21
183.0835973557539944
 31
0.0
  0
ARC
  5
A8CE
  8
0
 10
4341.4184065988947623
 20
183.4938243485522094
 30
0.0
 40
0.2
 50
0.0
 51
90.0
  0
LINE
  5
A8CF
  8
0
 10
4341.9655080290222031
 20
183.5102121410135112
 30
0.0
 11
4341.9697436150099747
 21
183.0835973557539944
 31
0.0
  0
ARC
  5
A8D0
  8
0
 10
4341.3972360362913605
 20
183.5045701310023958
 30
0.0
 40
0.5683
 50
0.5688345453523713
 51
90.0
  0
ARC
  5
A8D1
  8
0
 10
4339.0310626187938396
 20
183.7123128336540958
 30
0.0
 40
0.0394
 50
225.0000164258599114
 51
270.0
  0
ARC
  5
A8D2
  8
0
 10
4339.0294616349701755
 20
183.7332243485521985
 30
0.0
 40
0.0394
 50
228.6193327518030003
 51
270.0
  0
ARC
  5
A8D3
  8
0
 10
4338.9951419410363087
 20
183.7634606540786137
 30
0.0
 40
0.0394
 50
180.0000000000081002
 51
228.6193327518008118
  0
ARC
  5
A8D4
  8
0
 10
4338.9951419410363087
 20
184.0253498905240974
 30
0.0
 40
0.0394
 50
108.6417322162055967
 51
180.0
  0
ARC
  5
A8D5
  8
0
 10
4339.0192127366599379
 20
184.0334701310023888
 30
0.0
 40
0.0394
 50
90.0
 51
108.6417322162055967
  0
ARC
  5
A8D6
  8
0
 10
4339.0319051787100761
 20
184.2432327995518051
 30
0.0
 40
0.0394
 50
90.0
 51
137.3350705773790139
  0
ARC
  5
A8D7
  8
0
 10
4338.9951419410363087
 20
184.2033438985673968
 30
0.0
 40
0.0394
 50
137.3350705773802076
 51
180.0000000000048885
  0
ARC
  5
A8D8
  8
0
 10
4338.9951419410363087
 20
183.7482334908162045
 30
0.0
 40
0.0394
 50
179.9999999999967031
 51
225.0000164258632935
  0
LINE
  5
A8D9
  8
0
 10
4342.9235275603041373
 20
180.7410838731983063
 30
0.0
 11
4340.8143364363677392
 21
180.7410838731983063
 31
0.0
  0
ARC
  5
A8DA
  8
0
 10
4340.8143364363677392
 20
180.7804838731983068
 30
0.0
 40
0.0394
 50
203.1353023700374081
 51
270.0
  0
ARC
  5
A8DB
  8
0
 10
4342.9235275603041373
 20
180.7804838731983068
 30
0.0
 40
0.0394
 50
270.0
 51
336.8646976299610856
  0
ARC
  5
A8DC
  8
0
 10
4342.5125497210347021
 20
180.7804838731983068
 30
0.0
 40
0.0394
 50
270.0
 51
345.2085029198474899
  0
ARC
  5
A8DD
  8
0
 10
4341.2253142756380839
 20
180.7804838731983068
 30
0.0
 40
0.0394
 50
194.7914970801523964
 51
270.0
  0
LINE
  5
A8DE
  8
0
 10
4350.8953414357838483
 20
180.9090833583871927
 30
0.0
 11
4350.8337812007148386
 21
180.765003464136413
 31
0.0
  0
ARC
  5
A8DF
  8
0
 10
4352.0740054837915523
 20
182.7028631039001141
 30
0.0
 40
2.114293061049477
 50
225.35013547239339
 51
235.6912460027965039
  0
ARC
  5
A8E0
  8
0
 10
4352.0046712265557289
 20
182.6107908162072135
 30
0.0
 40
2.000124412884531
 50
209.9074780350294986
 51
224.909540839718801
  0
ARC
  5
A8E1
  8
0
 10
4350.8591100000512597
 20
180.9245637674490865
 30
0.0
 40
0.0394
 50
336.8646976299610856
 51
53.9807905890510114
  0
ARC
  5
A8E2
  8
0
 10
4352.7498981545977585
 20
182.647424301481891
 30
0.0
 40
2.8729237541933101
 50
198.9407969279928068
 51
208.7730780527307957
  0
ARC
  5
A8E3
  8
0
 10
4351.7895561561472277
 20
182.1506500264501085
 30
0.0
 40
1.79223468814417
 50
209.6303174825789881
 51
221.8807883517528126
  0
LINE
  5
A8E4
  8
0
 10
4350.4246662604236917
 20
180.7704249635744986
 30
0.0
 11
4350.4636665548223391
 21
180.9181239015553047
 31
0.0
  0
ARC
  5
A8E5
  8
0
 10
4350.4255722201087337
 20
180.9281828111791128
 30
0.0
 40
0.0394
 50
345.2085029198490815
 51
41.2958143326009193
  0
LINE
  5
A8E6
  8
0
 10
4350.8822794244306351
 20
180.9564312708644138
 30
0.0
 11
4348.6036289815956479
 21
180.9564312708644138
 31
0.0
  0
ARC
  5
A8E7
  8
0
 10
4351.6012191476111184
 20
182.3776803484151117
 30
0.0
 40
1.5341705523844049
 50
184.4091554435545959
 51
209.8736430298853008
  0
LINE
  5
A8E8
  8
0
 10
4350.0579544252495907
 20
182.4905709714442139
 30
0.0
 11
4350.0579544252495907
 21
183.0442123164540931
 31
0.0
  0
LINE
  5
A8E9
  8
0
 10
4350.0579544252495907
 20
183.1032973557539947
 30
0.0
 11
4350.0579544252495907
 21
183.4729128336539929
 31
0.0
  0
ARC
  5
A8EA
  8
0
 10
4357.4344784138047544
 20
182.8104547585446937
 30
0.0
 40
7.3834566289079948
 50
182.4830821553414921
 51
184.2775629463218081
  0
ARC
  5
A8EB
  8
0
 10
4352.7825517748224229
 20
182.4666361661537906
 30
0.0
 40
2.850916752418204
 50
183.9625183773763979
 51
195.2886848849873047
  0
ARC
  5
A8EC
  8
0
 10
4354.7044236424653718
 20
182.5997632030399984
 30
0.0
 40
4.777393921655074
 50
178.6308675794460896
 51
183.9625183773763979
  0
LINE
  5
A8ED
  8
0
 10
4350.0382544252506705
 20
183.0639123164540933
 30
0.0
 11
4349.4476539807747031
 21
183.0639123164540933
 31
0.0
  0
LINE
  5
A8EE
  8
0
 10
4350.0382544252506705
 20
183.0835973557539944
 30
0.0
 11
4349.4476539807747031
 21
183.0835973557539944
 31
0.0
  0
ARC
  5
A8EF
  8
0
 10
4350.0382544252506705
 20
183.0442123164540931
 30
0.0
 40
0.0197
 50
359.9999999999902229
 51
90.0
  0
ARC
  5
A8F0
  8
0
 10
4350.0382544252506705
 20
183.1032973557539947
 30
0.0
 40
0.0197
 50
270.0
 51
0.0000000000048853
  0
LINE
  5
A8F1
  8
0
 10
4350.0185449763512224
 20
183.0835973557539944
 30
0.0
 11
4350.0185449763512224
 21
183.0639123164540933
 31
0.0
  0
LINE
  5
A8F2
  8
0
 10
4348.5905669702433443
 20
180.9090833583871927
 30
0.0
 11
4348.6521272053114444
 21
180.765003464136413
 31
0.0
  0
ARC
  5
A8F3
  8
0
 10
4347.4119029222338213
 20
182.7028631039001141
 30
0.0
 40
2.114293061049477
 50
304.3087539972034961
 51
314.64986452760661
  0
ARC
  5
A8F4
  8
0
 10
4347.4812371794705541
 20
182.6107908162072135
 30
0.0
 40
2.000124412884531
 50
315.0904591602812275
 51
330.0925219649705014
  0
ARC
  5
A8F5
  8
0
 10
4348.6267984059759328
 20
180.9245637674490865
 30
0.0
 40
0.0394
 50
126.0192094109490029
 51
203.1353023700388007
  0
ARC
  5
A8F6
  8
0
 10
4346.736010251427615
 20
182.647424301481891
 30
0.0
 40
2.8729237541933101
 50
331.226921947269318
 51
341.0592030720071079
  0
ARC
  5
A8F7
  8
0
 10
4347.6963522498790553
 20
182.1506500264501085
 30
0.0
 40
1.79223468814417
 50
318.1192116482471874
 51
330.3696825174209835
  0
LINE
  5
A8F8
  8
0
 10
4349.0612421456016818
 20
180.7704249635744986
 30
0.0
 11
4349.022241851203944
 21
180.9181239015553047
 31
0.0
  0
ARC
  5
A8F9
  8
0
 10
4349.0603361859166398
 20
180.9281828111791128
 30
0.0
 40
0.0394
 50
138.7041856673990878
 51
194.7914970801523964
  0
ARC
  5
A8FA
  8
0
 10
4347.8846892584160742
 20
182.3776803484151117
 30
0.0
 40
1.5341705523844049
 50
330.1263569701147276
 51
355.5908445564469957
  0
LINE
  5
A8FB
  8
0
 10
4349.4279539807748733
 20
182.4905709714442139
 30
0.0
 11
4349.4279539807748733
 21
183.0442123164540931
 31
0.0
  0
LINE
  5
A8FC
  8
0
 10
4349.4279539807748733
 20
183.1032973557539947
 30
0.0
 11
4349.4279539807748733
 21
183.4570327995517971
 31
0.0
  0
ARC
  5
A8FD
  8
0
 10
4342.0514299922206192
 20
182.8104547585446937
 30
0.0
 40
7.3834566289079948
 50
355.7224370536782203
 51
357.5169178446585079
  0
ARC
  5
A8FE
  8
0
 10
4346.7033566312047697
 20
182.4666361661537906
 30
0.0
 40
2.850916752418204
 50
344.7113151150127237
 51
356.0374816226234884
  0
ARC
  5
A8FF
  8
0
 10
4344.7814847635609112
 20
182.5997632030399984
 30
0.0
 40
4.777393921655074
 50
356.0374816226234884
 51
1.369132420552241
  0
ARC
  5
A900
  8
0
 10
4349.4476539807747031
 20
183.0442123164540931
 30
0.0
 40
0.0197
 50
90.0
 51
180.0000000000098055
  0
ARC
  5
A901
  8
0
 10
4349.4476539807747031
 20
183.1032973557539947
 30
0.0
 40
0.0197
 50
179.9999999999951115
 51
270.0
  0
LINE
  5
A902
  8
0
 10
4349.4673634296759701
 20
183.0835973557539944
 30
0.0
 11
4349.4673634296759701
 21
183.0639123164540933
 31
0.0
  0
LINE
  5
A903
  8
0
 10
4350.2579544252512278
 20
183.6729128336540953
 30
0.0
 11
4352.5808235825552401
 21
183.6729128336540953
 31
0.0
  0
LINE
  5
A904
  8
0
 10
4352.6561442603133401
 20
183.7482334908162045
 30
0.0
 11
4352.6561442603133401
 21
184.2033438985673968
 31
0.0
  0
LINE
  5
A905
  8
0
 10
4352.608683581745936
 20
183.6844528184882961
 30
0.0
 11
4352.6446042595052859
 21
183.7203734756504048
 31
0.0
  0
LINE
  5
A906
  8
0
 10
4350.2535539807759051
 20
184.2826327995518056
 30
0.0
 11
4352.5799810226408226
 21
184.2826327995518056
 31
0.0
  0
LINE
  5
A907
  8
0
 10
4352.6089530071858462
 20
184.2699345618815983
 30
0.0
 11
4352.6457162448577947
 21
184.2300456608973036
 31
0.0
  0
LINE
  5
A908
  8
0
 10
4350.2146501650577193
 20
184.0728701310023894
 30
0.0
 11
4352.5926734646900513
 21
184.0728701310023894
 31
0.0
  0
LINE
  5
A909
  8
0
 10
4352.6293384524078647
 20
184.0626828026186956
 30
0.0
 11
4352.6052676567869639
 21
184.0708030430971007
 31
0.0
  0
LINE
  5
A90A
  8
0
 10
4350.1934796024543175
 20
183.693824348552198
 30
0.0
 11
4352.5824245663798138
 21
183.693824348552198
 31
0.0
  0
LINE
  5
A90B
  8
0
 10
4352.6084702801481399
 20
183.7036611823766918
 30
0.0
 11
4352.6427899740810972
 21
183.733897487903107
 31
0.0
  0
ARC
  5
A90C
  8
0
 10
4350.2535539807759051
 20
183.4570327995517971
 30
0.0
 40
0.8256
 50
90.0
 51
180.0
  0
ARC
  5
A90D
  8
0
 10
4350.2579544252512278
 20
183.4729128336539929
 30
0.0
 40
0.2
 50
90.0
 51
180.0
  0
LINE
  5
A90E
  8
0
 10
4349.9934796024554089
 20
183.4938243485522094
 30
0.0
 11
4349.9934796024554089
 21
183.0835973557539944
 31
0.0
  0
ARC
  5
A90F
  8
0
 10
4350.1934796024543175
 20
183.4938243485522094
 30
0.0
 40
0.2
 50
90.0
 51
180.0
  0
LINE
  5
A910
  8
0
 10
4349.6463781723268767
 20
183.5102121410135112
 30
0.0
 11
4349.6421425863400145
 21
183.0835973557539944
 31
0.0
  0
ARC
  5
A911
  8
0
 10
4350.2146501650577193
 20
183.5045701310023958
 30
0.0
 40
0.5683
 50
90.0
 51
179.431165454647612
  0
ARC
  5
A912
  8
0
 10
4352.5808235825552401
 20
183.7123128336540958
 30
0.0
 40
0.0394
 50
270.0
 51
314.9999835741401171
  0
ARC
  5
A913
  8
0
 10
4352.5824245663798138
 20
183.7332243485521985
 30
0.0
 40
0.0394
 50
270.0
 51
311.3806672481970281
  0
ARC
  5
A914
  8
0
 10
4352.6167442603136806
 20
183.7634606540786137
 30
0.0
 40
0.0394
 50
311.3806672481991882
 51
359.9999999999919282
  0
ARC
  5
A915
  8
0
 10
4352.6167442603136806
 20
184.0253498905240974
 30
0.0
 40
0.0394
 50
0.0
 51
71.3582677837943322
  0
ARC
  5
A916
  8
0
 10
4352.5926734646900513
 20
184.0334701310023888
 30
0.0
 40
0.0394
 50
71.3582677837943322
 51
90.0
  0
ARC
  5
A917
  8
0
 10
4352.5799810226408226
 20
184.2432327995518051
 30
0.0
 40
0.0394
 50
42.6649294226210216
 51
90.0
  0
ARC
  5
A918
  8
0
 10
4352.6167442603136806
 20
184.2033438985673968
 30
0.0
 40
0.0394
 50
359.9999999999951115
 51
42.6649294226198208
  0
ARC
  5
A919
  8
0
 10
4352.6167442603136806
 20
183.7482334908162045
 30
0.0
 40
0.0394
 50
314.9999835741365928
 51
0.0000000000032569
  0
LINE
  5
A91A
  8
0
 10
4348.688358641044033
 20
180.7410838731983063
 30
0.0
 11
4350.7975497649822501
 21
180.7410838731983063
 31
0.0
  0
ARC
  5
A91B
  8
0
 10
4350.7975497649822501
 20
180.7804838731983068
 30
0.0
 40
0.0394
 50
270.0
 51
336.8646976299626203
  0
ARC
  5
A91C
  8
0
 10
4348.688358641044033
 20
180.7804838731983068
 30
0.0
 40
0.0394
 50
203.1353023700374081
 51
270.0
  0
ARC
  5
A91D
  8
0
 10
4349.0993364803152872
 20
180.7804838731983068
 30
0.0
 40
0.0394
 50
194.7914970801523964
 51
270.0
  0
ARC
  5
A91E
  8
0
 10
4350.3865719257119054
 20
180.7804838731983068
 30
0.0
 40
0.0394
 50
270.0
 51
345.2085029198474899
  0
LINE
  5
A91F
  8
0
 10
4349.9283936318206543
 20
182.7139123164540138
 30
0.0
 11
4349.9283936318206543
 21
183.0639123164540933
 31
0.0
  0
LINE
  5
A920
  8
0
 10
4349.5575147742038098
 20
182.713912316454099
 30
0.0
 11
4349.5575147742038098
 21
183.0639123164540933
 31
0.0
  0
LINE
  5
A921
  8
0
 10
4342.05437142714527
 20
182.713912316454099
 30
0.0
 11
4342.05437142714527
 21
183.0639123164540933
 31
0.0
  0
LINE
  5
A922
  8
0
 10
4341.6834925695284255
 20
182.7139123164540138
 30
0.0
 11
4341.6834925695284255
 21
183.0639123164540933
 31
0.0
  0
ENDSEC
  0
EOF
