  0
SECTION
  2
HEADER
  9
$ACADVER
  1
AC1009
  9
$INSBASE
 10
4309.5945788483923025
 20
182.3353061566589872
 30
0.0
  9
$EXTMIN
 10
4304.3699828303406321
 20
182.3282999893604028
 30
-0.0000000349181948
  9
$EXTMAX
 10
4314.9040901332282374
 20
191.9186693434106132
 30
0.0000000814935746
  9
$LIMMIN
 10
0.0
 20
0.0
  9
$LIMMAX
 10
11.6929133858000007
 20
8.2677165353999982
  9
$ORTHOMODE
 70
     0
  9
$REGENMODE
 70
     1
  9
$FILLMODE
 70
     1
  9
$QTEXTMODE
 70
     0
  9
$MIRRTEXT
 70
     0
  9
$DRAGMODE
 70
     2
  9
$LTSCALE
 40
0.6431102362
  9
$OSMODE
 70
  3999
  9
$ATTMODE
 70
     1
  9
$TEXTSIZE
 40
0.2
  9
$TRACEWID
 40
0.05
  9
$TEXTSTYLE
  7
STANDARD
  9
$CLAYER
  8
0
  9
$CELTYPE
  6
BYLAYER
  9
$CECOLOR
 62
   256
  9
$DIMSCALE
 40
1.0
  9
$DIMASZ
 40
0.1875
  9
$DIMEXO
 40
0.0625
  9
$DIMDLI
 40
0.4443307087
  9
$DIMRND
 40
0.0
  9
$DIMDLE
 40
0.0
  9
$DIMEXE
 40
0.125
  9
$DIMTP
 40
0.01
  9
$DIMTM
 40
0.01
  9
$DIMTXT
 40
2.0
  9
$DIMCEN
 40
0.1052362205
  9
$DIMTSZ
 40
0.0
  9
$DIMTOL
 70
     1
  9
$DIMLIM
 70
     0
  9
$DIMTIH
 70
     1
  9
$DIMTOH
 70
     1
  9
$DIMSE1
 70
     0
  9
$DIMSE2
 70
     0
  9
$DIMTAD
 70
     0
  9
$DIMZIN
 70
     0
  9
$DIMBLK
  1

  9
$DIMASO
 70
     1
  9
$DIMSHO
 70
     1
  9
$DIMPOST
  1
\X
  9
$DIMAPOST
  1

  9
$DIMALT
 70
     1
  9
$DIMALTD
 70
     2
  9
$DIMALTF
 40
25.3999999999999986
  9
$DIMLFAC
 40
1.0
  9
$DIMTOFL
 70
     0
  9
$DIMTVP
 40
0.0
  9
$DIMTIX
 70
     0
  9
$DIMSOXD
 70
     0
  9
$DIMSAH
 70
     0
  9
$DIMBLK1
  1

  9
$DIMBLK2
  1

  9
$DIMSTYLE
  2
STANDARD
  9
$DIMCLRD
 70
     0
  9
$DIMCLRE
 70
     0
  9
$DIMCLRT
 70
     0
  9
$DIMTFAC
 40
1.0
  9
$DIMGAP
 40
0.09
  9
$LUNITS
 70
     2
  9
$LUPREC
 70
     4
  9
$SKETCHINC
 40
0.1
  9
$FILLETRAD
 40
0.0
  9
$AUNITS
 70
     0
  9
$AUPREC
 70
     0
  9
$MENU
  1
.
  9
$ELEVATION
 40
0.0
  9
$PELEVATION
 40
0.0
  9
$THICKNESS
 40
0.0
  9
$LIMCHECK
 70
     0
  9
$BLIPMODE
 70
     0
  9
$CHAMFERA
 40
0.0
  9
$CHAMFERB
 40
0.0
  9
$SKPOLY
 70
     0
  9
$TDCREATE
 40
2458060.468368056230247
  9
$TDUPDATE
 40
2460166.3764236108399928
  9
$TDINDWG
 40
0.4368126157
  9
$TDUSRTIMER
 40
0.4368126157
  9
$USRTIMER
 70
     1
  9
$ANGBASE
 50
0.0
  9
$ANGDIR
 70
     0
  9
$PDMODE
 70
     0
  9
$PDSIZE
 40
0.3125
  9
$PLINEWID
 40
0.0
  9
$COORDS
 70
     1
  9
$SPLFRAME
 70
     0
  9
$SPLINETYPE
 70
     6
  9
$SPLINESEGS
 70
     8
  9
$ATTDIA
 70
     1
  9
$ATTREQ
 70
     1
  9
$HANDLING
 70
     1
  9
$HANDSEED
  5
A910
  9
$SURFTAB1
 70
     6
  9
$SURFTAB2
 70
     6
  9
$SURFTYPE
 70
     6
  9
$SURFU
 70
     6
  9
$SURFV
 70
     6
  9
$UCSNAME
  2

  9
$UCSORG
 10
0.0
 20
0.0
 30
0.0
  9
$UCSXDIR
 10
1.0
 20
0.0
 30
0.0
  9
$UCSYDIR
 10
0.0
 20
1.0
 30
0.0
  9
$PUCSNAME
  2

  9
$PUCSORG
 10
0.0
 20
0.0
 30
0.0
  9
$PUCSXDIR
 10
1.0
 20
0.0
 30
0.0
  9
$PUCSYDIR
 10
0.0
 20
1.0
 30
0.0
  9
$USERI1
 70
     0
  9
$USERI2
 70
     0
  9
$USERI3
 70
     0
  9
$USERI4
 70
     0
  9
$USERI5
 70
     0
  9
$USERR1
 40
0.0
  9
$USERR2
 40
0.0
  9
$USERR3
 40
0.0
  9
$USERR4
 40
0.0
  9
$USERR5
 40
0.0
  9
$WORLDVIEW
 70
     1
  9
$SHADEDGE
 70
     3
  9
$SHADEDIF
 70
    70
  9
$TILEMODE
 70
     1
  9
$MAXACTVP
 70
    64
  9
$PLIMCHECK
 70
     0
  9
$PEXTMIN
 10
1.0000000000000000E+20
 20
1.0000000000000000E+20
 30
1.0000000000000000E+20
  9
$PEXTMAX
 10
-1.0000000000000000E+20
 20
-1.0000000000000000E+20
 30
-1.0000000000000000E+20
  9
$PLIMMIN
 10
0.0
 20
0.0
  9
$PLIMMAX
 10
12.0
 20
9.0
  9
$UNITMODE
 70
     0
  9
$VISRETAIN
 70
     1
  9
$PLINEGEN
 70
     0
  9
$PSLTSCALE
 70
     1
  0
ENDSEC
  0
SECTION
  2
TABLES
  0
TABLE
  2
VPORT
 70
     1
  0
VPORT
  2
*ACTIVE
 70
     0
 10
0.0
 20
0.0
 11
1.0
 21
1.0
 12
506.0929690989722758
 22
61.1282224696356167
 13
0.0
 23
0.0
 14
1.0
 24
1.0
 15
0.0
 25
0.0
 16
0.0
 26
0.0
 36
17.1152628219792007
 17
3803.5440673828129547
 27
125.9952621967499056
 37
0.0
 40
9.6608004631375408
 41
2.3419117647058818
 42
50.0
 43
0.0
 44
0.0
 50
0.0
 51
0.0
 71
     0
 72
   100
 73
     1
 74
     1
 75
     0
 76
     0
 77
     0
 78
     0
  0
ENDTAB
  0
TABLE
  2
LTYPE
 70
     2
  0
LTYPE
  2
CONTINUOUS
 70
     0
  3
Solid line
 72
    65
 73
     0
 40
0.0
  0
LTYPE
  2
PHANTOM2
 70
     0
  3
___ _ _ ___ _ _ ___ _ _ ___ _ _
 72
    65
 73
     6
 40
1.25
 49
0.625
 49
-0.125
 49
0.125
 49
-0.125
 49
0.125
 49
-0.125
  0
ENDTAB
  0
TABLE
  2
LAYER
 70
     2
  0
LAYER
  2
0
 70
     0
 62
   255
  6
CONTINUOUS
  0
LAYER
  2
DEFPOINTS
 70
     0
 62
     7
  6
CONTINUOUS
  0
ENDTAB
  0
TABLE
  2
STYLE
 70
     1
  0
STYLE
  2
STANDARD
 70
     0
 40
0.0
 41
0.8
 50
0.0
 71
     0
 42
0.2
  3
txt
  4

  0
ENDTAB
  0
TABLE
  2
VIEW
 70
     0
  0
ENDTAB
  0
TABLE
  2
UCS
 70
     0
  0
ENDTAB
  0
TABLE
  2
APPID
 70
     9
  0
APPID
  2
ACAD
 70
     0
  0
APPID
  2
ACAD_MLEADERVER
 70
     0
  0
APPID
  2
ACAD_EXEMPT_FROM_CAD_STANDARDS
 70
     0
  0
APPID
  2
ACAD_NAV_VCDISPLAY
 70
     0
  0
APPID
  2
ACAECLAYERSTANDARD
 70
     0
  0
APPID
  2
ACCMTRANSPARENCY
 70
     0
  0
APPID
  2
ACAD_DSTYLE_DIMJAG
 70
     0
  0
APPID
  2
ACAD_DSTYLE_DIMTALN
 70
     0
  0
APPID
  2
ACDBATTR
 70
     0
  0
ENDTAB
  0
TABLE
  2
DIMSTYLE
 70
     1
  0
DIMSTYLE
  2
STANDARD
 70
     0
  3

  4

  5

  6

  7

 40
1.0
 41
0.1875
 42
0.0625
 43
0.38
 44
0.125
 45
0.0
 46
0.0
 47
0.01
 48
0.01
140
0.15625
141
0.09
142
0.0
143
25.3999999999999986
144
1.0
145
0.0
146
1.0
147
0.09
 71
     1
 72
     0
 73
     1
 74
     1
 75
     0
 76
     0
 77
     0
 78
     4
170
     0
171
     2
172
     0
173
     0
174
     0
175
     0
176
     0
177
     0
178
     0
  0
ENDTAB
  0
ENDSEC
  0
SECTION
  2
BLOCKS
  0
BLOCK
  8
0
  2
$MODEL_SPACE
 70
     0
 10
0.0
 20
0.0
 30
0.0
  3
$MODEL_SPACE
  1

  0
ENDBLK
  5
21
  8
0
  0
BLOCK
 67
     1
  8
0
  2
$PAPER_SPACE
 70
     0
 10
0.0
 20
0.0
 30
0.0
  3
$PAPER_SPACE
  1

  0
ENDBLK
  5
1D
 67
     1
  8
0
  0
ENDSEC
  0
SECTION
  2
ENTITIES
  0
ATTDEF
  5
3930
  8
DEFPOINTS
 10
4309.5914070566313967
 20
182.3395536933605001
 30
0.0
 40
0.001
  1
K-EX27100T-9
  3

  2
MODELNUMBER
 70
     0
1001
ACDBATTR
1070
     0
1070
     1
  0
ATTDEF
  5
3931
  8
DEFPOINTS
 10
4309.5914070566313967
 20
182.3378870266938918
 30
0.0
 40
0.001
  1
OCCASION
  3

  2
TRADENAME
 70
     0
1001
ACDBATTR
1070
     0
1070
     1
  0
ATTDEF
  5
3932
  8
DEFPOINTS
 10
4309.5914070566313967
 20
182.3362203600271982
 30
0.0
 40
0.001
  1
BATHROOM SINK FAUCET
  3

  2
PRODUCT
 70
     0
1001
ACDBATTR
1070
     0
1070
     1
  0
LINE
  5
A382
  8
0
 10
4308.5398059032868332
 20
182.3353061566589872
 30
0.0
 11
4310.6493517934950432
 21
182.3353061566589872
 31
0.0
  0
LINE
  5
A383
  8
0
 10
4308.4420135673435652
 20
182.5033071985920969
 30
0.0
 11
4308.5035744675542446
 21
182.3592257475970939
 31
0.0
  0
LINE
  5
A384
  8
0
 10
4309.1120862474481328
 20
184.2099884518451915
 30
0.0
 11
4309.1120862474481328
 21
191.5454761506443049
 31
0.0
  0
LINE
  5
A385
  8
0
 10
4309.1874097776153576
 20
188.4152266566590015
 30
0.0
 11
4310.0017479191683378
 21
188.4152266566590015
 31
0.0
  0
LINE
  5
A386
  8
0
 10
4309.1595495819374264
 20
188.4267668379812903
 30
0.0
 11
4309.1236260517689516
 21
188.4626908542684873
 31
0.0
  0
ARC
  5
A387
  8
0
 10
4307.4572320575261983
 20
183.9231010250477993
 30
0.0
 40
1.6968498694760761
 50
306.0192094109480081
 51
318.4328291575554886
  0
ARC
  5
A388
  8
0
 10
4307.6799767353031712
 20
183.725567161560889
 30
0.0
 40
1.3991338660401029
 50
318.4328291575554886
 51
339.0097774282589853
  0
ARC
  5
A389
  8
0
 10
4307.4030403450560698
 20
183.8318188629424981
 30
0.0
 40
1.695753468037384
 50
339.0097774282589853
 51
357.3613583071655171
  0
ARC
  5
A38A
  8
0
 10
4291.5435166642755576
 20
184.5627140603241116
 30
0.0
 40
17.572110076869091
 50
357.3613583071655171
 51
358.8498224731918071
  0
ARC
  5
A38B
  8
0
 10
4308.4782450030770633
 20
182.5187876076539908
 30
0.0
 40
0.0394
 50
126.0192094109479939
 51
203.1353023700388007
  0
ARC
  5
A38C
  8
0
 10
4308.5398059032868332
 20
182.3747061566589878
 30
0.0
 40
0.0394
 50
203.1353023700388007
 51
270.0
  0
ARC
  5
A38D
  8
0
 10
4309.1874097776153576
 20
188.454626656659002
 30
0.0
 40
0.0394
 50
224.9996123376203059
 51
270.0
  0
ARC
  5
A38E
  8
0
 10
4309.1514862474459733
 20
188.4905506729463127
 30
0.0
 40
0.0394
 50
179.9999999999917861
 51
224.9996123376583057
  0
ARC
  5
A38F
  8
0
 10
4309.8346323465930254
 20
191.0714409287006106
 30
0.0
 40
0.8709034482320406
 50
106.7717264039896037
 51
145.2432111023269954
  0
ARC
  5
A390
  8
0
 10
4309.1514862474459733
 20
191.5454761506443049
 30
0.0
 40
0.0394
 50
145.2432111023688037
 51
179.9999999999901945
  0
LINE
  5
A391
  8
0
 10
4309.2903457028405683
 20
184.2099884518451915
 30
0.0
 11
4309.2903457028405683
 21
188.4152266566590015
 31
0.0
  0
ARC
  5
A392
  8
0
 10
4291.7217761196689025
 20
184.5627140603241116
 30
0.0
 40
17.572110076869091
 50
357.3613583071655171
 51
358.8498224731918071
  0
ARC
  5
A393
  8
0
 10
4307.1210300979364547
 20
183.7415322140836906
 30
0.0
 40
2.1542599033737551
 50
348.971205348958506
 51
0.3250041230507733
  0
ARC
  5
A394
  8
0
 10
4307.1930639503552811
 20
183.7274926786454046
 30
0.0
 40
2.0808706367897161
 50
335.4488981181294207
 51
348.971205348958506
  0
ARC
  5
A395
  8
0
 10
4307.9156242617991666
 20
183.3974243648686127
 30
0.0
 40
1.286491322208738
 50
318.7041856673989741
 51
335.4488981181279996
  0
LINE
  5
A396
  8
0
 10
4308.9126891537662232
 20
182.364647247035208
 30
0.0
 11
4308.8736884483059839
 21
182.5123477417602089
 31
0.0
  0
ARC
  5
A397
  8
0
 10
4308.950783488478919
 20
182.3747061566589878
 30
0.0
 40
0.0394
 50
194.7914970801477068
 51
270.0
  0
ARC
  5
A398
  8
0
 10
4308.9117827830186798
 20
182.5224066513839887
 30
0.0
 40
0.0394
 50
138.7041856673990878
 51
194.7914970801523964
  0
ARC
  5
A399
  8
0
 10
4309.5951136688618135
 20
191.8642856168559945
 30
0.0
 40
0.0426729347416879
 50
90.7181075842596556
 51
106.0368860026106006
  0
LINE
  5
A39A
  8
0
 10
4310.7471441294392207
 20
182.5033071985920969
 30
0.0
 11
4310.6855832292267223
 21
182.3592257475970939
 31
0.0
  0
LINE
  5
A39B
  8
0
 10
4310.0770714493346532
 20
184.20994817547259
 30
0.0
 11
4310.0770714493346532
 21
191.5454761506443049
 31
0.0
  0
LINE
  5
A39C
  8
0
 10
4310.0296081148453595
 20
188.4267668379812903
 30
0.0
 11
4310.0655316450138343
 21
188.4626908542684873
 31
0.0
  0
ARC
  5
A39D
  8
0
 10
4311.7319256392556781
 20
183.9231010250477993
 30
0.0
 40
1.6968498694760761
 50
221.5671708424445114
 51
233.9807905890519919
  0
ARC
  5
A39E
  8
0
 10
4311.5091809614787053
 20
183.725567161560889
 30
0.0
 40
1.3991338660401029
 50
200.990222571740901
 51
221.5671708424445114
  0
ARC
  5
A39F
  8
0
 10
4311.7861173517258067
 20
183.8318188629424981
 30
0.0
 40
1.695753468037384
 50
182.6386416928343976
 51
200.990222571740901
  0
ARC
  5
A3A0
  8
0
 10
4327.6456402336589235
 20
184.5627135707360083
 30
0.0
 40
17.572110076869091
 50
181.1503072821004992
 51
182.6386416928343976
  0
ARC
  5
A3A1
  8
0
 10
4310.7109126937039036
 20
182.5187876076539908
 30
0.0
 40
0.0394
 50
336.8646976299610856
 51
53.9807905890519635
  0
ARC
  5
A3A2
  8
0
 10
4310.6493517934950432
 20
182.3747061566589878
 30
0.0
 40
0.0394
 50
270.0
 51
336.8646976299610856
  0
ARC
  5
A3A3
  8
0
 10
4310.0017479191683378
 20
188.454626656659002
 30
0.0
 40
0.0394
 50
270.0
 51
315.0003876623796941
  0
ARC
  5
A3A4
  8
0
 10
4310.0376714493349937
 20
188.4905506729463127
 30
0.0
 40
0.0394
 50
315.0003876623417227
 51
0.0000000000081422
  0
ARC
  5
A3A5
  8
0
 10
4309.354525350188851
 20
191.0714409287006106
 30
0.0
 40
0.8709034482320406
 50
34.7567888976729122
 51
73.2282735960104105
  0
ARC
  5
A3A6
  8
0
 10
4310.0376714493349937
 20
191.5454761506443049
 30
0.0
 40
0.0394
 50
0.0000000000097707
 51
34.7567888976311608
  0
LINE
  5
A3A7
  8
0
 10
4309.8988119939413082
 20
184.2099884518451915
 30
0.0
 11
4309.8988119939413082
 21
188.4152266566590015
 31
0.0
  0
ARC
  5
A3A8
  8
0
 10
4327.4673815771120644
 20
184.5627140603241116
 30
0.0
 40
17.572110076869091
 50
181.1501775268081929
 51
182.6386416928343976
  0
ARC
  5
A3A9
  8
0
 10
4312.0681275988472407
 20
183.7415322140836906
 30
0.0
 40
2.1542599033737551
 50
179.6749958769491968
 51
191.028794651041494
  0
ARC
  5
A3AA
  8
0
 10
4311.9960937464284143
 20
183.7274926786454046
 30
0.0
 40
2.0808706367897161
 50
191.028794651041494
 51
204.5511018818706077
  0
ARC
  5
A3AB
  8
0
 10
4311.2735334349827099
 20
183.3974243648686127
 30
0.0
 40
1.286491322208738
 50
204.5511018818720004
 51
221.2958143326009122
  0
LINE
  5
A3AC
  8
0
 10
4310.2764685430147438
 20
182.364647247035208
 30
0.0
 11
4310.315469248476802
 21
182.5123477417602089
 31
0.0
  0
ARC
  5
A3AD
  8
0
 10
4310.2383742083038669
 20
182.3747061566589878
 30
0.0
 40
0.0394
 50
270.0
 51
345.2085029198506732
  0
ARC
  5
A3AE
  8
0
 10
4310.2773749137641062
 20
182.5224066513839887
 30
0.0
 40
0.0394
 50
345.2085029198474899
 51
41.2958143326353095
  0
ARC
  5
A3AF
  8
0
 10
4309.5936464004707886
 20
191.8615855514279076
 30
0.0
 40
0.0453792295171959
 50
74.422397285327861
 51
88.8226091278241654
  0
LINE
  5
A3B0
  8
0
 10
4310.2518457993755874
 20
184.1378708242629045
 30
0.0
 11
4310.197027444160085
 21
183.7638151413576963
 31
0.0
  0
ARC
  5
A3B1
  8
0
 10
4310.1671566975337555
 20
183.7699709824672141
 30
0.0
 40
0.0304984570716012
 50
292.7822117710200018
 51
348.3553597098263026
  0
ARC
  5
A3B2
  8
0
 10
4310.1424666000993966
 20
183.8309265452622867
 30
0.0
 40
0.0962628701838857
 50
276.4554744927036154
 51
292.2822819915214723
  0
ARC
  5
A3B3
  8
0
 10
4310.1199201262652423
 20
184.0301910444700013
 30
0.0
 40
0.296798862282264
 50
270.7909939839357776
 51
276.4554744927036154
  0
ARC
  5
A3B4
  8
0
 10
4310.1219007584977589
 20
183.9381038354977136
 30
0.0
 40
0.2040242739483963
 50
270.6220560302576814
 51
278.7242085741837059
  0
ARC
  5
A3B5
  8
0
 10
4310.1431641010312887
 20
183.7995388563128927
 30
0.0
 40
0.0638373159525376
 50
278.7242085741837059
 51
292.8588189541284237
  0
ARC
  5
A3B6
  8
0
 10
4310.1626267934898351
 20
183.7533716677934024
 30
0.0
 40
0.0137353629610775
 50
292.8588189541284237
 51
320.5736651136185742
  0
ARC
  5
A3B7
  8
0
 10
4310.168853569132807
 20
183.7482521417502142
 30
0.0
 40
0.0056742041224666
 50
320.5736651136160731
 51
37.942756195034093
  0
ARC
  5
A3B8
  8
0
 10
4310.1435492390155559
 20
183.7285229139093019
 30
0.0
 40
0.0377608299023498
 50
37.942756195034093
 51
68.1738290665581985
  0
ARC
  5
A3B9
  8
0
 10
4310.060523382264364
 20
183.5589100960091002
 30
0.0
 40
0.2265173731255575
 50
64.6269428847830198
 51
82.3136568953305243
  0
ARC
  5
A3BA
  8
0
 10
4310.0877621277295475
 20
183.6749796147580867
 30
0.0
 40
0.1004583355409497
 50
57.7643718719622683
 51
88.0516288678065564
  0
ARC
  5
A3BB
  8
0
 10
4310.1326456151682578
 20
183.746155191372992
 30
0.0
 40
0.0163126871026325
 50
27.4550812590952518
 51
57.7643718719614014
  0
ARC
  5
A3BC
  8
0
 10
4310.1434594104794087
 20
183.7517737260997137
 30
0.0
 40
0.00412637914993
 50
306.4094493811555253
 51
27.4550812591236202
  0
ARC
  5
A3BD
  8
0
 10
4310.1284563837762107
 20
183.7721163115868137
 30
0.0
 40
0.029403079776359
 50
278.1197815663807091
 51
306.4094493811555253
  0
ARC
  5
A3BE
  8
0
 10
4310.1049565553439606
 20
183.936827031070294
 30
0.0
 40
0.1957817534371905
 50
275.9613661718378808
 51
278.1197815663807091
  0
LINE
  5
A3BF
  8
0
 10
4310.2051496275826139
 20
184.2103795890683102
 30
0.0
 11
4310.2459339606893991
 21
184.1578082726686034
 31
0.0
  0
ARC
  5
A3C0
  8
0
 10
4310.1711064186129079
 20
184.1780413013129873
 30
0.0
 40
0.046954285553966
 50
43.5287568977239872
 51
60.0301055068834515
  0
ARC
  5
A3C1
  8
0
 10
4310.1383202012621041
 20
184.1211849355073014
 30
0.0
 40
0.1125864604443437
 50
60.0301055068834515
 51
73.5978542682799599
  0
ARC
  5
A3C2
  8
0
 10
4310.0352022767028757
 20
183.7708687218479042
 30
0.0
 40
0.4777641650186212
 50
73.5978542682799599
 51
84.9723977864327367
  0
ARC
  5
A3C3
  8
0
 10
4310.2344470361131243
 20
184.1340927658274893
 30
0.0
 40
0.0176753280756556
 50
11.1085577095406407
 51
61.2471359141038008
  0
ARC
  5
A3C4
  8
0
 10
4310.1571869122590215
 20
184.011771507155288
 30
0.0
 40
0.1623231684984425
 50
58.1063410777828295
 51
73.5331171281143838
  0
ARC
  5
A3C5
  8
0
 10
4310.0147499587419588
 20
183.5660142752630861
 30
0.0
 40
0.6302556295502868
 50
72.6021802871964468
 51
84.2935992303651886
  0
ARC
  5
A3C6
  8
0
 10
4310.2242464135561022
 20
184.1405322844904902
 30
0.0
 40
0.0277274136575062
 50
354.4918925220388246
 51
38.5403230985132765
  0
LINE
  5
A3C7
  8
0
 10
4308.4550755786976879
 20
182.5506551110692897
 30
0.0
 11
4310.7340821180832791
 21
182.5506551110692897
 31
0.0
  0
LINE
  5
A3C9
  8
0
 10
4309.5945788483923025
 20
188.4152266566590015
 30
0.0
 11
4309.5945788483923025
 21
191.9069552000098895
 31
0.0
  0
LINE
  5
A3CA
  8
0
 10
4310.1054080934827653
 20
183.6064387093784092
 30
0.0
 11
4310.1288851250519656
 21
183.7666353634643031
 31
0.0
  0
ARC
  5
A3CB
  8
0
 10
4309.5945780290412586
 20
188.8748723259589894
 30
0.0
 40
0.4702481270999773
 50
257.8101952614049992
 51
282.1898047385948871
  0
ARC
  5
A3CC
  8
0
 10
4309.5945780290412586
 20
188.8748723259581084
 30
0.0
 40
0.4668473733990761
 50
259.9230828634870818
 51
267.302388716365499
  0
ARC
  5
A3CD
  8
0
 10
4309.5945780290412586
 20
188.8748723259610927
 30
0.0
 40
0.4651979287020775
 50
268.1403826291198129
 51
271.8597538312183133
  0
ARC
  5
A3CE
  8
0
 10
4309.5652819701763292
 20
188.5404584380308961
 30
0.0
 40
0.1378810574927525
 50
288.7819385101930152
 51
294.7340743255289794
  0
ARC
  5
A3CF
  8
0
 10
4309.6239598839492828
 20
188.5406859483614994
 30
0.0
 40
0.1381237542749204
 50
245.2729445002350133
 51
251.2151923757513998
  0
ARC
  5
A3D0
  8
0
 10
4309.6226393435499631
 20
188.5415872780170901
 30
0.0
 40
0.1392162033964071
 50
245.183606808616986
 51
251.1940416138230034
  0
ARC
  5
A3D1
  8
0
 10
4309.5667223605169056
 20
188.5410827403231906
 30
0.0
 40
0.1386718615661859
 50
288.7924768693478086
 51
294.8266900469242842
  0
ARC
  5
A3D2
  8
0
 10
4309.6434580873519735
 20
188.5297727338762002
 30
0.0
 40
0.1241803568197252
 50
255.0365200110464059
 51
257.4863255682682279
  0
ARC
  5
A3D3
  8
0
 10
4309.545543977043053
 20
188.5303673471516106
 30
0.0
 40
0.1247946055924334
 50
282.5242080264537776
 51
284.9609488540510824
  0
ARC
  5
A3D4
  8
0
 10
4309.5945780290412586
 20
188.8748723259598137
 30
0.0
 40
0.4668473734007897
 50
272.6977949297328223
 51
280.0769171365121792
  0
LINE
  5
A3D5
  8
0
 10
4310.0655316450138343
 20
188.4626908542684873
 30
0.0
 11
4309.1236260517689516
 21
188.4626908542684873
 31
0.0
  0
LINE
  5
A3D6
  8
0
 10
4304.6345865543662512
 20
182.3353061566589872
 30
0.0
 11
4306.6805538584158057
 21
182.3353061566589872
 31
0.0
  0
LINE
  5
A3D7
  8
0
 10
4304.6005350857658414
 20
182.3548855238188935
 30
0.0
 11
4304.5537849763913982
 21
182.4352013186914974
 31
0.0
  0
LINE
  5
A3D8
  8
0
 10
4304.5484364449912391
 20
182.4550219515315916
 30
0.0
 11
4304.5484364449912391
 21
182.5323123285330098
 31
0.0
  0
LINE
  5
A3D9
  8
0
 10
4304.5537179110524448
 20
182.5520172934365917
 30
0.0
 11
4304.5763488853008312
 21
182.5912021215625884
 31
0.0
  0
LINE
  5
A3DA
  8
0
 10
4304.6104674192401944
 20
182.6108971566590071
 30
0.0
 11
4306.7046729935418625
 21
182.6108971566590071
 31
0.0
  0
LINE
  5
A3DB
  8
0
 10
4304.9002660827172804
 20
182.6541821959590095
 30
0.0
 11
4306.4148743300647766
 21
182.6541821959590095
 31
0.0
  0
LINE
  5
A3DC
  8
0
 10
4304.8770398698870849
 20
182.6617560583113971
 30
0.0
 11
4304.8200174486919423
 21
182.7033701211123002
 31
0.0
  0
LINE
  5
A3DD
  8
0
 10
4304.7720955813801993
 20
183.5568627960589936
 30
0.0
 11
4306.5430448314009482
 21
183.5568627960589936
 31
0.0
  0
LINE
  5
A3DE
  8
0
 10
4304.8813781628132347
 20
183.5649037976774878
 30
0.0
 11
4304.9637531855187262
 21
183.6275621943404133
 31
0.0
  0
LINE
  5
A3DF
  8
0
 10
4304.9876063450683432
 20
183.6356031959589927
 30
0.0
 11
4306.3275340677137137
 21
183.6356031959589927
 31
0.0
  0
ARC
  5
A3E0
  8
0
 10
4304.6345865543662512
 20
182.3747061566589878
 30
0.0
 40
0.0394
 50
210.2027711446463911
 51
270.0
  0
ARC
  5
A3E1
  8
0
 10
4304.5878364449908986
 20
182.4550219515315916
 30
0.0
 40
0.0394
 50
180.0
 51
210.2027711446463911
  0
ARC
  5
A3E2
  8
0
 10
4304.5878364449908986
 20
182.5323123285330098
 30
0.0
 40
0.0394
 50
149.9916627112187086
 51
180.0000000000015916
  0
ARC
  5
A3E3
  8
0
 10
4304.6104674192401944
 20
182.5714971566590066
 30
0.0
 40
0.0394
 50
90.0
 51
149.9916627112201013
  0
ARC
  5
A3E4
  8
0
 10
4304.9002660827172804
 20
182.6935821959590101
 30
0.0
 40
0.0394
 50
233.8786222205654894
 51
270.0
  0
ARC
  5
A3E5
  8
0
 10
4312.0394445668553089
 20
183.7840681354716139
 30
0.0
 40
7.3116375981315116
 50
182.1009743298185981
 51
188.2926692405812048
  0
ARC
  5
A3E6
  8
0
 10
4304.8432436615221377
 20
182.7351962587599132
 30
0.0
 40
0.0394
 50
188.2926692405748099
 51
233.8786222205685021
  0
ARC
  5
A3E7
  8
0
 10
4304.7720955813801993
 20
183.517462796058993
 30
0.0
 40
0.0394
 50
90.0
 51
182.1009743298218098
  0
ARC
  5
A3E8
  8
0
 10
4304.8575250032627082
 20
183.5962627960589941
 30
0.0
 40
0.0394
 50
270.0
 51
307.2583610788187798
  0
ARC
  5
A3E9
  8
0
 10
4304.9876063450683432
 20
183.5962031959589922
 30
0.0
 40
0.0394
 50
90.0
 51
127.258361078818794
  0
LINE
  5
A3EA
  8
0
 10
4305.0132796153793606
 20
182.3548855238188935
 30
0.0
 11
4304.9665295060030985
 21
182.4352013186914974
 31
0.0
  0
LINE
  5
A3EB
  8
0
 10
4304.9611809746038489
 20
182.4550219515315916
 30
0.0
 11
4304.9611809746038489
 21
182.5323123285330098
 31
0.0
  0
LINE
  5
A3EC
  8
0
 10
4304.9664624406650546
 20
182.5520172934365917
 30
0.0
 11
4304.9890934149143504
 21
182.5912021215625884
 31
0.0
  0
ARC
  5
A3ED
  8
0
 10
4305.0473310839779515
 20
182.3747061566589878
 30
0.0
 40
0.0394
 50
210.2027711446463911
 51
270.0
  0
ARC
  5
A3EE
  8
0
 10
4305.0005809746053274
 20
182.4550219515315916
 30
0.0
 40
0.0394
 50
180.0
 51
210.2027711446463911
  0
ARC
  5
A3EF
  8
0
 10
4305.0005809746053274
 20
182.5323123285330098
 30
0.0
 40
0.0394
 50
149.9916627112187086
 51
180.0000000000015916
  0
ARC
  5
A3F0
  8
0
 10
4305.0232119488518947
 20
182.5714971566590066
 30
0.0
 40
0.0394
 50
90.0
 51
149.9916627112201013
  0
LINE
  5
A3F1
  8
0
 10
4305.2208723050625849
 20
182.6617560583113971
 30
0.0
 11
4305.1638498838674423
 21
182.7033701211123002
 31
0.0
  0
LINE
  5
A3F2
  8
0
 10
4305.1645960354326235
 20
183.5649037976774878
 30
0.0
 11
4305.246971058138115
 21
183.6275621943404133
 31
0.0
  0
ARC
  5
A3F3
  8
0
 10
4305.2440985178918709
 20
182.6935821959590101
 30
0.0
 40
0.0394
 50
233.8786222205654894
 51
270.0
  0
ARC
  5
A3F4
  8
0
 10
4312.3832770020298994
 20
183.7840681354716139
 30
0.0
 40
7.3116375981315116
 50
182.1009743298185981
 51
188.2926692405812048
  0
ARC
  5
A3F5
  8
0
 10
4305.1870760966967282
 20
182.7351962587599132
 30
0.0
 40
0.0394
 50
188.2926692405748099
 51
233.8786222205685021
  0
ARC
  5
A3F6
  8
0
 10
4305.1159280165556993
 20
183.517462796058993
 30
0.0
 40
0.0394
 50
90.0
 51
182.1009743298218098
  0
ARC
  5
A3F7
  8
0
 10
4305.140742875882097
 20
183.5962627960589941
 30
0.0
 40
0.0394
 50
270.0
 51
307.2583610788187798
  0
ARC
  5
A3F8
  8
0
 10
4305.270824217687732
 20
183.5962031959589922
 30
0.0
 40
0.0394
 50
90.0
 51
127.258361078818794
  0
LINE
  5
A3F9
  8
0
 10
4306.7146053270162156
 20
182.3548855238188935
 30
0.0
 11
4306.7613554363915682
 21
182.4352013186914974
 31
0.0
  0
LINE
  5
A3FA
  8
0
 10
4306.7667039677908178
 20
182.4550219515315916
 30
0.0
 11
4306.7667039677908178
 21
182.5323123285330098
 31
0.0
  0
LINE
  5
A3FB
  8
0
 10
4306.7614225017314311
 20
182.5520172934365917
 30
0.0
 11
4306.7387915274812258
 21
182.5912021215625884
 31
0.0
  0
LINE
  5
A3FC
  8
0
 10
4306.4381005428958815
 20
182.6617560583113971
 30
0.0
 11
4306.4951229640910242
 21
182.7033701211123002
 31
0.0
  0
LINE
  5
A3FD
  8
0
 10
4306.4337622499688223
 20
183.5649037976774878
 30
0.0
 11
4306.3513872272642402
 21
183.6275621943404133
 31
0.0
  0
ARC
  5
A3FE
  8
0
 10
4306.6805538584158057
 20
182.3747061566589878
 30
0.0
 40
0.0394
 50
270.0
 51
329.7972288553535805
  0
ARC
  5
A3FF
  8
0
 10
4306.7273039677911584
 20
182.4550219515315916
 30
0.0
 40
0.0394
 50
329.7972288553535805
 51
0.0
  0
ARC
  5
A400
  8
0
 10
4306.7273039677911584
 20
182.5323123285330098
 30
0.0
 40
0.0394
 50
359.9999999999984084
 51
30.0083372887812914
  0
ARC
  5
A401
  8
0
 10
4306.7046729935418625
 20
182.5714971566590066
 30
0.0
 40
0.0394
 50
30.0083372887798703
 51
90.0
  0
ARC
  5
A402
  8
0
 10
4306.4148743300647766
 20
182.6935821959590101
 30
0.0
 40
0.0394
 50
270.0
 51
306.1213777794343969
  0
ARC
  5
A403
  8
0
 10
4299.275695845926748
 20
183.7840681354716139
 30
0.0
 40
7.3116375981315116
 50
351.7073307594187099
 51
357.8990256701814019
  0
ARC
  5
A404
  8
0
 10
4306.4718967512599193
 20
182.7351962587599132
 30
0.0
 40
0.0394
 50
306.1213777794316115
 51
351.7073307594251901
  0
ARC
  5
A405
  8
0
 10
4306.5430448314009482
 20
183.517462796058993
 30
0.0
 40
0.0394
 50
357.8990256701782187
 51
90.0
  0
ARC
  5
A406
  8
0
 10
4306.4576154095202583
 20
183.5962627960589941
 30
0.0
 40
0.0394
 50
232.7416389211811918
 51
270.0
  0
ARC
  5
A407
  8
0
 10
4306.3275340677137137
 20
183.5962031959589922
 30
0.0
 40
0.0394
 50
52.7416389211811207
 51
90.0
  0
LINE
  5
A408
  8
0
 10
4306.3018607974026963
 20
182.3548855238188935
 30
0.0
 11
4306.348610906778049
 21
182.4352013186914974
 31
0.0
  0
LINE
  5
A409
  8
0
 10
4306.3539594381782081
 20
182.4550219515315916
 30
0.0
 11
4306.3539594381782081
 21
182.5323123285330098
 31
0.0
  0
LINE
  5
A40A
  8
0
 10
4306.3486779721170024
 20
182.5520172934365917
 30
0.0
 11
4306.326046997868616
 21
182.5912021215625884
 31
0.0
  0
ARC
  5
A40B
  8
0
 10
4306.2678093288041055
 20
182.3747061566589878
 30
0.0
 40
0.0394
 50
270.0
 51
329.7972288553535805
  0
ARC
  5
A40C
  8
0
 10
4306.3145594381767296
 20
182.4550219515315916
 30
0.0
 40
0.0394
 50
329.7972288553535805
 51
0.0
  0
ARC
  5
A40D
  8
0
 10
4306.3145594381767296
 20
182.5323123285330098
 30
0.0
 40
0.0394
 50
359.9999999999984084
 51
30.0083372887812914
  0
ARC
  5
A40E
  8
0
 10
4306.2919284639292528
 20
182.5714971566590066
 30
0.0
 40
0.0394
 50
30.0083372887798703
 51
90.0
  0
LINE
  5
A40F
  8
0
 10
4306.0942681077203815
 20
182.6617560583113971
 30
0.0
 11
4306.1512905289146147
 21
182.7033701211123002
 31
0.0
  0
LINE
  5
A410
  8
0
 10
4306.150544377350343
 20
183.5649037976774878
 30
0.0
 11
4306.0681693546439419
 21
183.6275621943404133
 31
0.0
  0
ARC
  5
A411
  8
0
 10
4306.0710418948892766
 20
182.6935821959590101
 30
0.0
 40
0.0394
 50
270.0
 51
306.1213777794343969
  0
ARC
  5
A412
  8
0
 10
4298.931863410751248
 20
183.7840681354716139
 30
0.0
 40
7.3116375981315116
 50
351.7073307594187099
 51
357.8990256701814019
  0
ARC
  5
A413
  8
0
 10
4306.1280643160844193
 20
182.7351962587599132
 30
0.0
 40
0.0394
 50
306.1213777794316115
 51
351.7073307594251901
  0
ARC
  5
A414
  8
0
 10
4306.1992123962254482
 20
183.517462796058993
 30
0.0
 40
0.0394
 50
357.8990256701782187
 51
90.0
  0
ARC
  5
A415
  8
0
 10
4306.1743975368990505
 20
183.5962627960589941
 30
0.0
 40
0.0394
 50
232.7416389211811918
 51
270.0
  0
ARC
  5
A416
  8
0
 10
4306.0443161950943249
 20
183.5962031959589922
 30
0.0
 40
0.0394
 50
52.7416389211811207
 51
90.0
  0
LINE
  5
A417
  8
0
 10
4304.5537849763913982
 20
182.4352013186914974
 30
0.0
 11
4306.7613554363915682
 21
182.4352013186914974
 31
0.0
  0
LINE
  5
A418
  8
0
 10
4306.7614225017314311
 20
182.5520172934365917
 30
0.0
 11
4304.5537179110524448
 21
182.5520172934365917
 31
0.0
  0
LINE
  5
A419
  8
0
 10
4304.8200174486919423
 20
182.7033701211123002
 30
0.0
 11
4306.4951229640910242
 21
182.7033701211123002
 31
0.0
  0
LINE
  5
A41A
  8
0
 10
4305.2343418233922421
 20
182.6502971566590077
 30
0.0
 11
4305.2343418233922421
 21
182.6541821959590095
 31
0.0
  0
ARC
  5
A41B
  8
0
 10
4305.1949418233907636
 20
182.6502971566590077
 30
0.0
 40
0.0394
 50
270.0
 51
359.9999999999984084
  0
LINE
  5
A41C
  8
0
 10
4306.0807988123106043
 20
182.6502976850341895
 30
0.0
 11
4306.0807988074611785
 21
182.6541827243341913
 31
0.0
  0
ARC
  5
A41D
  8
0
 10
4306.1201988123111732
 20
182.6502977342227041
 30
0.0
 40
0.0394
 50
180.0000715303226002
 51
270.0000715303274887
  0
LINE
  5
A41E
  8
0
 10
4314.5545711424174442
 20
182.3353061566589872
 30
0.0
 11
4312.5086038383660707
 21
182.3353061566589872
 31
0.0
  0
LINE
  5
A41F
  8
0
 10
4314.5886226110160351
 20
182.3548855238188935
 30
0.0
 11
4314.6353727203913877
 21
182.4352013186914974
 31
0.0
  0
LINE
  5
A420
  8
0
 10
4314.6407212517906373
 20
182.4550219515315916
 30
0.0
 11
4314.6407212517906373
 21
182.5323123285330098
 31
0.0
  0
LINE
  5
A421
  8
0
 10
4314.6354397857303411
 20
182.5520172934365917
 30
0.0
 11
4314.6128088114819548
 21
182.5912021215625884
 31
0.0
  0
LINE
  5
A422
  8
0
 10
4314.578690277541682
 20
182.6108971566590071
 30
0.0
 11
4312.4844847032391044
 21
182.6108971566590071
 31
0.0
  0
LINE
  5
A423
  8
0
 10
4314.2888916140645961
 20
182.6541821959590095
 30
0.0
 11
4312.7742833667161904
 21
182.6541821959590095
 31
0.0
  0
LINE
  5
A424
  8
0
 10
4314.3121178268947915
 20
182.6617560583113971
 30
0.0
 11
4314.3691402480908437
 21
182.7033701211123002
 31
0.0
  0
LINE
  5
A425
  8
0
 10
4314.4170621154016771
 20
183.5568627960589936
 30
0.0
 11
4312.6461128653809283
 21
183.5568627960589936
 31
0.0
  0
LINE
  5
A426
  8
0
 10
4314.3077795339713703
 20
183.5649037976774878
 30
0.0
 11
4314.2254045112640597
 21
183.6275621943404133
 31
0.0
  0
LINE
  5
A427
  8
0
 10
4314.2015513517144427
 20
183.6356031959589927
 30
0.0
 11
4312.8616236290681627
 21
183.6356031959589927
 31
0.0
  0
ARC
  5
A428
  8
0
 10
4314.5545711424174442
 20
182.3747061566589878
 30
0.0
 40
0.0394
 50
270.0
 51
329.7972288553535805
  0
ARC
  5
A429
  8
0
 10
4314.6013212517909778
 20
182.4550219515315916
 30
0.0
 40
0.0394
 50
329.7972288553535805
 51
0.0
  0
ARC
  5
A42A
  8
0
 10
4314.6013212517909778
 20
182.5323123285330098
 30
0.0
 40
0.0394
 50
359.9999999999984084
 51
30.0083372887812914
  0
ARC
  5
A42B
  8
0
 10
4314.578690277541682
 20
182.5714971566590066
 30
0.0
 40
0.0394
 50
30.0083372887798703
 51
90.0
  0
ARC
  5
A42C
  8
0
 10
4314.2888916140645961
 20
182.6935821959590101
 30
0.0
 40
0.0394
 50
270.0
 51
306.1213777794343969
  0
ARC
  5
A42D
  8
0
 10
4307.149713129925658
 20
183.7840681354716139
 30
0.0
 40
7.3116375981315116
 50
351.7073307594187099
 51
357.8990256701814019
  0
ARC
  5
A42E
  8
0
 10
4314.3459140352597387
 20
182.7351962587599132
 30
0.0
 40
0.0394
 50
306.1213777794316115
 51
351.7073307594251901
  0
ARC
  5
A42F
  8
0
 10
4314.4170621154016771
 20
183.517462796058993
 30
0.0
 40
0.0394
 50
357.8990256701782187
 51
90.0
  0
ARC
  5
A430
  8
0
 10
4314.3316326935191682
 20
183.5962627960589941
 30
0.0
 40
0.0394
 50
232.7416389211811918
 51
270.0
  0
ARC
  5
A431
  8
0
 10
4314.2015513517144427
 20
183.5962031959589922
 30
0.0
 40
0.0394
 50
52.7416389211811207
 51
90.0
  0
LINE
  5
A432
  8
0
 10
4314.1758780814034253
 20
182.3548855238188935
 30
0.0
 11
4314.2226281907778684
 21
182.4352013186914974
 31
0.0
  0
LINE
  5
A433
  8
0
 10
4314.2279767221780276
 20
182.4550219515315916
 30
0.0
 11
4314.2279767221780276
 21
182.5323123285330098
 31
0.0
  0
LINE
  5
A434
  8
0
 10
4314.2226952561159123
 20
182.5520172934365917
 30
0.0
 11
4314.200064281869345
 21
182.5912021215625884
 31
0.0
  0
ARC
  5
A435
  8
0
 10
4314.1418266128030155
 20
182.3747061566589878
 30
0.0
 40
0.0394
 50
270.0
 51
329.7972288553535805
  0
ARC
  5
A436
  8
0
 10
4314.1885767221792776
 20
182.4550219515315916
 30
0.0
 40
0.0394
 50
329.7972288553535805
 51
0.0
  0
ARC
  5
A437
  8
0
 10
4314.1885767221792776
 20
182.5323123285330098
 30
0.0
 40
0.0394
 50
359.9999999999984084
 51
30.0083372887812914
  0
ARC
  5
A438
  8
0
 10
4314.1659457479290722
 20
182.5714971566590066
 30
0.0
 40
0.0394
 50
30.0083372887798703
 51
90.0
  0
LINE
  5
A439
  8
0
 10
4313.968285391720201
 20
182.6617560583113971
 30
0.0
 11
4314.0253078129153437
 21
182.7033701211123002
 31
0.0
  0
LINE
  5
A43A
  8
0
 10
4314.024561661351072
 20
183.5649037976774878
 30
0.0
 11
4313.9421866386437614
 21
183.6275621943404133
 31
0.0
  0
ARC
  5
A43B
  8
0
 10
4313.9450591788900056
 20
182.6935821959590101
 30
0.0
 40
0.0394
 50
270.0
 51
306.1213777794343969
  0
ARC
  5
A43C
  8
0
 10
4306.8058806947510675
 20
183.7840681354716139
 30
0.0
 40
7.3116375981315116
 50
351.7073307594187099
 51
357.8990256701814019
  0
ARC
  5
A43D
  8
0
 10
4314.0020816000842387
 20
182.7351962587599132
 30
0.0
 40
0.0394
 50
306.1213777794316115
 51
351.7073307594251901
  0
ARC
  5
A43E
  8
0
 10
4314.0732296802252677
 20
183.517462796058993
 30
0.0
 40
0.0394
 50
357.8990256701782187
 51
90.0
  0
ARC
  5
A43F
  8
0
 10
4314.0484148208988699
 20
183.5962627960589941
 30
0.0
 40
0.0394
 50
232.7416389211811918
 51
270.0
  0
ARC
  5
A440
  8
0
 10
4313.9183334790941444
 20
183.5962031959589922
 30
0.0
 40
0.0394
 50
52.7416389211811207
 51
90.0
  0
LINE
  5
A441
  8
0
 10
4312.4745523697647513
 20
182.3548855238188935
 30
0.0
 11
4312.4278022603912177
 21
182.4352013186914974
 31
0.0
  0
LINE
  5
A442
  8
0
 10
4312.4224537289910586
 20
182.4550219515315916
 30
0.0
 11
4312.4224537289910586
 21
182.5323123285330098
 31
0.0
  0
LINE
  5
A443
  8
0
 10
4312.4277351950522643
 20
182.5520172934365917
 30
0.0
 11
4312.4503661692997412
 21
182.5912021215625884
 31
0.0
  0
LINE
  5
A444
  8
0
 10
4312.7510571538869044
 20
182.6617560583113971
 30
0.0
 11
4312.6940347326908523
 21
182.7033701211123002
 31
0.0
  0
LINE
  5
A445
  8
0
 10
4312.7553954468121447
 20
183.5649037976774878
 30
0.0
 11
4312.8377704695185457
 21
183.6275621943404133
 31
0.0
  0
ARC
  5
A446
  8
0
 10
4312.5086038383660707
 20
182.3747061566589878
 30
0.0
 40
0.0394
 50
210.2027711446463911
 51
270.0
  0
ARC
  5
A447
  8
0
 10
4312.4618537289916276
 20
182.4550219515315916
 30
0.0
 40
0.0394
 50
180.0
 51
210.2027711446463911
  0
ARC
  5
A448
  8
0
 10
4312.4618537289916276
 20
182.5323123285330098
 30
0.0
 40
0.0394
 50
149.9916627112187086
 51
180.0000000000015916
  0
ARC
  5
A449
  8
0
 10
4312.4844847032391044
 20
182.5714971566590066
 30
0.0
 40
0.0394
 50
90.0
 51
149.9916627112201013
  0
ARC
  5
A44A
  8
0
 10
4312.7742833667161904
 20
182.6935821959590101
 30
0.0
 40
0.0394
 50
233.8786222205654894
 51
270.0
  0
ARC
  5
A44B
  8
0
 10
4319.9134618508551284
 20
183.7840681354716139
 30
0.0
 40
7.3116375981315116
 50
182.1009743298185981
 51
188.2926692405812048
  0
ARC
  5
A44C
  8
0
 10
4312.7172609455219572
 20
182.7351962587599132
 30
0.0
 40
0.0394
 50
188.2926692405748099
 51
233.8786222205685021
  0
ARC
  5
A44D
  8
0
 10
4312.6461128653809283
 20
183.517462796058993
 30
0.0
 40
0.0394
 50
90.0
 51
182.1009743298218098
  0
ARC
  5
A44E
  8
0
 10
4312.7315422872616182
 20
183.5962627960589941
 30
0.0
 40
0.0394
 50
270.0
 51
307.2583610788187798
  0
ARC
  5
A44F
  8
0
 10
4312.8616236290681627
 20
183.5962031959589922
 30
0.0
 40
0.0394
 50
90.0
 51
127.258361078818794
  0
LINE
  5
A450
  8
0
 10
4312.8872968993782706
 20
182.3548855238188935
 30
0.0
 11
4312.8405467900038275
 21
182.4352013186914974
 31
0.0
  0
LINE
  5
A451
  8
0
 10
4312.8351982586036684
 20
182.4550219515315916
 30
0.0
 11
4312.8351982586036684
 21
182.5323123285330098
 31
0.0
  0
LINE
  5
A452
  8
0
 10
4312.8404797246648741
 20
182.5520172934365917
 30
0.0
 11
4312.8631106989141699
 21
182.5912021215625884
 31
0.0
  0
ARC
  5
A453
  8
0
 10
4312.92134836797959
 20
182.3747061566589878
 30
0.0
 40
0.0394
 50
210.2027711446463911
 51
270.0
  0
ARC
  5
A454
  8
0
 10
4312.8745982586051468
 20
182.4550219515315916
 30
0.0
 40
0.0394
 50
180.0
 51
210.2027711446463911
  0
ARC
  5
A455
  8
0
 10
4312.8745982586051468
 20
182.5323123285330098
 30
0.0
 40
0.0394
 50
149.9916627112187086
 51
180.0000000000015916
  0
ARC
  5
A456
  8
0
 10
4312.8972292328526237
 20
182.5714971566590066
 30
0.0
 40
0.0394
 50
90.0
 51
149.9916627112201013
  0
LINE
  5
A457
  8
0
 10
4313.0948895890624044
 20
182.6617560583113971
 30
0.0
 11
4313.0378671678663522
 21
182.7033701211123002
 31
0.0
  0
LINE
  5
A458
  8
0
 10
4313.0386133194333524
 20
183.5649037976774878
 30
0.0
 11
4313.120988342138844
 21
183.6275621943404133
 31
0.0
  0
ARC
  5
A459
  8
0
 10
4313.1181158018916904
 20
182.6935821959590101
 30
0.0
 40
0.0394
 50
233.8786222205654894
 51
270.0
  0
ARC
  5
A45A
  8
0
 10
4320.2572942860306284
 20
183.7840681354716139
 30
0.0
 40
7.3116375981315116
 50
182.1009743298185981
 51
188.2926692405812048
  0
ARC
  5
A45B
  8
0
 10
4313.0610933806983667
 20
182.7351962587599132
 30
0.0
 40
0.0394
 50
188.2926692405748099
 51
233.8786222205685021
  0
ARC
  5
A45C
  8
0
 10
4312.9899453005564283
 20
183.517462796058993
 30
0.0
 40
0.0394
 50
90.0
 51
182.1009743298218098
  0
ARC
  5
A45D
  8
0
 10
4313.014760159882826
 20
183.5962627960589941
 30
0.0
 40
0.0394
 50
270.0
 51
307.2583610788187798
  0
ARC
  5
A45E
  8
0
 10
4313.1448415016875515
 20
183.5962031959589922
 30
0.0
 40
0.0394
 50
90.0
 51
127.258361078818794
  0
LINE
  5
A45F
  8
0
 10
4314.6353727203913877
 20
182.4352013186914974
 30
0.0
 11
4312.4278022603912177
 21
182.4352013186914974
 31
0.0
  0
LINE
  5
A460
  8
0
 10
4312.4277351950522643
 20
182.5520172934365917
 30
0.0
 11
4314.6354397857303411
 21
182.5520172934365917
 31
0.0
  0
LINE
  5
A461
  8
0
 10
4314.3691402480908437
 20
182.7033701211123002
 30
0.0
 11
4312.6940347326908523
 21
182.7033701211123002
 31
0.0
  0
LINE
  5
A462
  8
0
 10
4313.9548158733914534
 20
182.6502971566590077
 30
0.0
 11
4313.9548158733914534
 21
182.6541821959590095
 31
0.0
  0
ARC
  5
A463
  8
0
 10
4313.9942158733911128
 20
182.6502971566590077
 30
0.0
 40
0.0394
 50
180.0000000000015916
 51
270.0
  0
LINE
  5
A464
  8
0
 10
4313.1083588844712722
 20
182.6502976850341895
 30
0.0
 11
4313.1083588893216074
 21
182.6541827243341913
 31
0.0
  0
ARC
  5
A465
  8
0
 10
4313.0689588844697937
 20
182.6502977342227041
 30
0.0
 40
0.0394
 50
269.9999284696723976
 51
359.9999284696773998
  0
ENDSEC
  0
EOF
