  0
SECTION
  2
HEADER
  9
$ACADVER
  1
AC1009
  9
$INSBASE
 10
4337.0235285952030608
 20
226.7313674031645121
 30
0.0
  9
$EXTMIN
 10
4330.3670946239271871
 20
226.719072288181593
 30
-0.0015258207003583
  9
$EXTMAX
 10
4338.3105309833699721
 20
236.3102283924752101
 30
0.0000000349246037
  9
$LIMMIN
 10
0.0
 20
0.0
  9
$LIMMAX
 10
11.6929133858000007
 20
8.2677165353999982
  9
$ORTHOMODE
 70
     0
  9
$REGENMODE
 70
     1
  9
$FILLMODE
 70
     1
  9
$QTEXTMODE
 70
     0
  9
$MIRRTEXT
 70
     0
  9
$DRAGMODE
 70
     2
  9
$LTSCALE
 40
0.6431102362
  9
$OSMODE
 70
  3999
  9
$ATTMODE
 70
     1
  9
$TEXTSIZE
 40
0.2
  9
$TRACEWID
 40
0.05
  9
$TEXTSTYLE
  7
STANDARD
  9
$CLAYER
  8
0
  9
$CELTYPE
  6
BYLAYER
  9
$CECOLOR
 62
   256
  9
$DIMSCALE
 40
1.0
  9
$DIMASZ
 40
0.1875
  9
$DIMEXO
 40
0.0625
  9
$DIMDLI
 40
0.4443307087
  9
$DIMRND
 40
0.0
  9
$DIMDLE
 40
0.0
  9
$DIMEXE
 40
0.125
  9
$DIMTP
 40
0.01
  9
$DIMTM
 40
0.01
  9
$DIMTXT
 40
2.0
  9
$DIMCEN
 40
0.1052362205
  9
$DIMTSZ
 40
0.0
  9
$DIMTOL
 70
     1
  9
$DIMLIM
 70
     0
  9
$DIMTIH
 70
     1
  9
$DIMTOH
 70
     1
  9
$DIMSE1
 70
     0
  9
$DIMSE2
 70
     0
  9
$DIMTAD
 70
     0
  9
$DIMZIN
 70
     0
  9
$DIMBLK
  1

  9
$DIMASO
 70
     1
  9
$DIMSHO
 70
     1
  9
$DIMPOST
  1
\X
  9
$DIMAPOST
  1

  9
$DIMALT
 70
     1
  9
$DIMALTD
 70
     2
  9
$DIMALTF
 40
25.3999999999999986
  9
$DIMLFAC
 40
1.0
  9
$DIMTOFL
 70
     0
  9
$DIMTVP
 40
0.0
  9
$DIMTIX
 70
     0
  9
$DIMSOXD
 70
     0
  9
$DIMSAH
 70
     0
  9
$DIMBLK1
  1

  9
$DIMBLK2
  1

  9
$DIMSTYLE
  2
STANDARD
  9
$DIMCLRD
 70
     0
  9
$DIMCLRE
 70
     0
  9
$DIMCLRT
 70
     0
  9
$DIMTFAC
 40
1.0
  9
$DIMGAP
 40
0.09
  9
$LUNITS
 70
     2
  9
$LUPREC
 70
     4
  9
$SKETCHINC
 40
0.1
  9
$FILLETRAD
 40
0.0
  9
$AUNITS
 70
     0
  9
$AUPREC
 70
     0
  9
$MENU
  1
.
  9
$ELEVATION
 40
0.0
  9
$PELEVATION
 40
0.0
  9
$THICKNESS
 40
0.0
  9
$LIMCHECK
 70
     0
  9
$BLIPMODE
 70
     0
  9
$CHAMFERA
 40
0.0
  9
$CHAMFERB
 40
0.0
  9
$SKPOLY
 70
     0
  9
$TDCREATE
 40
2458060.468368056230247
  9
$TDUPDATE
 40
2460166.3760185190476477
  9
$TDINDWG
 40
0.4266390046
  9
$TDUSRTIMER
 40
0.4266390046
  9
$USRTIMER
 70
     1
  9
$ANGBASE
 50
0.0
  9
$ANGDIR
 70
     0
  9
$PDMODE
 70
     0
  9
$PDSIZE
 40
0.3125
  9
$PLINEWID
 40
0.0
  9
$COORDS
 70
     1
  9
$SPLFRAME
 70
     0
  9
$SPLINETYPE
 70
     6
  9
$SPLINESEGS
 70
     8
  9
$ATTDIA
 70
     1
  9
$ATTREQ
 70
     1
  9
$HANDLING
 70
     1
  9
$HANDSEED
  5
A849
  9
$SURFTAB1
 70
     6
  9
$SURFTAB2
 70
     6
  9
$SURFTYPE
 70
     6
  9
$SURFU
 70
     6
  9
$SURFV
 70
     6
  9
$UCSNAME
  2

  9
$UCSORG
 10
0.0
 20
0.0
 30
0.0
  9
$UCSXDIR
 10
1.0
 20
0.0
 30
0.0
  9
$UCSYDIR
 10
0.0
 20
1.0
 30
0.0
  9
$PUCSNAME
  2

  9
$PUCSORG
 10
0.0
 20
0.0
 30
0.0
  9
$PUCSXDIR
 10
1.0
 20
0.0
 30
0.0
  9
$PUCSYDIR
 10
0.0
 20
1.0
 30
0.0
  9
$USERI1
 70
     0
  9
$USERI2
 70
     0
  9
$USERI3
 70
     0
  9
$USERI4
 70
     0
  9
$USERI5
 70
     0
  9
$USERR1
 40
0.0
  9
$USERR2
 40
0.0
  9
$USERR3
 40
0.0
  9
$USERR4
 40
0.0
  9
$USERR5
 40
0.0
  9
$WORLDVIEW
 70
     1
  9
$SHADEDGE
 70
     3
  9
$SHADEDIF
 70
    70
  9
$TILEMODE
 70
     1
  9
$MAXACTVP
 70
    64
  9
$PLIMCHECK
 70
     0
  9
$PEXTMIN
 10
1.0000000000000000E+20
 20
1.0000000000000000E+20
 30
1.0000000000000000E+20
  9
$PEXTMAX
 10
-1.0000000000000000E+20
 20
-1.0000000000000000E+20
 30
-1.0000000000000000E+20
  9
$PLIMMIN
 10
0.0
 20
0.0
  9
$PLIMMAX
 10
12.0
 20
9.0
  9
$UNITMODE
 70
     0
  9
$VISRETAIN
 70
     1
  9
$PLINEGEN
 70
     0
  9
$PSLTSCALE
 70
     1
  0
ENDSEC
  0
SECTION
  2
TABLES
  0
TABLE
  2
VPORT
 70
     1
  0
VPORT
  2
*ACTIVE
 70
     0
 10
0.0
 20
0.0
 11
1.0
 21
1.0
 12
530.7947454208360796
 22
105.5193881435783965
 13
0.0
 23
0.0
 14
1.0
 24
1.0
 15
0.0
 25
0.0
 16
0.0
 26
0.0
 36
17.1152628219792007
 17
3803.5440673828129547
 27
125.9952621967499056
 37
0.0
 40
9.6615929912284741
 41
2.3419117647058818
 42
50.0
 43
0.0
 44
0.0
 50
0.0
 51
0.0
 71
     0
 72
   100
 73
     1
 74
     1
 75
     0
 76
     0
 77
     0
 78
     0
  0
ENDTAB
  0
TABLE
  2
LTYPE
 70
     2
  0
LTYPE
  2
CONTINUOUS
 70
     0
  3
Solid line
 72
    65
 73
     0
 40
0.0
  0
LTYPE
  2
PHANTOM2
 70
     0
  3
___ _ _ ___ _ _ ___ _ _ ___ _ _
 72
    65
 73
     6
 40
1.25
 49
0.625
 49
-0.125
 49
0.125
 49
-0.125
 49
0.125
 49
-0.125
  0
ENDTAB
  0
TABLE
  2
LAYER
 70
     2
  0
LAYER
  2
0
 70
     0
 62
   255
  6
CONTINUOUS
  0
LAYER
  2
DEFPOINTS
 70
     0
 62
     7
  6
CONTINUOUS
  0
ENDTAB
  0
TABLE
  2
STYLE
 70
     1
  0
STYLE
  2
STANDARD
 70
     0
 40
0.0
 41
0.8
 50
0.0
 71
     0
 42
0.2
  3
txt
  4

  0
ENDTAB
  0
TABLE
  2
VIEW
 70
     0
  0
ENDTAB
  0
TABLE
  2
UCS
 70
     0
  0
ENDTAB
  0
TABLE
  2
APPID
 70
     9
  0
APPID
  2
ACAD
 70
     0
  0
APPID
  2
ACAD_MLEADERVER
 70
     0
  0
APPID
  2
ACAD_EXEMPT_FROM_CAD_STANDARDS
 70
     0
  0
APPID
  2
ACAD_NAV_VCDISPLAY
 70
     0
  0
APPID
  2
ACAECLAYERSTANDARD
 70
     0
  0
APPID
  2
ACCMTRANSPARENCY
 70
     0
  0
APPID
  2
ACAD_DSTYLE_DIMJAG
 70
     0
  0
APPID
  2
ACAD_DSTYLE_DIMTALN
 70
     0
  0
APPID
  2
ACDBATTR
 70
     0
  0
ENDTAB
  0
TABLE
  2
DIMSTYLE
 70
     1
  0
DIMSTYLE
  2
STANDARD
 70
     0
  3

  4

  5

  6

  7

 40
1.0
 41
0.1875
 42
0.0625
 43
0.38
 44
0.125
 45
0.0
 46
0.0
 47
0.01
 48
0.01
140
0.15625
141
0.09
142
0.0
143
25.3999999999999986
144
1.0
145
0.0
146
1.0
147
0.09
 71
     1
 72
     0
 73
     1
 74
     1
 75
     0
 76
     0
 77
     0
 78
     4
170
     0
171
     2
172
     0
173
     0
174
     0
175
     0
176
     0
177
     0
178
     0
  0
ENDTAB
  0
ENDSEC
  0
SECTION
  2
BLOCKS
  0
BLOCK
  8
0
  2
$MODEL_SPACE
 70
     0
 10
0.0
 20
0.0
 30
0.0
  3
$MODEL_SPACE
  1

  0
ENDBLK
  5
21
  8
0
  0
BLOCK
 67
     1
  8
0
  2
$PAPER_SPACE
 70
     0
 10
0.0
 20
0.0
 30
0.0
  3
$PAPER_SPACE
  1

  0
ENDBLK
  5
1D
 67
     1
  8
0
  0
ENDSEC
  0
SECTION
  2
ENTITIES
  0
ATTDEF
  5
3930
  8
DEFPOINTS
 10
4337.020548654070808
 20
226.735994465142511
 30
0.0
 40
0.001
  1
K-EX27100T-9
  3

  2
MODELNUMBER
 70
     0
1001
ACDBATTR
1070
     0
1070
     1
  0
ATTDEF
  5
3931
  8
DEFPOINTS
 10
4337.020548654070808
 20
226.734327798475789
 30
0.0
 40
0.001
  1
OCCASION
  3

  2
TRADENAME
 70
     0
1001
ACDBATTR
1070
     0
1070
     1
  0
ATTDEF
  5
3932
  8
DEFPOINTS
 10
4337.020548654070808
 20
226.7326611318090954
 30
0.0
 40
0.001
  1
BATHROOM SINK FAUCET
  3

  2
PRODUCT
 70
     0
1001
ACDBATTR
1070
     0
1070
     1
  0
LINE
  5
A4CD
  8
0
 10
4335.9725340160266569
 20
226.7313674031645121
 30
0.0
 11
4338.0745228137120648
 21
226.7313674031645121
 31
0.0
  0
LINE
  5
A4CE
  8
0
 10
4330.5635333410546082
 20
232.8112880777345879
 30
0.0
 11
4331.3782236460001513
 21
232.8112880777345879
 31
0.0
  0
LINE
  5
A4CF
  8
0
 10
4335.9362661209979706
 20
226.7553726056619894
 30
0.0
 11
4335.8746109873345631
 21
226.9006232725064933
 31
0.0
  0
ARC
  5
A4D0
  8
0
 10
4334.8587027578423658
 20
228.2407417283041013
 30
0.0
 40
1.652335017035037
 50
308.45874025888088
 51
321.1560976948539974
  0
ARC
  5
A4D1
  8
0
 10
4334.3319296600529924
 20
228.2942121066832044
 30
0.0
 40
2.1591237950418449
 50
353.0155957107497784
 51
357.3616380316863115
  0
ARC
  5
A4D2
  8
0
 10
4324.4638396662949162
 20
228.7489403847725953
 30
0.0
 40
12.0376853265504309
 50
357.3616380316863115
 51
359.5747617346971197
  0
ARC
  5
A4D3
  8
0
 10
4259.2938449915909587
 20
229.0574486579635902
 30
0.0
 40
77.2083735145897947
 50
359.7047579262084014
 51
0.0358196091646571
  0
LINE
  5
A4D4
  8
0
 10
4336.5022034182120478
 20
229.1057170227090012
 30
0.0
 11
4336.5022034182120478
 21
232.8112876634149018
 31
0.0
  0
ARC
  5
A4D5
  8
0
 10
4335.9725340160266569
 20
226.7707674031645126
 30
0.0
 40
0.0394
 50
202.9999858450512136
 51
270.0
  0
ARC
  5
A4D6
  8
0
 10
4335.9108788823650684
 20
226.9160180700089882
 30
0.0
 40
0.0394
 50
128.4587402588331031
 51
202.9999858450707109
  0
LINE
  5
A4D7
  8
0
 10
4336.5512197627112982
 20
228.4784510582902897
 30
0.0
 11
4336.5512197627112982
 21
232.8112915955767903
 31
0.0
  0
ARC
  5
A4D8
  8
0
 10
4334.9573035377161432
 20
228.1506607272976055
 30
0.0
 40
1.587561099345983
 50
313.9112720509060068
 51
319.2534280965653011
  0
ARC
  5
A4D9
  8
0
 10
4333.4804828690030263
 20
228.3507413948192095
 30
0.0
 40
3.0653908831395169
 50
354.025252084426711
 51
358.9873968124728094
  0
ARC
  5
A4DA
  8
0
 10
4342.8894318324310007
 20
228.1844372817990063
 30
0.0
 40
6.3450276864250323
 50
177.3440962513255101
 51
178.9873968124726957
  0
LINE
  5
A4DB
  8
0
 10
4338.1104690464890155
 20
226.7546358084132976
 30
0.0
 11
4338.1746764253748552
 21
226.8977100821662987
 31
0.0
  0
ARC
  5
A4DC
  8
0
 10
4339.3845638613411211
 20
228.6644526434997999
 30
0.0
 40
2.1092601142310738
 50
224.2184476112958009
 51
234.5621964215617936
  0
ARC
  5
A4DD
  8
0
 10
4389.9255501101051777
 20
228.9688934286845949
 30
0.0
 40
52.4558478886578428
 50
179.8818808886177862
 51
180.5855180051082982
  0
LINE
  5
A4DE
  8
0
 10
4337.4698136916640578
 20
229.077034618210206
 30
0.0
 11
4337.4698136916640578
 21
232.809765480539113
 31
0.0
  0
ARC
  5
A4DF
  8
0
 10
4338.0745228137120648
 20
226.7707674031645126
 30
0.0
 40
0.0394
 50
270.0
 51
335.8308825956460737
  0
ARC
  5
A4E0
  8
0
 10
4338.138730192598814
 20
226.9138416769174
 30
0.0
 40
0.0394
 50
335.8308825956718806
 51
54.5621964215655524
  0
LINE
  5
A4E1
  8
0
 10
4337.5038021250484235
 20
228.588319709857501
 30
0.0
 11
4337.4281409773693667
 21
228.2132221647941037
 31
0.0
  0
ARC
  5
A4E2
  8
0
 10
4337.743795069328371
 20
228.9901645621700936
 30
0.0
 40
0.8618173740646543
 50
253.2740497029406015
 51
258.7089667407122988
  0
ARC
  5
A4E3
  8
0
 10
4337.5906697484479082
 20
228.4806098919515875
 30
0.0
 40
0.3297522221932728
 50
245.3580531934769056
 51
253.2740497029406015
  0
ARC
  5
A4E4
  8
0
 10
4337.4812041018140008
 20
228.2419779123316914
 30
0.0
 40
0.0672108930843234
 50
229.2869801383604056
 51
245.3580531934769056
  0
ARC
  5
A4E5
  8
0
 10
4337.4553624878017217
 20
228.2119480701900045
 30
0.0
 40
0.0275929623740013
 50
198.3019605915995101
 51
229.2869801383594108
  0
ARC
  5
A4E6
  8
0
 10
4337.451222551320825
 20
228.2105787599433029
 30
0.0
 40
0.0232324481121649
 50
173.4666957000270884
 51
198.3019605915995101
  0
ARC
  5
A4E7
  8
0
 10
4337.5501884798040919
 20
228.0227190232845942
 30
0.0
 40
0.6248017233517004
 50
78.5780450860551127
 51
81.7839367289272019
  0
ARC
  5
A4E8
  8
0
 10
4337.5819125041116422
 20
228.2424321453308949
 30
0.0
 40
0.402810125047497
 50
81.7839367289272019
 51
86.8120348841519842
  0
ARC
  5
A4E9
  8
0
 10
4337.5972420351918117
 20
228.5176581374707041
 30
0.0
 40
0.1271575515561105
 50
86.8120348841519842
 51
95.3202601807775238
  0
ARC
  5
A4EA
  8
0
 10
4337.589109543289851
 20
228.6049879816040118
 30
0.0
 40
0.0394498603261705
 50
95.3202601807775238
 51
124.5228721561927046
  0
LINE
  5
A4EB
  8
0
 10
4337.5135476176701559
 20
228.6029085392264051
 30
0.0
 11
4337.5667519196604189
 21
228.6374907221872945
 31
0.0
  0
ARC
  5
A4EC
  8
0
 10
4337.5271224927173535
 20
228.5832909179771093
 30
0.0
 40
0.0238564099567117
 50
124.6822095818871929
 51
167.8311039426311879
  0
LINE
  5
A4ED
  8
0
 10
4337.8125830437502373
 20
228.526035328107497
 30
0.0
 11
4337.73692189607209
 21
228.1509377830440997
 31
0.0
  0
ARC
  5
A4EE
  8
0
 10
4337.7471305340450272
 20
228.9894917636090952
 30
0.0
 40
0.8618173740646541
 50
258.482750323851576
 51
263.9176673616200901
  0
ARC
  5
A4EF
  8
0
 10
4337.6907542627568546
 20
228.4604217853722048
 30
0.0
 40
0.3297522221932727
 50
263.9176673616200901
 51
271.833663871114311
  0
ARC
  5
A4F0
  8
0
 10
4337.6991550625925811
 20
228.198014895118888
 30
0.0
 40
0.0672108930843234
 50
271.833663871114311
 51
287.9047369262125926
  0
ARC
  5
A4F1
  8
0
 10
4337.7113350126019213
 20
228.1603157008098037
 30
0.0
 40
0.0275929623740013
 50
287.9047369262131042
 51
318.8897564729771261
  0
ARC
  5
A4F2
  8
0
 10
4337.7146204239861618
 20
228.1574486192527047
 30
0.0
 40
0.0232324481121649
 50
318.8897564729771261
 51
343.7250213645560848
  0
ARC
  5
A4F3
  8
0
 10
4337.5505693152999811
 20
228.0226422047317101
 30
0.0
 40
0.6248017233517001
 50
75.407780335635195
 51
78.613671978184982
  0
ARC
  5
A4F4
  8
0
 10
4337.6064974231148881
 20
228.2374731067774007
 30
0.0
 40
0.402810125047497
 50
70.3796821804226767
 51
75.407780335635195
  0
ARC
  5
A4F5
  8
0
 10
4337.6990575918462127
 20
228.4971208613160059
 30
0.0
 40
0.1271575515561105
 50
61.8714568837707475
 51
70.3796821804226767
  0
ARC
  5
A4F6
  8
0
 10
4337.7404074945361572
 20
228.5744695823680104
 30
0.0
 40
0.0394498603261705
 50
32.6688449083954424
 51
61.871456883771522
  0
LINE
  5
A4F7
  8
0
 10
4337.8092549221983063
 20
228.5432612439246896
 30
0.0
 11
4337.773616561248673
 21
228.5957639329758138
 31
0.0
  0
ARC
  5
A4F8
  8
0
 10
4337.789136757374763
 20
228.5304398656764135
 30
0.0
 40
0.0238564099567117
 50
349.3606131219515873
 51
32.5095074827038673
  0
LINE
  5
A4F9
  8
0
 10
4337.6408239565143958
 20
228.0316644424644892
 30
0.0
 11
4337.6610644896118174
 21
228.1320088663023
 31
0.0
  0
LINE
  5
A4FA
  8
0
 10
4337.4600903579266742
 20
228.0316644424644892
 30
0.0
 11
4337.487473935277194
 21
228.1674212073135948
 31
0.0
  0
ARC
  5
A4FB
  8
0
 10
4337.5733792882392663
 20
228.6368957812914005
 30
0.0
 40
0.0050592429227345
 50
158.6987762498359871
 51
247.3777443898059119
  0
ARC
  5
A4FC
  8
0
 10
4337.6816836427196904
 20
228.8450719589143034
 30
0.0
 40
0.2397053275902135
 50
242.6166716190103045
 51
254.5827736609678027
  0
ARC
  5
A4FD
  8
0
 10
4337.8046890836540115
 20
229.2911165442158961
 30
0.0
 40
0.7023997305995452
 50
254.5827736609678027
 51
264.3123648267663839
  0
ARC
  5
A4FE
  8
0
 10
4337.7496392295688565
 20
228.7383811784507088
 30
0.0
 40
0.1469297755143666
 50
264.3123648267663839
 51
275.9163760948002846
  0
ARC
  5
A4FF
  8
0
 10
4337.7631608721321754
 20
228.607899697392412
 30
0.0
 40
0.0157495494252366
 50
275.916376094800512
 51
302.0337867153994011
  0
ARC
  5
A500
  8
0
 10
4337.7700796572808031
 20
228.5966587936484018
 30
0.0
 40
0.002552227299693
 50
304.2139692493382199
 51
16.1427003165282912
  0
ARC
  5
A501
  8
0
 10
4337.517909051530296
 20
228.5934321640457085
 30
0.0
 40
0.0156862473148188
 50
203.7984025961634984
 51
240.2550967919216021
  0
ARC
  5
A502
  8
0
 10
4337.6627149214737074
 20
228.8697568494096117
 30
0.0
 40
0.3276443885114784
 50
242.2435880607027059
 51
256.0672167044775165
  0
ARC
  5
A503
  8
0
 10
4337.8463370193749142
 20
229.4974317741126981
 30
0.0
 40
0.981439399518339
 50
254.4857526171786049
 51
264.9232309539108883
  0
ARC
  5
A504
  8
0
 10
4337.7779040406758213
 20
228.7114110365207864
 30
0.0
 40
0.1924515618864061
 50
264.509164424491928
 51
277.698661008635213
  0
ARC
  5
A505
  8
0
 10
4337.8002835827974195
 20
228.5384355146109954
 30
0.0
 40
0.0180645488349319
 50
280.8545498352697791
 51
312.0275879020849743
  0
ARC
  5
A506
  8
0
 10
4333.9780833954064292
 20
232.8112876634149018
 30
0.0
 40
2.5241200228058869
 50
0.0000094047705282
 51
178.3010849672488121
  0
ARC
  5
A507
  8
0
 10
4333.9783082583080613
 20
232.8115092499334935
 30
0.0
 40
2.572911513609887
 50
359.9951530878631729
 51
178.3670438443178909
  0
ARC
  5
A508
  8
0
 10
4333.9781101462122024
 20
232.8113125583300018
 30
0.0
 40
3.4917038881854472
 50
359.9746138178571755
 51
178.7511628624235129
  0
LINE
  5
A509
  8
0
 10
4331.4432228087998737
 20
232.8591055100515916
 30
0.0
 11
4331.4057562144462281
 21
232.8225044357633919
 31
0.0
  0
LINE
  5
A50A
  8
0
 10
4331.3660731392119487
 20
232.8248169288548013
 30
0.0
 11
4331.3967736827253248
 21
232.8600801057941112
 31
0.0
  0
LINE
  5
A50B
  8
0
 10
4330.4991676224190087
 20
232.8582984686505881
 30
0.0
 11
4330.5360746784072035
 21
232.8224324261649087
 31
0.0
  0
ARC
  5
A50C
  8
0
 10
4330.5266262850673229
 20
232.8865541202202962
 30
0.0
 40
0.0394
 50
178.75116286243491
 51
225.8195557612943958
  0
ARC
  5
A50D
  8
0
 10
4330.5635333410546082
 20
232.8506880777345884
 30
0.0
 40
0.0394
 50
225.8195557612966979
 51
270.0
  0
ARC
  5
A50E
  8
0
 10
4331.415690240353797
 20
232.8872891520227881
 30
0.0
 40
0.0394
 50
314.3304988434513234
 51
358.3010849672342033
  0
ARC
  5
A50F
  8
0
 10
4331.3782236460001513
 20
232.8506880777345884
 30
0.0
 40
0.0394
 50
270.0
 51
314.3304988434479128
  0
ARC
  5
A510
  8
0
 10
4331.3363570887404421
 20
232.8506880777345884
 30
0.0
 40
0.0394
 50
270.0
 51
318.9567799382808175
  0
ARC
  5
A511
  8
0
 10
4331.3670576322529087
 20
232.8859512546738131
 30
0.0
 40
0.0394
 50
318.9567799382696762
 51
358.3670438443569992
  0
LINE
  5
A512
  8
0
 10
4337.1299038871729863
 20
232.811288955216213
 30
0.0
 11
4337.1299038871729863
 21
228.0316644424644892
 31
0.0
  0
ARC
  5
A513
  8
0
 10
4333.9780829706232907
 20
232.811288955216213
 30
0.0
 40
3.1518209165502018
 50
0.0
 51
178.8148911335879916
  0
LINE
  5
A514
  8
0
 10
4330.8286424577654543
 20
232.8641651804182118
 30
0.0
 11
4330.8362611935153836
 21
232.8391914180822084
 31
0.0
  0
ARC
  5
A515
  8
0
 10
4330.866327823849133
 20
232.8756618400705918
 30
0.0
 40
0.0394
 50
178.8148911335586888
 51
196.9653543428991043
  0
ARC
  5
A516
  8
0
 10
4330.8739465595981528
 20
232.8506880777345884
 30
0.0
 40
0.0394
 50
196.9653543428991043
 51
270.0
  0
LINE
  5
A517
  8
0
 10
4335.8861814245501591
 20
226.9467165321449045
 30
0.0
 11
4338.1604883402906125
 21
226.9467165321449045
 31
0.0
  0
LINE
  5
A519
  8
0
 10
4331.4432228087998737
 20
232.8591055100515916
 30
0.0
 11
4330.4991676224190087
 21
232.8582984686505881
 31
0.0
  0
ARC
  5
A51A
  8
0
 10
4331.0047797988845559
 20
233.150876013486311
 30
0.0
 40
0.351505872721925
 50
274.95848336745388
 51
284.9625858610269233
  0
ARC
  5
A51B
  8
0
 10
4331.0174967971643127
 20
233.1561472780315967
 30
0.0
 40
0.3544222288969942
 50
277.307473670288914
 51
278.4542739586830749
  0
ARC
  5
A51C
  8
0
 10
-212477.7411055100092199
 20
232.8082301054834033
 30
0.0
 40
216808.803682684811065
 50
359.9999990416591231
 51
0.0000003824498433
  0
ARC
  5
A51D
  8
0
 10
4330.9725442192029732
 20
233.1730562135984997
 30
0.0
 40
0.3743663481197507
 50
283.9157134515259031
 51
284.8574119628947869
  0
LINE
  5
A51E
  8
0
 10
4331.0314314396628106
 20
232.8046315456055027
 30
0.0
 11
4331.0314314396628106
 21
232.8112880777345879
 31
0.0
  0
ARC
  5
A51F
  8
0
 10
4331.0354289983888521
 20
232.804674470727889
 30
0.0
 40
0.0039977891800278
 50
180.6152089308170048
 51
266.1678878818987073
  0
ARC
  5
A520
  8
0
 10
4330.9756803034797485
 20
233.150876013486311
 30
0.0
 40
0.351505872721925
 50
255.0374141389731051
 51
265.04151663254612
  0
ARC
  5
A521
  8
0
 10
4330.9629633052018107
 20
233.1561472780315967
 30
0.0
 40
0.3544222288969942
 50
261.5457260413169251
 51
262.692526329711086
  0
ARC
  5
A522
  8
0
 10
221139.7215656123880763
 20
232.8082301054834033
 30
0.0
 40
216808.803682684811065
 50
179.9999996175500883
 51
180.0000009583409053
  0
ARC
  5
A523
  8
0
 10
4331.0079158831613313
 20
233.1730562135984997
 30
0.0
 40
0.3743663481197507
 50
255.1425880371052983
 51
256.0842865484742106
  0
LINE
  5
A524
  8
0
 10
4330.9490286627024034
 20
232.8046315456055027
 30
0.0
 11
4330.9490286627024034
 21
232.8112880777345879
 31
0.0
  0
ARC
  5
A525
  8
0
 10
4330.9450311039772714
 20
232.804674470727889
 30
0.0
 40
0.0039977891800278
 50
273.8321121181012927
 51
359.3847910691829952
  0
LINE
  5
A526
  8
0
 10
4335.9675517142677563
 20
226.7509465957544137
 30
0.0
 11
4335.9208016048924037
 21
226.8312625651969938
 31
0.0
  0
LINE
  5
A527
  8
0
 10
4335.9154530734922446
 20
226.8510831980370881
 30
0.0
 11
4335.9154530734922446
 21
226.9283735750385063
 31
0.0
  0
LINE
  5
A528
  8
0
 10
4335.9207345395534503
 20
226.9480785399420881
 30
0.0
 11
4335.9433655138009271
 21
226.9872633680681133
 31
0.0
  0
LINE
  5
A529
  8
0
 10
4335.9774840477411999
 20
227.0069584031645036
 30
0.0
 11
4338.0658067369440687
 21
227.0069584031645036
 31
0.0
  0
LINE
  5
A52A
  8
0
 10
4336.2526975860882885
 20
227.050243442464506
 30
0.0
 11
4337.7673058334357847
 21
227.050243442464506
 31
0.0
  0
LINE
  5
A52B
  8
0
 10
4336.2294713732571836
 20
227.0578173048168935
 30
0.0
 11
4336.1724489520629504
 21
227.0994313676177967
 31
0.0
  0
LINE
  5
A52C
  8
0
 10
4336.1245270847512074
 20
227.95292404256449
 30
0.0
 11
4337.8954763347719563
 21
227.95292404256449
 31
0.0
  0
LINE
  5
A52D
  8
0
 10
4336.2338096661833333
 20
227.9609650441830127
 30
0.0
 11
4336.3161846888897344
 21
228.0236234408459097
 31
0.0
  0
LINE
  5
A52E
  8
0
 10
4336.3400378484393514
 20
228.0316644424644892
 30
0.0
 11
4337.6799655710838124
 21
228.0316644424644892
 31
0.0
  0
ARC
  5
A52F
  8
0
 10
4336.0016031828672567
 20
226.7707672285943943
 30
0.0
 40
0.0394
 50
210.2027711446463911
 51
270.0
  0
ARC
  5
A530
  8
0
 10
4335.9548530734919041
 20
226.8510831980370881
 30
0.0
 40
0.0394
 50
180.0
 51
210.2027711446463911
  0
ARC
  5
A531
  8
0
 10
4335.9548530734919041
 20
226.9283735750385063
 30
0.0
 40
0.0394
 50
149.9916627112187086
 51
180.0000000000015916
  0
ARC
  5
A532
  8
0
 10
4335.9774840477411999
 20
226.967558403164503
 30
0.0
 40
0.0394
 50
90.0
 51
149.9916627112201013
  0
ARC
  5
A533
  8
0
 10
4336.2526975860882885
 20
227.0896434424645065
 30
0.0
 40
0.0394
 50
233.8786222205654894
 51
270.0
  0
ARC
  5
A534
  8
0
 10
4343.3918760702263171
 20
228.1801293819771104
 30
0.0
 40
7.3116375981315116
 50
182.1009743298185981
 51
188.2926692405812048
  0
ARC
  5
A535
  8
0
 10
4336.1956751648931458
 20
227.1312575052654097
 30
0.0
 40
0.0394
 50
188.2926692405748099
 51
233.8786222205685021
  0
ARC
  5
A536
  8
0
 10
4336.1245270847512074
 20
227.9135240425644895
 30
0.0
 40
0.0394
 50
90.0
 51
182.1009743298218098
  0
ARC
  5
A537
  8
0
 10
4336.2099565066328068
 20
227.9923240425644906
 30
0.0
 40
0.0394
 50
270.0
 51
307.2583610788187798
  0
ARC
  5
A538
  8
0
 10
4336.3400378484393514
 20
227.9922644424644886
 30
0.0
 40
0.0394
 50
90.0
 51
127.258361078818794
  0
LINE
  5
A539
  8
0
 10
4336.0660655827414303
 20
226.7509465957544137
 30
0.0
 11
4336.0193154733669871
 21
226.8312625651969938
 31
0.0
  0
LINE
  5
A53A
  8
0
 10
4336.0139669419659185
 20
226.8510831980370881
 30
0.0
 11
4336.0139669419659185
 21
226.9283735750385063
 31
0.0
  0
LINE
  5
A53B
  8
0
 10
4336.0192484080271242
 20
226.9480785399420881
 30
0.0
 11
4336.0418793822773296
 21
226.9872633680681133
 31
0.0
  0
ARC
  5
A53C
  8
0
 10
4336.1001170513418401
 20
226.7707672285943943
 30
0.0
 40
0.0394
 50
210.2027711446463911
 51
270.0
  0
ARC
  5
A53D
  8
0
 10
4336.053366941967397
 20
226.8510831980370881
 30
0.0
 40
0.0394
 50
180.0
 51
210.2027711446463911
  0
ARC
  5
A53E
  8
0
 10
4336.053366941967397
 20
226.9283735750385063
 30
0.0
 40
0.0394
 50
149.9916627112187086
 51
180.0000000000015916
  0
ARC
  5
A53F
  8
0
 10
4336.0759979162157833
 20
226.967558403164503
 30
0.0
 40
0.0394
 50
90.0
 51
149.9916627112201013
  0
LINE
  5
A540
  8
0
 10
4336.3176163167699997
 20
227.0578173048168935
 30
0.0
 11
4336.260593895574857
 21
227.0994313676177967
 31
0.0
  0
LINE
  5
A541
  8
0
 10
4336.2966112573549253
 20
227.9609650441830127
 30
0.0
 11
4336.3789862800613264
 21
228.0236234408459097
 31
0.0
  0
ARC
  5
A542
  8
0
 10
4336.3408425296001951
 20
227.0896434424645065
 30
0.0
 40
0.0394
 50
233.8786222205654894
 51
270.0
  0
ARC
  5
A543
  8
0
 10
4343.4800210137382237
 20
228.1801293819771104
 30
0.0
 40
7.3116375981315116
 50
182.1009743298185981
 51
188.2926692405812048
  0
ARC
  5
A544
  8
0
 10
4336.2838201084050525
 20
227.1312575052654097
 30
0.0
 40
0.0394
 50
188.2926692405748099
 51
233.8786222205685021
  0
ARC
  5
A545
  8
0
 10
4336.212672028263114
 20
227.9135240425644895
 30
0.0
 40
0.0394
 50
90.0
 51
182.1009743298218098
  0
ARC
  5
A546
  8
0
 10
4336.2727580978053084
 20
227.9923240425644906
 30
0.0
 40
0.0394
 50
270.0
 51
307.2583610788187798
  0
ARC
  5
A547
  8
0
 10
4336.4028394396100339
 20
227.9922644424644886
 30
0.0
 40
0.0394
 50
90.0
 51
127.258361078818794
  0
LINE
  5
A548
  8
0
 10
4338.0757390704184218
 20
226.7509465957544137
 30
0.0
 11
4338.1224891797919554
 21
226.8312625651969938
 31
0.0
  0
LINE
  5
A549
  8
0
 10
4338.127837711193024
 20
226.8510831980370881
 30
0.0
 11
4338.127837711193024
 21
226.9283735750385063
 31
0.0
  0
LINE
  5
A54A
  8
0
 10
4338.1225562451309088
 20
226.9480785399420881
 30
0.0
 11
4338.0999252708834319
 21
226.9872633680681133
 31
0.0
  0
LINE
  5
A54B
  8
0
 10
4337.7905320462659802
 20
227.0578173048168935
 30
0.0
 11
4337.8475544674611228
 21
227.0994313676177967
 31
0.0
  0
LINE
  5
A54C
  8
0
 10
4337.7861937533398304
 20
227.9609650441830127
 30
0.0
 11
4337.7038187306343389
 21
228.0236234408459097
 31
0.0
  0
ARC
  5
A54D
  8
0
 10
4338.0416876018180119
 20
226.7707672285943943
 30
0.0
 40
0.0394
 50
270.0
 51
329.7972288553535805
  0
ARC
  5
A54E
  8
0
 10
4338.0884377111915455
 20
226.8510831980370881
 30
0.0
 40
0.0394
 50
329.7972288553535805
 51
0.0
  0
ARC
  5
A54F
  8
0
 10
4338.0884377111915455
 20
226.9283735750385063
 30
0.0
 40
0.0394
 50
359.9999999999984084
 51
30.0083372887812914
  0
ARC
  5
A550
  8
0
 10
4338.0658067369440687
 20
226.967558403164503
 30
0.0
 40
0.0394
 50
30.0083372887798703
 51
90.0
  0
ARC
  5
A551
  8
0
 10
4337.7673058334357847
 20
227.0896434424645065
 30
0.0
 40
0.0394
 50
270.0
 51
306.1213777794343969
  0
ARC
  5
A552
  8
0
 10
4330.6281273492977562
 20
228.1801293819771104
 30
0.0
 40
7.3116375981315116
 50
351.7073307594187099
 51
357.8990256701814019
  0
ARC
  5
A553
  8
0
 10
4337.8243282546300179
 20
227.1312575052654097
 30
0.0
 40
0.0394
 50
306.1213777794316115
 51
351.7073307594251901
  0
ARC
  5
A554
  8
0
 10
4337.8954763347719563
 20
227.9135240425644895
 30
0.0
 40
0.0394
 50
357.8990256701782187
 51
90.0
  0
ARC
  5
A555
  8
0
 10
4337.8100469128903569
 20
227.9923240425644906
 30
0.0
 40
0.0394
 50
232.7416389211811918
 51
270.0
  0
ARC
  5
A556
  8
0
 10
4337.6799655710838124
 20
227.9922644424644886
 30
0.0
 40
0.0394
 50
52.7416389211811207
 51
90.0
  0
LINE
  5
A557
  8
0
 10
4337.2891678890373441
 20
226.7509465957544137
 30
0.0
 11
4337.3359179984117873
 21
226.8312625651969938
 31
0.0
  0
LINE
  5
A558
  8
0
 10
4337.3412665298119464
 20
226.8510831980370881
 30
0.0
 11
4337.3412665298119464
 21
226.9283735750385063
 31
0.0
  0
LINE
  5
A559
  8
0
 10
4337.3359850637507407
 20
226.9480785399420881
 30
0.0
 11
4337.3133540895032638
 21
226.9872633680681133
 31
0.0
  0
ARC
  5
A55A
  8
0
 10
4337.2551164204378438
 20
226.7707672285943943
 30
0.0
 40
0.0394
 50
270.0
 51
329.7972288553535805
  0
ARC
  5
A55B
  8
0
 10
4337.3018665298122869
 20
226.8510831980370881
 30
0.0
 40
0.0394
 50
329.7972288553535805
 51
0.0
  0
ARC
  5
A55C
  8
0
 10
4337.3018665298122869
 20
226.9283735750385063
 30
0.0
 40
0.0394
 50
359.9999999999984084
 51
30.0083372887812914
  0
ARC
  5
A55D
  8
0
 10
4337.2792355555639006
 20
226.967558403164503
 30
0.0
 40
0.0394
 50
30.0083372887798703
 51
90.0
  0
LINE
  5
A55E
  8
0
 10
4337.1380596610124485
 20
227.0578173048168935
 30
0.0
 11
4337.1950820822075912
 21
227.0994313676177967
 31
0.0
  0
LINE
  5
A55F
  8
0
 10
4337.1943359306424099
 20
227.9609650441830127
 30
0.0
 11
4337.1119609079350994
 21
228.0236234408459097
 31
0.0
  0
ARC
  5
A560
  8
0
 10
4337.1148334481822531
 20
227.0896434424645065
 30
0.0
 40
0.0394
 50
270.0
 51
306.1213777794343969
  0
ARC
  5
A561
  8
0
 10
4329.9756549640442245
 20
228.1801293819771104
 30
0.0
 40
7.3116375981315116
 50
351.7073307594187099
 51
357.8990256701814019
  0
ARC
  5
A562
  8
0
 10
4337.1718558693755767
 20
227.1312575052654097
 30
0.0
 40
0.0394
 50
306.1213777794316115
 51
351.7073307594251901
  0
ARC
  5
A563
  8
0
 10
4337.2430039495184246
 20
227.9135240425644895
 30
0.0
 40
0.0394
 50
357.8990256701782187
 51
90.0
  0
ARC
  5
A564
  8
0
 10
4337.2181890901920269
 20
227.9923240425644906
 30
0.0
 40
0.0394
 50
232.7416389211811918
 51
270.0
  0
ARC
  5
A565
  8
0
 10
4337.0881077483863919
 20
227.9922644424644886
 30
0.0
 40
0.0394
 50
52.7416389211811207
 51
90.0
  0
LINE
  5
A566
  8
0
 10
4335.9208016048924037
 20
226.8312625651969938
 30
0.0
 11
4338.1224891797919554
 21
226.8312625651969938
 31
0.0
  0
LINE
  5
A567
  8
0
 10
4338.1225562451309088
 20
226.9480785399420881
 30
0.0
 11
4335.9207345395534503
 21
226.9480785399420881
 31
0.0
  0
LINE
  5
A568
  8
0
 10
4335.9433655138009271
 20
226.9872633680681133
 30
0.0
 11
4338.0999252708834319
 21
226.9872633680681133
 31
0.0
  0
LINE
  5
A569
  8
0
 10
4335.9675517142677563
 20
226.7509465957544137
 30
0.0
 11
4338.0757390704184218
 21
226.7509465957544137
 31
0.0
  0
ARC
  5
A56A
  8
0
 10
4337.4274124968324031
 20
227.0464543112180138
 30
0.0
 40
0.0395233594142647
 50
174.4985652936225904
 51
267.8644104689824985
  0
ARC
  5
A56B
  8
0
 10
4336.5021048310927654
 20
227.0463284818644922
 30
0.0
 40
0.0393700787000139
 50
270.0
 51
5.7069240715956546
  0
LINE
  5
A56C
  8
0
 10
4337.8475544674611228
 20
227.0994313676177967
 30
0.0
 11
4336.1724489520629504
 21
227.0994313676177967
 31
0.0
  0
ENDSEC
  0
EOF
