  0
SECTION
  2
HEADER
  9
$ACADVER
  1
AC1009
  9
$INSBASE
 10
4317.7187683955989996
 20
182.0560408823253056
 30
0.0
  9
$EXTMIN
 10
4310.8685701138483637
 20
182.0560408823253056
 30
0.0
  9
$EXTMAX
 10
4324.5689666773487261
 20
187.7644281106753112
 30
0.0
  9
$LIMMIN
 10
0.0
 20
0.0
  9
$LIMMAX
 10
11.6929133858000007
 20
8.2677165353999982
  9
$ORTHOMODE
 70
     0
  9
$REGENMODE
 70
     1
  9
$FILLMODE
 70
     1
  9
$QTEXTMODE
 70
     0
  9
$MIRRTEXT
 70
     0
  9
$DRAGMODE
 70
     2
  9
$LTSCALE
 40
0.6431102362
  9
$OSMODE
 70
  4095
  9
$ATTMODE
 70
     1
  9
$TEXTSIZE
 40
0.2
  9
$TRACEWID
 40
0.05
  9
$TEXTSTYLE
  7
STANDARD
  9
$CLAYER
  8
0
  9
$CELTYPE
  6
BYLAYER
  9
$CECOLOR
 62
   256
  9
$DIMSCALE
 40
1.0
  9
$DIMASZ
 40
0.1875
  9
$DIMEXO
 40
0.0625
  9
$DIMDLI
 40
0.4443307087
  9
$DIMRND
 40
0.0
  9
$DIMDLE
 40
0.0
  9
$DIMEXE
 40
0.125
  9
$DIMTP
 40
0.01
  9
$DIMTM
 40
0.01
  9
$DIMTXT
 40
2.0
  9
$DIMCEN
 40
0.1052362205
  9
$DIMTSZ
 40
0.0
  9
$DIMTOL
 70
     1
  9
$DIMLIM
 70
     0
  9
$DIMTIH
 70
     1
  9
$DIMTOH
 70
     1
  9
$DIMSE1
 70
     0
  9
$DIMSE2
 70
     0
  9
$DIMTAD
 70
     0
  9
$DIMZIN
 70
     0
  9
$DIMBLK
  1

  9
$DIMASO
 70
     1
  9
$DIMSHO
 70
     1
  9
$DIMPOST
  1
\X
  9
$DIMAPOST
  1

  9
$DIMALT
 70
     1
  9
$DIMALTD
 70
     2
  9
$DIMALTF
 40
25.3999999999999986
  9
$DIMLFAC
 40
1.0
  9
$DIMTOFL
 70
     0
  9
$DIMTVP
 40
0.0
  9
$DIMTIX
 70
     0
  9
$DIMSOXD
 70
     0
  9
$DIMSAH
 70
     0
  9
$DIMBLK1
  1

  9
$DIMBLK2
  1

  9
$DIMSTYLE
  2
STANDARD
  9
$DIMCLRD
 70
     0
  9
$DIMCLRE
 70
     0
  9
$DIMCLRT
 70
     0
  9
$DIMTFAC
 40
1.0
  9
$DIMGAP
 40
0.09
  9
$LUNITS
 70
     2
  9
$LUPREC
 70
     4
  9
$SKETCHINC
 40
0.1
  9
$FILLETRAD
 40
0.0
  9
$AUNITS
 70
     0
  9
$AUPREC
 70
     0
  9
$MENU
  1
.
  9
$ELEVATION
 40
0.0
  9
$PELEVATION
 40
0.0
  9
$THICKNESS
 40
0.0
  9
$LIMCHECK
 70
     0
  9
$BLIPMODE
 70
     0
  9
$CHAMFERA
 40
0.0
  9
$CHAMFERB
 40
0.0
  9
$SKPOLY
 70
     0
  9
$TDCREATE
 40
2458060.468368056230247
  9
$TDUPDATE
 40
2459455.8018865738995373
  9
$TDINDWG
 40
0.4221366898
  9
$TDUSRTIMER
 40
0.4221366898
  9
$USRTIMER
 70
     1
  9
$ANGBASE
 50
0.0
  9
$ANGDIR
 70
     0
  9
$PDMODE
 70
     0
  9
$PDSIZE
 40
0.3125
  9
$PLINEWID
 40
0.0
  9
$COORDS
 70
     1
  9
$SPLFRAME
 70
     0
  9
$SPLINETYPE
 70
     6
  9
$SPLINESEGS
 70
     8
  9
$ATTDIA
 70
     1
  9
$ATTREQ
 70
     1
  9
$HANDLING
 70
     1
  9
$HANDSEED
  5
ACC6
  9
$SURFTAB1
 70
     6
  9
$SURFTAB2
 70
     6
  9
$SURFTYPE
 70
     6
  9
$SURFU
 70
     6
  9
$SURFV
 70
     6
  9
$UCSNAME
  2

  9
$UCSORG
 10
0.0
 20
0.0
 30
0.0
  9
$UCSXDIR
 10
1.0
 20
0.0
 30
0.0
  9
$UCSYDIR
 10
0.0
 20
1.0
 30
0.0
  9
$PUCSNAME
  2

  9
$PUCSORG
 10
0.0
 20
0.0
 30
0.0
  9
$PUCSXDIR
 10
1.0
 20
0.0
 30
0.0
  9
$PUCSYDIR
 10
0.0
 20
1.0
 30
0.0
  9
$USERI1
 70
     0
  9
$USERI2
 70
     0
  9
$USERI3
 70
     0
  9
$USERI4
 70
     0
  9
$USERI5
 70
     0
  9
$USERR1
 40
0.0
  9
$USERR2
 40
0.0
  9
$USERR3
 40
0.0
  9
$USERR4
 40
0.0
  9
$USERR5
 40
0.0
  9
$WORLDVIEW
 70
     1
  9
$SHADEDGE
 70
     3
  9
$SHADEDIF
 70
    70
  9
$TILEMODE
 70
     1
  9
$MAXACTVP
 70
    64
  9
$PLIMCHECK
 70
     0
  9
$PEXTMIN
 10
1.0000000000000000E+20
 20
1.0000000000000000E+20
 30
1.0000000000000000E+20
  9
$PEXTMAX
 10
-1.0000000000000000E+20
 20
-1.0000000000000000E+20
 30
-1.0000000000000000E+20
  9
$PLIMMIN
 10
0.0
 20
0.0
  9
$PLIMMAX
 10
12.0
 20
9.0
  9
$UNITMODE
 70
     0
  9
$VISRETAIN
 70
     1
  9
$PLINEGEN
 70
     0
  9
$PSLTSCALE
 70
     1
  0
ENDSEC
  0
SECTION
  2
TABLES
  0
TABLE
  2
VPORT
 70
     1
  0
VPORT
  2
*ACTIVE
 70
     0
 10
0.0
 20
0.0
 11
1.0
 21
1.0
 12
514.1576799661261248
 22
59.6687915335340406
 13
0.0
 23
0.0
 14
1.0
 24
1.0
 15
0.0
 25
0.0
 16
0.0
 26
0.0
 36
17.1152628219792007
 17
3803.5440673828129547
 27
125.9952621967499056
 37
0.0
 40
6.9842051136190957
 41
2.3493253373313339
 42
50.0
 43
0.0
 44
0.0
 50
0.0
 51
0.0
 71
     0
 72
   100
 73
     1
 74
     1
 75
     0
 76
     0
 77
     0
 78
     0
  0
ENDTAB
  0
TABLE
  2
LTYPE
 70
     2
  0
LTYPE
  2
CONTINUOUS
 70
     0
  3
Solid line
 72
    65
 73
     0
 40
0.0
  0
LTYPE
  2
PHANTOM2
 70
     0
  3
___ _ _ ___ _ _ ___ _ _ ___ _ _
 72
    65
 73
     6
 40
1.25
 49
0.625
 49
-0.125
 49
0.125
 49
-0.125
 49
0.125
 49
-0.125
  0
ENDTAB
  0
TABLE
  2
LAYER
 70
     2
  0
LAYER
  2
0
 70
     0
 62
   255
  6
CONTINUOUS
  0
LAYER
  2
DEFPOINTS
 70
     0
 62
     7
  6
CONTINUOUS
  0
ENDTAB
  0
TABLE
  2
STYLE
 70
     1
  0
STYLE
  2
STANDARD
 70
     0
 40
0.0
 41
0.8
 50
0.0
 71
     0
 42
0.2
  3
txt
  4

  0
ENDTAB
  0
TABLE
  2
VIEW
 70
     0
  0
ENDTAB
  0
TABLE
  2
UCS
 70
     0
  0
ENDTAB
  0
TABLE
  2
APPID
 70
     9
  0
APPID
  2
ACAD
 70
     0
  0
APPID
  2
ACAD_MLEADERVER
 70
     0
  0
APPID
  2
ACAD_EXEMPT_FROM_CAD_STANDARDS
 70
     0
  0
APPID
  2
ACAD_NAV_VCDISPLAY
 70
     0
  0
APPID
  2
ACAECLAYERSTANDARD
 70
     0
  0
APPID
  2
ACCMTRANSPARENCY
 70
     0
  0
APPID
  2
ACAD_DSTYLE_DIMJAG
 70
     0
  0
APPID
  2
ACAD_DSTYLE_DIMTALN
 70
     0
  0
APPID
  2
ACDBATTR
 70
     0
  0
ENDTAB
  0
TABLE
  2
DIMSTYLE
 70
     1
  0
DIMSTYLE
  2
STANDARD
 70
     0
  3

  4

  5

  6

  7

 40
1.0
 41
0.1875
 42
0.0625
 43
0.38
 44
0.125
 45
0.0
 46
0.0
 47
0.01
 48
0.01
140
0.15625
141
0.09
142
0.0
143
25.3999999999999986
144
1.0
145
0.0
146
1.0
147
0.09
 71
     1
 72
     0
 73
     1
 74
     1
 75
     0
 76
     0
 77
     0
 78
     4
170
     0
171
     2
172
     0
173
     0
174
     0
175
     0
176
     0
177
     0
178
     0
  0
ENDTAB
  0
ENDSEC
  0
SECTION
  2
BLOCKS
  0
BLOCK
  8
0
  2
$MODEL_SPACE
 70
     0
 10
0.0
 20
0.0
 30
0.0
  3
$MODEL_SPACE
  1

  0
ENDBLK
  5
21
  8
0
  0
BLOCK
 67
     1
  8
0
  2
$PAPER_SPACE
 70
     0
 10
0.0
 20
0.0
 30
0.0
  3
$PAPER_SPACE
  1

  0
ENDBLK
  5
1D
 67
     1
  8
0
  0
ENDSEC
  0
SECTION
  2
ENTITIES
  0
ATTDEF
  5
3930
  8
DEFPOINTS
 10
4317.715605342264098
 20
182.060956031473097
 30
0.0
 40
0.001
  1
K-EX27101K-4
  3

  2
MODELNUMBER
 70
     0
1001
ACDBATTR
1070
     0
1070
     1
  0
ATTDEF
  5
3931
  8
DEFPOINTS
 10
4317.715605342264098
 20
182.0592893648064035
 30
0.0
 40
0.001
  1

  3

  2
TRADENAME
 70
     0
1001
ACDBATTR
1070
     0
1070
     1
  0
ATTDEF
  5
3932
  8
DEFPOINTS
 10
4317.715605342264098
 20
182.0576226981397951
 30
0.0
 40
0.001
  1
BATHROOM SINK FAUCET
  3

  2
PRODUCT
 70
     0
1001
ACDBATTR
1070
     0
1070
     1
  0
LINE
  5
A7FA
  8
0
 10
4316.6639954504953494
 20
182.0560408823253056
 30
0.0
 11
4318.7735413407026499
 21
182.0560408823253056
 31
0.0
  0
LINE
  5
A7FB
  8
0
 10
4316.5662031145520814
 20
182.2240419242585006
 30
0.0
 11
4316.6277640147618513
 21
182.0799604732634123
 31
0.0
  0
LINE
  5
A7FC
  8
0
 10
4317.2362757946539205
 20
183.9307231775115099
 30
0.0
 11
4317.2362757946539205
 21
187.4029492358797881
 31
0.0
  0
ARC
  5
A7FD
  8
0
 10
4315.581421604733805
 20
183.6438357507140893
 30
0.0
 40
1.6968498694760761
 50
306.0192094109480081
 51
318.4328291575554886
  0
ARC
  5
A7FE
  8
0
 10
4315.8041662825098683
 20
183.4463018872272926
 30
0.0
 40
1.3991338660401029
 50
318.4328291575554886
 51
339.0097774282589853
  0
ARC
  5
A7FF
  8
0
 10
4315.5272298922636764
 20
183.552553588608788
 30
0.0
 40
1.695753468037384
 50
339.0097774282589853
 51
357.3613583071655171
  0
ARC
  5
A800
  8
0
 10
4299.6677062114840737
 20
184.2834487859904868
 30
0.0
 40
17.572110076869091
 50
357.3613583071655171
 51
358.8498224731918071
  0
ARC
  5
A801
  8
0
 10
4316.60243455028467
 20
182.2395223333203944
 30
0.0
 40
0.0394
 50
126.0192094109479939
 51
203.1353023700388007
  0
ARC
  5
A802
  8
0
 10
4316.6639954504953494
 20
182.0954408823253061
 30
0.0
 40
0.0394
 50
203.1353023700388007
 51
270.0
  0
ARC
  5
A803
  8
0
 10
4317.9588218937997226
 20
186.9289140139360939
 30
0.0
 40
0.8709034482320406
 50
106.7717264039896037
 51
145.2432111023258017
  0
ARC
  5
A804
  8
0
 10
4317.2756757946553989
 20
187.4029492358797881
 30
0.0
 40
0.0394
 50
145.2432111023688037
 51
180.0
  0
LINE
  5
A805
  8
0
 10
4317.4145352500490844
 20
183.9307231775115099
 30
0.0
 11
4317.4145352500490844
 21
186.0375502412400976
 31
0.0
  0
ARC
  5
A806
  8
0
 10
4299.8459656668783282
 20
184.2834487859904868
 30
0.0
 40
17.572110076869091
 50
357.3613583071655171
 51
358.8498224731918071
  0
ARC
  5
A807
  8
0
 10
4315.2452196451431519
 20
183.462266939750009
 30
0.0
 40
2.1542599033737551
 50
348.971205348958506
 51
0.3250041230507733
  0
ARC
  5
A808
  8
0
 10
4315.3172534975628878
 20
183.4482274043116945
 30
0.0
 40
2.0808706367897161
 50
335.4488981181294207
 51
348.971205348958506
  0
ARC
  5
A809
  8
0
 10
4316.0398138090058637
 20
183.1181590905349879
 30
0.0
 40
1.286491322208738
 50
318.7041856673989741
 51
335.4488981181279996
  0
LINE
  5
A80A
  8
0
 10
4317.0368787009738298
 20
182.0853819727014979
 30
0.0
 11
4316.9978779955135906
 21
182.2330824674264989
 31
0.0
  0
ARC
  5
A80B
  8
0
 10
4317.0749730356856162
 20
182.0954408823253061
 30
0.0
 40
0.0394
 50
194.7914970801477068
 51
270.0
  0
ARC
  5
A80C
  8
0
 10
4317.0359723302262864
 20
182.243141377050307
 30
0.0
 40
0.0394
 50
138.7041856673646123
 51
194.79149708015089
  0
ARC
  5
A80D
  8
0
 10
4317.7193011434756045
 20
187.7217682823902862
 30
0.0
 40
0.0426631547076939
 50
90.7154885404744675
 51
106.0377652248389069
  0
LINE
  5
A80E
  8
0
 10
4318.8713336766450084
 20
182.2240419242585006
 30
0.0
 11
4318.8097727764352385
 21
182.0799604732634123
 31
0.0
  0
LINE
  5
A80F
  8
0
 10
4318.2012609965422598
 20
183.9398191898744983
 30
0.0
 11
4318.2012609965422598
 21
187.4029492358797881
 31
0.0
  0
ARC
  5
A810
  8
0
 10
4319.8561151864641943
 20
183.6438357507140893
 30
0.0
 40
1.6968498694760761
 50
221.5671708424445114
 51
233.9807905890519919
  0
ARC
  5
A811
  8
0
 10
4319.6333705086872214
 20
183.4463018872272926
 30
0.0
 40
1.3991338660401029
 50
200.990222571740901
 51
221.5671708424445114
  0
ARC
  5
A812
  8
0
 10
4319.9103068989334133
 20
183.552553588608788
 30
0.0
 40
1.695753468037384
 50
182.6386416928343976
 51
200.990222571740901
  0
ARC
  5
A813
  8
0
 10
4338.4862994880058977
 20
184.3647357433725915
 30
0.0
 40
20.2894884281888217
 50
181.2000157259220998
 51
182.5147945533213942
  0
ARC
  5
A814
  8
0
 10
4318.8351022409124198
 20
182.2395223333203944
 30
0.0
 40
0.0394
 50
336.8646976299610856
 51
53.9807905890519635
  0
ARC
  5
A815
  8
0
 10
4318.7735413407026499
 20
182.0954408823253061
 30
0.0
 40
0.0394
 50
270.0
 51
336.8646976299610856
  0
ARC
  5
A816
  8
0
 10
4317.4787148973955482
 20
186.9289140139360939
 30
0.0
 40
0.8709034482320406
 50
34.7567888976729122
 51
73.2282735960104105
  0
ARC
  5
A817
  8
0
 10
4318.1618609965416908
 20
187.4029492358797881
 30
0.0
 40
0.0394
 50
0.0
 51
34.7567888976311608
  0
ARC
  5
A818
  8
0
 10
4335.5915711243196711
 20
184.2834487859904868
 30
0.0
 40
17.572110076869091
 50
181.1501775268081929
 51
182.6386416928343976
  0
ARC
  5
A819
  8
0
 10
4320.1923171460539379
 20
183.462266939750009
 30
0.0
 40
2.1542599033737551
 50
179.6749958769491968
 51
191.028794651041494
  0
ARC
  5
A81A
  8
0
 10
4320.1202832936351115
 20
183.4482274043116945
 30
0.0
 40
2.0808706367897161
 50
191.028794651041494
 51
204.5511018818706077
  0
ARC
  5
A81B
  8
0
 10
4319.3977229821903165
 20
183.1181590905349879
 30
0.0
 40
1.286491322208738
 50
204.5511018818706077
 51
221.2958143326009122
  0
LINE
  5
A81C
  8
0
 10
4318.4006580902232599
 20
182.0853819727014979
 30
0.0
 11
4318.4396587956853182
 21
182.2330824674264989
 31
0.0
  0
ARC
  5
A81D
  8
0
 10
4318.3625637555123831
 20
182.0954408823253061
 30
0.0
 40
0.0394
 50
270.0
 51
345.2085029198506732
  0
ARC
  5
A81E
  8
0
 10
4318.4015644609708033
 20
182.243141377050307
 30
0.0
 40
0.0394
 50
345.2085029198474899
 51
41.2958143326009193
  0
ARC
  5
A81F
  8
0
 10
4317.7178382483125461
 20
187.7190694811841922
 30
0.0
 40
0.045368165527061
 50
74.4215181794627654
 51
88.8252280551540991
  0
LINE
  5
A820
  8
0
 10
4316.5792651259052946
 20
182.271389836735608
 30
0.0
 11
4318.8582716652908857
 21
182.271389836735608
 31
0.0
  0
ARC
  5
A822
  8
0
 10
4317.7237605458667531
 20
188.6624615708452097
 30
0.0
 40
2.6572735538587189
 50
264.4431955948031145
 51
269.8923598555002172
  0
ARC
  5
A823
  8
0
 10
4317.4699435532147618
 20
186.0677911076838882
 30
0.0
 40
0.0502373507806984
 50
248.781651985582613
 51
266.0123009888794172
  0
ARC
  5
A824
  8
0
 10
4317.6144708096790055
 20
186.4361042425848893
 30
0.0
 40
0.4458918254381774
 50
230.0956059495958925
 51
248.5981037831450067
  0
ARC
  5
A825
  8
0
 10
4317.499161288281357
 20
186.3255071428704923
 30
0.0
 40
0.2876123004584574
 50
208.9185607470973878
 51
233.5853248936379032
  0
ARC
  5
A826
  8
0
 10
4317.3620552007223523
 20
186.2382449928298058
 30
0.0
 40
0.1258098234941599
 50
181.2599413828883996
 51
204.3223977586584112
  0
ARC
  5
A827
  8
0
 10
4317.7447394832843202
 20
187.5487868142749903
 30
0.0
 40
1.53021423167614
 50
264.1532334320395989
 51
269.0275184143901015
  0
ARC
  5
A828
  8
0
 10
4317.6771844492614036
 20
186.7608445726999093
 30
0.0
 40
0.7396045978068693
 50
254.1266865963663975
 51
263.1412346085912191
  0
ARC
  5
A829
  8
0
 10
4317.5538193166612473
 20
186.3270010749785115
 30
0.0
 40
0.2885623199030914
 50
236.8242027854979028
 51
254.1266865963663975
  0
ARC
  5
A82A
  8
0
 10
4317.4321047569683287
 20
186.1408301396351987
 30
0.0
 40
0.0661346885086637
 50
207.7353745251288046
 51
236.8242027854969933
  0
ARC
  5
A82B
  8
0
 10
4317.4062020494502576
 20
186.1272105070619887
 30
0.0
 40
0.0368696129376175
 50
135.9647629486053972
 51
207.7353745251301973
  0
ARC
  5
A82C
  8
0
 10
4317.4948289366193421
 20
186.0415191189931079
 30
0.0
 40
0.1601487235704676
 50
109.0415283999593044
 51
135.9647629486053972
  0
ARC
  5
A82D
  8
0
 10
4317.6446703425490341
 20
185.6494962037465086
 30
0.0
 40
0.5797702550673539
 50
97.5766787758950329
 51
110.3998697567246978
  0
ARC
  5
A82E
  8
0
 10
4317.7101758055659957
 20
185.2482699575577954
 30
0.0
 40
0.9862039822853939
 50
93.1008933593199828
 51
98.2756472255776288
  0
ARC
  5
A82F
  8
0
 10
4317.7408073331362175
 20
184.3137276370399888
 30
0.0
 40
1.921138727241406
 50
90.6573006863735458
 51
92.5053951655666538
  0
ARC
  5
A830
  8
0
 10
4317.6941126865413025
 20
186.7538575340790885
 30
0.0
 40
0.4955408487607179
 50
272.5610452103229022
 51
272.8519376045372269
  0
ARC
  5
A831
  8
0
 10
4317.8331976129002214
 20
184.7953511608934889
 30
0.0
 40
1.4681253607377811
 50
94.568686796986654
 51
110.7684030650223974
  0
ARC
  5
A832
  8
0
 10
4317.4150277332100814
 20
186.1691268991536106
 30
0.0
 40
0.1024200707111574
 50
180.5858113609326097
 51
232.0533458547969019
  0
ARC
  5
A833
  8
0
 10
4317.6272831850674265
 20
186.4192385813310011
 30
0.0
 40
0.430390084356305
 50
230.2451228389622884
 51
249.1947592638935021
  0
ARC
  5
A834
  8
0
 10
4317.3089303544684299
 20
186.2039539235580037
 30
0.0
 40
0.0360627097571587
 50
225.7364942953769003
 51
275.8611626607982998
  0
ARC
  5
A835
  8
0
 10
4317.274155512037396
 20
186.2433180275315863
 30
0.0
 40
0.0379188324921629
 50
182.602673959689497
 51
226.3050540221958045
  0
LINE
  5
A836
  8
0
 10
4317.2837600512975769
 20
186.1781280668753027
 30
0.0
 11
4317.2479604758982532
 21
186.2159016466752917
 31
0.0
  0
ARC
  5
A837
  8
0
 10
4317.7297158495721305
 20
186.1507252672701895
 30
0.0
 40
0.2045176746103377
 50
93.0684039077170269
 51
97.1120723308985987
  0
ARC
  5
A838
  8
0
 10
4317.8230949267062897
 20
184.7514357614174116
 30
0.0
 40
1.606624507796119
 50
94.2369835728824938
 51
111.098669034174705
  0
ARC
  5
A839
  8
0
 10
4317.2495159127965962
 20
186.2360649717768126
 30
0.0
 40
0.0150640084999888
 50
108.443783954931007
 51
151.5078818740927034
  0
ARC
  5
A83A
  8
0
 10
4317.7456528809443626
 20
187.9301005488991052
 30
0.0
 40
1.88669450939092
 50
267.1056659413500824
 51
269.1835351881097722
  0
ARC
  5
A83B
  8
0
 10
4317.7102799638823853
 20
186.9645225842432126
 30
0.0
 40
0.920660086819004
 50
260.3092558384287827
 51
266.2699497554809227
  0
ARC
  5
A83C
  8
0
 10
4317.6478568303282373
 20
186.598976658740014
 30
0.0
 40
0.5498225600572731
 50
250.4703284124881009
 51
260.3092558384287827
  0
ARC
  5
A83D
  8
0
 10
4317.5304663371389324
 20
186.2680209183914997
 30
0.0
 40
0.1986641485664105
 50
231.3695839880629137
 51
250.4703284124886977
  0
ARC
  5
A83E
  8
0
 10
4317.4368571293598507
 20
186.1508862766083041
 30
0.0
 40
0.0487201320578278
 50
198.3856692141324913
 51
231.3695839880639085
  0
ARC
  5
A83F
  8
0
 10
4317.4268625221166076
 20
186.1462907917089922
 30
0.0
 40
0.037805550803252
 50
147.0402140927720041
 51
196.5538405505832031
  0
ARC
  5
A840
  8
0
 10
4317.7434241046576062
 20
186.7538575340790885
 30
0.0
 40
0.4955408487607179
 50
267.1480623954627731
 51
267.4389547896772115
  0
LINE
  5
A841
  8
0
 10
4318.0230015411480053
 20
183.9307231775115099
 30
0.0
 11
4318.0230015411480053
 21
186.0375502412400976
 31
0.0
  0
LINE
  5
A842
  8
0
 10
4317.7187683955989996
 20
187.7644281106753112
 30
0.0
 11
4317.7187683955989996
 21
186.354949733188306
 31
0.0
  0
LINE
  5
A85B
  8
0
 10
4312.7271652743211234
 20
182.0560408823253056
 30
0.0
 11
4314.836355067976001
 21
182.0560408823253056
 31
0.0
  0
LINE
  5
A85C
  8
0
 10
4312.629372938378765
 20
182.2240419242585006
 30
0.0
 11
4312.6909338385876254
 21
182.0799604732634123
 31
0.0
  0
ARC
  5
A85D
  8
0
 10
4311.4507088903701515
 20
184.0178216697713935
 30
0.0
 40
2.114293061049477
 50
304.3087539972034961
 51
314.64986452760661
  0
ARC
  5
A85E
  8
0
 10
4311.5200431476068843
 20
183.925749382078493
 30
0.0
 40
2.000124412884531
 50
315.0904591602812275
 51
330.0925219649705014
  0
ARC
  5
A85F
  8
0
 10
4312.6656043741113535
 20
182.2395223333203944
 30
0.0
 40
0.0394
 50
126.0192094109490029
 51
203.1353023700388007
  0
ARC
  5
A860
  8
0
 10
4312.7271652743211234
 20
182.0954408823253061
 30
0.0
 40
0.0394
 50
203.1353023700388007
 51
270.0
  0
ARC
  5
A861
  8
0
 10
4310.7748162195639452
 20
183.9623828673531989
 30
0.0
 40
2.8729237541933101
 50
331.226921947269318
 51
341.0592030720071079
  0
ARC
  5
A862
  8
0
 10
4311.735158218016295
 20
183.465608592321388
 30
0.0
 40
1.79223468814417
 50
318.1192116482459937
 51
330.3696825174209835
  0
LINE
  5
A863
  8
0
 10
4313.1000485248014229
 20
182.0853819727014979
 30
0.0
 11
4313.0610478193393647
 21
182.2330824674264989
 31
0.0
  0
ARC
  5
A864
  8
0
 10
4313.1381428595132093
 20
182.0954408823253061
 30
0.0
 40
0.0394
 50
194.7914970801477068
 51
270.0
  0
ARC
  5
A865
  8
0
 10
4313.0991421540520605
 20
182.243141377050307
 30
0.0
 40
0.0394
 50
138.7041856673990878
 51
194.79149708015089
  0
LINE
  5
A866
  8
0
 10
4312.6424349497319781
 20
182.271389836735608
 30
0.0
 11
4314.9210853925651463
 21
182.271389836735608
 31
0.0
  0
ARC
  5
A867
  8
0
 10
4311.9234952265505854
 20
183.6926389142863911
 30
0.0
 40
1.5341705523844049
 50
330.1263569701147276
 51
355.5908445564452904
  0
LINE
  5
A868
  8
0
 10
4313.4667599489112035
 20
183.8055295373154081
 30
0.0
 11
4313.4667599489112035
 21
184.359170882325401
 31
0.0
  0
LINE
  5
A869
  8
0
 10
4313.4667599489112035
 20
184.4182559216253026
 30
0.0
 11
4313.4667599489112035
 21
184.7878713995253008
 31
0.0
  0
ARC
  5
A86A
  8
0
 10
4306.0902359603569494
 20
184.1254133244160016
 30
0.0
 40
7.3834566289079948
 50
355.7224370536782203
 51
357.5169178446585079
  0
ARC
  5
A86B
  8
0
 10
4310.7421625993401904
 20
183.7815947320250984
 30
0.0
 40
2.850916752418204
 50
344.7113151150127237
 51
356.0374816226234884
  0
ARC
  5
A86C
  8
0
 10
4308.8202907316963319
 20
183.9147217689113063
 30
0.0
 40
4.777393921655074
 50
356.0374816226234884
 51
1.369132420552241
  0
LINE
  5
A86D
  8
0
 10
4313.4864599489110333
 20
184.3788708823254012
 30
0.0
 11
4314.0770603933860912
 21
184.3788708823254012
 31
0.0
  0
LINE
  5
A86E
  8
0
 10
4313.4864599489110333
 20
184.3985559216253023
 30
0.0
 11
4314.0770603933860912
 21
184.3985559216253023
 31
0.0
  0
ARC
  5
A86F
  8
0
 10
4313.4864599489110333
 20
184.359170882325401
 30
0.0
 40
0.0197
 50
90.0
 51
180.0000000000098055
  0
ARC
  5
A870
  8
0
 10
4313.4864599489110333
 20
184.4182559216253026
 30
0.0
 40
0.0197
 50
179.9999999999951115
 51
270.0
  0
LINE
  5
A871
  8
0
 10
4313.5061693978113908
 20
184.3985559216253023
 30
0.0
 11
4313.5061693978113908
 21
184.3788708823254012
 31
0.0
  0
LINE
  5
A872
  8
0
 10
4314.9341474039201785
 20
182.2240419242585006
 30
0.0
 11
4314.8725865037085896
 21
182.0799604732634123
 31
0.0
  0
ARC
  5
A873
  8
0
 10
4316.1128114519269729
 20
184.0178216697713935
 30
0.0
 40
2.114293061049477
 50
225.35013547239339
 51
235.6912460027965039
  0
ARC
  5
A874
  8
0
 10
4316.0434771946911496
 20
183.925749382078493
 30
0.0
 40
2.000124412884531
 50
209.9074780350294986
 51
224.909540839718801
  0
ARC
  5
A875
  8
0
 10
4314.8979159681848614
 20
182.2395223333203944
 30
0.0
 40
0.0394
 50
336.8646976299610856
 51
53.9807905890510114
  0
ARC
  5
A876
  8
0
 10
4314.836355067976001
 20
182.0954408823253061
 30
0.0
 40
0.0394
 50
270.0
 51
336.8646976299610856
  0
ARC
  5
A877
  8
0
 10
4316.7887041227331792
 20
183.9623828673531989
 30
0.0
 40
2.8729237541933101
 50
198.9407969279928068
 51
208.7730780527307957
  0
ARC
  5
A878
  8
0
 10
4315.8283621242826484
 20
183.465608592321388
 30
0.0
 40
1.79223468814417
 50
209.6303174825789881
 51
221.8807883517528126
  0
LINE
  5
A879
  8
0
 10
4314.463471817496611
 20
182.0853819727014979
 30
0.0
 11
4314.5024725229568503
 21
182.2330824674264989
 31
0.0
  0
ARC
  5
A87A
  8
0
 10
4314.4253774827848247
 20
182.0954408823253061
 30
0.0
 40
0.0394
 50
270.0
 51
345.2085029198506732
  0
ARC
  5
A87B
  8
0
 10
4314.4643781882450639
 20
182.243141377050307
 30
0.0
 40
0.0394
 50
345.2085029198474899
 51
41.2958143326009193
  0
ARC
  5
A87C
  8
0
 10
4315.6400251157456296
 20
183.6926389142863911
 30
0.0
 40
1.5341705523844049
 50
184.4091554435530043
 51
209.8736430298853008
  0
LINE
  5
A87D
  8
0
 10
4314.0967603933850114
 20
183.8055295373154081
 30
0.0
 11
4314.0967603933850114
 21
184.359170882325401
 31
0.0
  0
LINE
  5
A87E
  8
0
 10
4314.0967603933850114
 20
184.4182559216253026
 30
0.0
 11
4314.0967603933850114
 21
184.771991365423105
 31
0.0
  0
ARC
  5
A87F
  8
0
 10
4321.4732843819401751
 20
184.1254133244160016
 30
0.0
 40
7.3834566289079948
 50
182.4830821553414921
 51
184.2775629463218081
  0
ARC
  5
A880
  8
0
 10
4316.8213577429569341
 20
183.7815947320250984
 30
0.0
 40
2.850916752418204
 50
183.9625183773763979
 51
195.2886848849873047
  0
ARC
  5
A881
  8
0
 10
4318.743229610601702
 20
183.9147217689113063
 30
0.0
 40
4.777393921655074
 50
178.6308675794460896
 51
183.9625183773763979
  0
ARC
  5
A882
  8
0
 10
4314.0770603933860912
 20
184.359170882325401
 30
0.0
 40
0.0197
 50
359.9999999999902229
 51
90.0
  0
ARC
  5
A883
  8
0
 10
4314.0770603933860912
 20
184.4182559216253026
 30
0.0
 40
0.0197
 50
270.0
 51
0.0000000000048853
  0
LINE
  5
A884
  8
0
 10
4314.0573509444857336
 20
184.3985559216253023
 30
0.0
 11
4314.0573509444857336
 21
184.3788708823254012
 31
0.0
  0
LINE
  5
A885
  8
0
 10
4313.2667599489122949
 20
184.9878713995252895
 30
0.0
 11
4310.9438907916055541
 21
184.9878713995252895
 31
0.0
  0
LINE
  5
A886
  8
0
 10
4310.8685701138483637
 20
185.0631920566875124
 30
0.0
 11
4310.8685701138483637
 21
185.5183024644387046
 31
0.0
  0
LINE
  5
A887
  8
0
 10
4310.9160307924148583
 20
184.9994113843594903
 30
0.0
 11
4310.8801101146573274
 21
185.0353320415217127
 31
0.0
  0
LINE
  5
A888
  8
0
 10
4313.2711603933848892
 20
185.5975913654229998
 30
0.0
 11
4310.9447333515208811
 21
185.5975913654229998
 31
0.0
  0
LINE
  5
A889
  8
0
 10
4310.915761366976767
 20
185.5848931277529061
 30
0.0
 11
4310.8789981293039091
 21
185.5450042267684978
 31
0.0
  0
LINE
  5
A88A
  8
0
 10
4313.310064209103075
 20
185.3878286968736973
 30
0.0
 11
4310.9320409094707429
 21
185.3878286968736973
 31
0.0
  0
LINE
  5
A88B
  8
0
 10
4310.8953759217538391
 20
185.3776413684900035
 30
0.0
 11
4310.9194467173765588
 21
185.3857616089682949
 31
0.0
  0
LINE
  5
A88C
  8
0
 10
4313.3312347717073862
 20
185.0087829144235059
 30
0.0
 11
4310.94228980778189
 21
185.0087829144235059
 31
0.0
  0
LINE
  5
A88D
  8
0
 10
4310.9162440940135639
 20
185.0186197482479997
 30
0.0
 11
4310.8819244000806066
 21
185.0488560537743865
 31
0.0
  0
ARC
  5
A88E
  8
0
 10
4313.2711603933848892
 20
184.771991365423105
 30
0.0
 40
0.8256
 50
0.0
 51
90.0
  0
ARC
  5
A88F
  8
0
 10
4313.2667599489122949
 20
184.7878713995253008
 30
0.0
 40
0.2
 50
0.0
 51
90.0
  0
LINE
  5
A890
  8
0
 10
4313.5312347717081138
 20
184.8087829144234036
 30
0.0
 11
4313.5312347717081138
 21
184.3985559216253023
 31
0.0
  0
ARC
  5
A891
  8
0
 10
4313.3312347717073862
 20
184.8087829144234036
 30
0.0
 40
0.2
 50
0.0
 51
90.0
  0
LINE
  5
A892
  8
0
 10
4313.8783362018348271
 20
184.8251707068847907
 30
0.0
 11
4313.8825717878207797
 21
184.3985559216253023
 31
0.0
  0
ARC
  5
A893
  8
0
 10
4313.310064209103075
 20
184.8195286968737037
 30
0.0
 40
0.5683
 50
0.5688345453523713
 51
90.0
  0
ARC
  5
A894
  8
0
 10
4310.9438907916055541
 20
185.02727139952529
 30
0.0
 40
0.0394
 50
225.0000164258599114
 51
270.0
  0
ARC
  5
A895
  8
0
 10
4310.94228980778189
 20
185.0481829144235064
 30
0.0
 40
0.0394
 50
228.6193327518030003
 51
270.0
  0
ARC
  5
A896
  8
0
 10
4310.9079701138489327
 20
185.0784192199498079
 30
0.0
 40
0.0394
 50
180.0000000000081002
 51
228.6193327518008118
  0
ARC
  5
A897
  8
0
 10
4310.9079701138489327
 20
185.3403084563954053
 30
0.0
 40
0.0394
 50
108.6417322162055967
 51
180.0
  0
ARC
  5
A898
  8
0
 10
4310.9320409094707429
 20
185.3484286968736967
 30
0.0
 40
0.0394
 50
90.0
 51
108.6417322162055967
  0
ARC
  5
A899
  8
0
 10
4310.9447333515208811
 20
185.5581913654229993
 30
0.0
 40
0.0394
 50
90.0
 51
137.3350705773777918
  0
ARC
  5
A89A
  8
0
 10
4310.9079701138489327
 20
185.5183024644387046
 30
0.0
 40
0.0394
 50
137.3350705773802076
 51
180.0000000000048885
  0
ARC
  5
A89B
  8
0
 10
4310.9079701138489327
 20
185.0631920566875124
 30
0.0
 40
0.0394
 50
179.9999999999967031
 51
225.0000164258632935
  0
LINE
  5
A89C
  8
0
 10
4322.7103715168750568
 20
182.0560408823253056
 30
0.0
 11
4320.6011817232219983
 21
182.0560408823253056
 31
0.0
  0
LINE
  5
A89D
  8
0
 10
4322.8081638528192343
 20
182.2240419242585006
 30
0.0
 11
4322.7466029526103739
 21
182.0799604732634123
 31
0.0
  0
ARC
  5
A89E
  8
0
 10
4323.9868279008269383
 20
184.0178216697713935
 30
0.0
 40
2.114293061049477
 50
225.35013547239339
 51
235.6912460027965039
  0
ARC
  5
A89F
  8
0
 10
4323.9174936435902055
 20
183.925749382078493
 30
0.0
 40
2.000124412884531
 50
209.9074780350294986
 51
224.909540839718801
  0
ARC
  5
A8A0
  8
0
 10
4322.7719324170866457
 20
182.2395223333203944
 30
0.0
 40
0.0394
 50
336.8646976299610856
 51
53.9807905890510114
  0
ARC
  5
A8A1
  8
0
 10
4322.7103715168750568
 20
182.0954408823253061
 30
0.0
 40
0.0394
 50
270.0
 51
336.8646976299610856
  0
ARC
  5
A8A2
  8
0
 10
4324.6627205716331446
 20
183.9623828673531989
 30
0.0
 40
2.8729237541933101
 50
198.9407969279928068
 51
208.7730780527307957
  0
ARC
  5
A8A3
  8
0
 10
4323.7023785731826138
 20
183.465608592321388
 30
0.0
 40
1.79223468814417
 50
209.6303174825789881
 51
221.8807883517528126
  0
LINE
  5
A8A4
  8
0
 10
4322.3374882663983954
 20
182.0853819727014979
 30
0.0
 11
4322.3764889718568156
 21
182.2330824674264989
 31
0.0
  0
ARC
  5
A8A5
  8
0
 10
4322.29939393168479
 20
182.0954408823253061
 30
0.0
 40
0.0394
 50
270.0
 51
345.2085029198506732
  0
ARC
  5
A8A6
  8
0
 10
4322.3383946371450293
 20
182.243141377050307
 30
0.0
 40
0.0394
 50
345.2085029198490815
 51
41.2958143326009193
  0
LINE
  5
A8A7
  8
0
 10
4322.7951018414660211
 20
182.271389836735608
 30
0.0
 11
4320.516451398631034
 21
182.271389836735608
 31
0.0
  0
ARC
  5
A8A8
  8
0
 10
4323.5140415646455949
 20
183.6926389142863911
 30
0.0
 40
1.5341705523844049
 50
184.4091554435530043
 51
209.8736430298853008
  0
LINE
  5
A8A9
  8
0
 10
4321.9707768422849767
 20
183.8055295373154081
 30
0.0
 11
4321.9707768422849767
 21
184.359170882325401
 31
0.0
  0
LINE
  5
A8AA
  8
0
 10
4321.9707768422849767
 20
184.4182559216253026
 30
0.0
 11
4321.9707768422849767
 21
184.7878713995253008
 31
0.0
  0
ARC
  5
A8AB
  8
0
 10
4329.3473008308401404
 20
184.1254133244160016
 30
0.0
 40
7.3834566289079948
 50
182.4830821553414921
 51
184.2775629463218081
  0
ARC
  5
A8AC
  8
0
 10
4324.6953741918578089
 20
183.7815947320250984
 30
0.0
 40
2.850916752418204
 50
183.9625183773763979
 51
195.2886848849873047
  0
ARC
  5
A8AD
  8
0
 10
4326.6172460595007578
 20
183.9147217689113063
 30
0.0
 40
4.777393921655074
 50
178.6308675794460896
 51
183.9625183773763979
  0
LINE
  5
A8AE
  8
0
 10
4321.9510768422860565
 20
184.3788708823254012
 30
0.0
 11
4321.3604763978109986
 21
184.3788708823254012
 31
0.0
  0
LINE
  5
A8AF
  8
0
 10
4321.9510768422860565
 20
184.3985559216253023
 30
0.0
 11
4321.3604763978109986
 21
184.3985559216253023
 31
0.0
  0
ARC
  5
A8B0
  8
0
 10
4321.9510768422860565
 20
184.359170882325401
 30
0.0
 40
0.0197
 50
359.9999999999902229
 51
90.0
  0
ARC
  5
A8B1
  8
0
 10
4321.9510768422860565
 20
184.4182559216253026
 30
0.0
 40
0.0197
 50
270.0
 51
0.0000000000048853
  0
LINE
  5
A8B2
  8
0
 10
4321.9313673933866085
 20
184.3985559216253023
 30
0.0
 11
4321.9313673933866085
 21
184.3788708823254012
 31
0.0
  0
LINE
  5
A8B3
  8
0
 10
4320.5033893872787303
 20
182.2240419242585006
 30
0.0
 11
4320.5649502874875907
 21
182.0799604732634123
 31
0.0
  0
ARC
  5
A8B4
  8
0
 10
4319.3247253392701168
 20
184.0178216697713935
 30
0.0
 40
2.114293061049477
 50
304.3087539972034961
 51
314.64986452760661
  0
ARC
  5
A8B5
  8
0
 10
4319.3940595965068496
 20
183.925749382078493
 30
0.0
 40
2.000124412884531
 50
315.0904591602812275
 51
330.0925219649705014
  0
ARC
  5
A8B6
  8
0
 10
4320.5396208230113189
 20
182.2395223333203944
 30
0.0
 40
0.0394
 50
126.0192094109490029
 51
203.1353023700388007
  0
ARC
  5
A8B7
  8
0
 10
4320.6011817232219983
 20
182.0954408823253061
 30
0.0
 40
0.0394
 50
203.1353023700388007
 51
270.0
  0
ARC
  5
A8B8
  8
0
 10
4318.6488326684639105
 20
183.9623828673531989
 30
0.0
 40
2.8729237541933101
 50
331.226921947269318
 51
341.0592030720071079
  0
ARC
  5
A8B9
  8
0
 10
4319.6091746669153508
 20
183.465608592321388
 30
0.0
 40
1.79223468814417
 50
318.1192116482471874
 51
330.3696825174209835
  0
LINE
  5
A8BA
  8
0
 10
4320.9740649736995692
 20
182.0853819727014979
 30
0.0
 11
4320.9350642682402395
 21
182.2330824674264989
 31
0.0
  0
ARC
  5
A8BB
  8
0
 10
4321.0121593084122651
 20
182.0954408823253061
 30
0.0
 40
0.0394
 50
194.7914970801492984
 51
270.0
  0
ARC
  5
A8BC
  8
0
 10
4320.9731586029520258
 20
182.243141377050307
 30
0.0
 40
0.0394
 50
138.7041856673990878
 51
194.79149708015089
  0
ARC
  5
A8BD
  8
0
 10
4319.7975116754505507
 20
183.6926389142863911
 30
0.0
 40
1.5341705523844049
 50
330.1263569701147276
 51
355.5908445564469957
  0
LINE
  5
A8BE
  8
0
 10
4321.3407763978111689
 20
183.8055295373154081
 30
0.0
 11
4321.3407763978111689
 21
184.359170882325401
 31
0.0
  0
LINE
  5
A8BF
  8
0
 10
4321.3407763978111689
 20
184.4182559216253026
 30
0.0
 11
4321.3407763978111689
 21
184.771991365423105
 31
0.0
  0
ARC
  5
A8C0
  8
0
 10
4313.9642524092569147
 20
184.1254133244160016
 30
0.0
 40
7.3834566289079948
 50
355.7224370536782203
 51
357.5169178446585079
  0
ARC
  5
A8C1
  8
0
 10
4318.6161790482401557
 20
183.7815947320250984
 30
0.0
 40
2.850916752418204
 50
344.7113151150127237
 51
356.0374816226234884
  0
ARC
  5
A8C2
  8
0
 10
4316.6943071805962973
 20
183.9147217689113063
 30
0.0
 40
4.777393921655074
 50
356.0374816226234884
 51
1.369132420552241
  0
ARC
  5
A8C3
  8
0
 10
4321.3604763978109986
 20
184.359170882325401
 30
0.0
 40
0.0197
 50
90.0
 51
180.0000000000098055
  0
ARC
  5
A8C4
  8
0
 10
4321.3604763978109986
 20
184.4182559216253026
 30
0.0
 40
0.0197
 50
179.9999999999951115
 51
270.0
  0
LINE
  5
A8C5
  8
0
 10
4321.3801858467113561
 20
184.3985559216253023
 30
0.0
 11
4321.3801858467113561
 21
184.3788708823254012
 31
0.0
  0
LINE
  5
A8C6
  8
0
 10
4322.1707768422866138
 20
184.9878713995252895
 30
0.0
 11
4324.4936459995906262
 21
184.9878713995252895
 31
0.0
  0
LINE
  5
A8C7
  8
0
 10
4324.5689666773487261
 20
185.0631920566875124
 30
0.0
 11
4324.5689666773487261
 21
185.5183024644387046
 31
0.0
  0
LINE
  5
A8C8
  8
0
 10
4324.5215059987822315
 20
184.9994113843594903
 30
0.0
 11
4324.5574266765397624
 21
185.0353320415217127
 31
0.0
  0
LINE
  5
A8C9
  8
0
 10
4322.1663763978112911
 20
185.5975913654229998
 30
0.0
 11
4324.4928034396762087
 21
185.5975913654229998
 31
0.0
  0
LINE
  5
A8CA
  8
0
 10
4324.5217754242212322
 20
185.5848931277529061
 30
0.0
 11
4324.5585386618940902
 21
185.5450042267684978
 31
0.0
  0
LINE
  5
A8CB
  8
0
 10
4322.1274725820940148
 20
185.3878286968736973
 30
0.0
 11
4324.5054958817263469
 21
185.3878286968736973
 31
0.0
  0
LINE
  5
A8CC
  8
0
 10
4324.5421608694441602
 20
185.3776413684900035
 30
0.0
 11
4324.5180900738214405
 21
185.3857616089682949
 31
0.0
  0
LINE
  5
A8CD
  8
0
 10
4322.1063020194897035
 20
185.0087829144235059
 30
0.0
 11
4324.4952469834151998
 21
185.0087829144235059
 31
0.0
  0
LINE
  5
A8CE
  8
0
 10
4324.5212926971817069
 20
185.0186197482479997
 30
0.0
 11
4324.5556123911155737
 21
185.0488560537743865
 31
0.0
  0
ARC
  5
A8CF
  8
0
 10
4322.1663763978112911
 20
184.771991365423105
 30
0.0
 40
0.8256
 50
90.0
 51
180.0
  0
ARC
  5
A8D0
  8
0
 10
4322.1707768422866138
 20
184.7878713995253008
 30
0.0
 40
0.2
 50
90.0
 51
180.0
  0
LINE
  5
A8D1
  8
0
 10
4321.9063020194898854
 20
184.8087829144234036
 30
0.0
 11
4321.9063020194898854
 21
184.3985559216253023
 31
0.0
  0
ARC
  5
A8D2
  8
0
 10
4322.1063020194897035
 20
184.8087829144234036
 30
0.0
 40
0.2
 50
90.0
 51
180.0
  0
LINE
  5
A8D3
  8
0
 10
4321.5592005893622627
 20
184.8251707068847907
 30
0.0
 11
4321.5549650033754006
 21
184.3985559216253023
 31
0.0
  0
ARC
  5
A8D4
  8
0
 10
4322.1274725820940148
 20
184.8195286968737037
 30
0.0
 40
0.5683
 50
90.0
 51
179.431165454647612
  0
ARC
  5
A8D5
  8
0
 10
4324.4936459995906262
 20
185.02727139952529
 30
0.0
 40
0.0394
 50
270.0
 51
314.9999835741401171
  0
ARC
  5
A8D6
  8
0
 10
4324.4952469834151998
 20
185.0481829144235064
 30
0.0
 40
0.0394
 50
270.0
 51
311.3806672481970281
  0
ARC
  5
A8D7
  8
0
 10
4324.5295666773490666
 20
185.0784192199498079
 30
0.0
 40
0.0394
 50
311.3806672481991882
 51
359.9999999999919282
  0
ARC
  5
A8D8
  8
0
 10
4324.5295666773490666
 20
185.3403084563954053
 30
0.0
 40
0.0394
 50
0.0
 51
71.3582677837943322
  0
ARC
  5
A8D9
  8
0
 10
4324.5054958817263469
 20
185.3484286968736967
 30
0.0
 40
0.0394
 50
71.3582677837943322
 51
90.0
  0
ARC
  5
A8DA
  8
0
 10
4324.4928034396762087
 20
185.5581913654229993
 30
0.0
 40
0.0394
 50
42.6649294226222082
 51
90.0
  0
ARC
  5
A8DB
  8
0
 10
4324.5295666773490666
 20
185.5183024644387046
 30
0.0
 40
0.0394
 50
359.9999999999951115
 51
42.6649294226198208
  0
ARC
  5
A8DC
  8
0
 10
4324.5295666773490666
 20
185.0631920566875124
 30
0.0
 40
0.0394
 50
314.9999835741365928
 51
0.0000000000032569
  0
ARC
  5
A8DD
  8
0
 10
4317.7407028701882155
 20
187.2183997569657947
 30
0.0
 40
1.1435986591938681
 50
265.3120127015096159
 51
268.9009869167448983
  0
ARC
  5
A8DE
  8
0
 10
4317.6989542681403691
 20
186.6631280611910029
 30
0.0
 40
0.5867846371742949
 50
252.9820172291109088
 51
264.9435839446043133
  0
ARC
  5
A8DF
  8
0
 10
4317.5756357588161336
 20
186.2602237122439988
 30
0.0
 40
0.1654304285299065
 50
232.8093172912928139
 51
252.9820172291109088
  0
ARC
  5
A8E0
  8
0
 10
4317.5100263011590869
 20
186.1737572500431952
 30
0.0
 40
0.056889883019705
 50
201.503316294478509
 51
232.8093172912938087
  0
ARC
  5
A8E1
  8
0
 10
4317.4856572570270146
 20
186.1641563988960968
 30
0.0
 40
0.0306977724768323
 50
157.4896340273508031
 51
201.503316294478509
  0
ARC
  5
A8E2
  8
0
 10
4317.5159387064522889
 20
186.1432442066258091
 30
0.0
 40
0.0671244012084944
 50
118.8119810326328007
 51
150.8805767825533053
  0
ARC
  5
A8E3
  8
0
 10
4317.563434490214604
 20
186.0698322290807027
 30
0.0
 40
0.1544643182355334
 50
113.6939744515543964
 51
121.1257967146753032
  0
ARC
  5
A8E4
  8
0
 10
4317.7812656744099513
 20
187.626853517650602
 30
0.0
 40
1.549189285361948
 50
264.7883655165863956
 51
267.6879505069543939
  0
ARC
  5
A8E5
  8
0
 10
4317.7295441685073456
 20
186.7931191901429031
 30
0.0
 40
0.7146142287187424
 50
255.658541545597302
 51
262.8457479710647249
  0
ARC
  5
A8E6
  8
0
 10
4317.5952487016438681
 20
186.2678453761114099
 30
0.0
 40
0.1724446499642292
 50
236.002433741592597
 51
255.658541545597302
  0
ARC
  5
A8E7
  8
0
 10
4317.5274808814292555
 20
186.167366244761098
 30
0.0
 40
0.0512483905598695
 50
205.4899958442204877
 51
236.0024337415916875
  0
ARC
  5
A8E8
  8
0
 10
4317.5064324926897825
 20
186.1539112577380877
 30
0.0
 40
0.0266379231876389
 50
137.4570216801054983
 51
198.8351037022983974
  0
ARC
  5
A8E9
  8
0
 10
4317.5792332528726547
 20
186.0763536413072075
 30
0.0
 40
0.1329514248401596
 50
104.0546445599518961
 51
134.0425343967748972
  0
ARC
  5
A8EA
  8
0
 10
4317.6743530825206108
 20
185.7926351392013089
 30
0.0
 40
0.4319091090108033
 50
98.8421202872226701
 51
107.1566379285483066
  0
ARC
  5
A8EB
  8
0
 10
4317.7134773831276107
 20
185.5502935548149139
 30
0.0
 40
0.6773859705636266
 50
92.3563118282017115
 51
98.9612527672083644
  0
ARC
  5
A8EC
  8
0
 10
4317.7204513216656778
 20
185.3808117627370109
 30
0.0
 40
0.847011185860932
 50
90.1138410283043783
 51
92.3563118282017115
  0
ARC
  5
A8ED
  8
0
 10
4317.7185540019072505
 20
185.4385506672894905
 30
0.0
 40
0.7932245979381479
 50
89.9845140280912261
 51
95.5752850884077247
  0
ARC
  5
A8EE
  8
0
 10
4317.6991102421879987
 20
185.6377381447472885
 30
0.0
 40
0.5930903655639677
 50
95.5752850884077247
 51
104.2756059195233007
  0
ARC
  5
A8EF
  8
0
 10
4317.6127708835037993
 20
185.9770644834634936
 30
0.0
 40
0.2429520371782617
 50
104.2756059195233007
 51
119.7214701943050983
  0
ARC
  5
A8F0
  8
0
 10
4317.5229051941350917
 20
186.1344787183346057
 30
0.0
 40
0.0616923244300898
 50
119.7214701943050983
 51
149.4921477715109006
  0
ARC
  5
A8F1
  8
0
 10
4317.4900689447267723
 20
186.1538268094373905
 30
0.0
 40
0.0235797555773683
 50
149.4921477715095079
 51
213.1551305447632103
  0
ARC
  5
A8F2
  8
0
 10
4317.5275371698344316
 20
186.1783034435246975
 30
0.0
 40
0.0683343476201967
 50
213.1551305447632103
 51
239.7156511595765949
  0
ARC
  5
A8F3
  8
0
 10
4317.5982089453127628
 20
186.2993195683874887
 30
0.0
 40
0.208474999560379
 50
239.7156511595765949
 51
251.9203986106610103
  0
ARC
  5
A8F4
  8
0
 10
4317.9485904639323053
 20
187.3726069985027038
 30
0.0
 40
1.337506937209981
 50
251.9203986106610103
 51
252.9243076638944956
  0
ARC
  5
A8F5
  8
0
 10
4317.585347871594422
 20
186.4259155439640097
 30
0.0
 40
0.3211271515808505
 50
246.4138596951734996
 51
252.3616869920205943
  0
ARC
  5
A8F6
  8
0
 10
4317.4585670391188614
 20
186.1355342373965129
 30
0.0
 40
0.0042759519823821
 50
173.6491570158918023
 51
246.4138596951734996
  0
ARC
  5
A8F7
  8
0
 10
4315.8968883645384267
 20
186.1831311984516901
 30
0.0
 40
1.5581417279611509
 50
358.2668993533595767
 51
0.522917038246783
  0
ARC
  5
A8F8
  8
0
 10
4317.4582980605782723
 20
186.1353043971323018
 30
0.0
 40
0.003960703200842
 50
248.6500498863132975
 51
282.4929811239903756
  0
ARC
  5
A8F9
  8
0
 10
4317.6702792233572836
 20
185.1785645266762117
 30
0.0
 40
0.9759817405648927
 50
101.8637855090194932
 51
102.4929811239903046
  0
LINE
  5
A8FA
  8
0
 10
4317.4549513250749442
 20
186.1674641816264
 30
0.0
 11
4317.4365408533849404
 21
186.1766199283705987
 31
0.0
  0
LINE
  5
A8FB
  8
0
 10
4317.4367019877490748
 20
186.1907467018195916
 30
0.0
 11
4317.4367019877490748
 21
186.1781861890746939
 31
0.0
  0
ARC
  5
A8FC
  8
0
 10
4317.4306004234049396
 20
186.1780224891581952
 30
0.0
 40
0.0061037599157694
 50
272.6834989890846828
 51
1.536829630635038
  0
ARC
  5
A8FD
  8
0
 10
4317.5056546619480287
 20
184.5767003770324948
 30
0.0
 40
1.596976289709241
 50
92.6834989890847538
 51
93.5542016008571835
  0
ARC
  5
A8FE
  8
0
 10
4317.4063017934986419
 20
186.1762710163920076
 30
0.0
 40
0.0056768926012351
 50
225.2761209164420109
 51
273.5542016008571977
  0
LINE
  5
A8FF
  8
0
 10
4317.6774294051483594
 20
186.0975635006674054
 30
0.0
 11
4317.6774294051492689
 21
186.2267196752449081
 31
0.0
  0
LINE
  5
A900
  8
0
 10
4317.6429506982485691
 20
186.2239980448075869
 30
0.0
 11
4317.6429506982485691
 21
186.2108268190253
 31
0.0
  0
LINE
  5
A901
  8
0
 10
4317.6331081785483548
 20
186.222894881063695
 30
0.0
 11
4317.6331081785483548
 21
186.2111803726253072
 31
0.0
  0
LINE
  5
A902
  8
0
 10
4317.5879814848285605
 20
186.2149828156393028
 30
0.0
 11
4317.6092194319489863
 21
186.2010764540252978
 31
0.0
  0
LINE
  5
A903
  8
0
 10
4317.6092194319489863
 20
186.2010764540252978
 30
0.0
 11
4317.6372847506818289
 21
186.2060392860257991
 31
0.0
  0
LINE
  5
A904
  8
0
 10
4317.610211954947772
 20
186.1812570510253124
 30
0.0
 11
4317.6363584402015476
 21
186.1675431088006007
 31
0.0
  0
LINE
  5
A905
  8
0
 10
4317.610211954947772
 20
186.1812570510253124
 30
0.0
 11
4317.5840654696557976
 21
186.1796521361652026
 31
0.0
  0
LINE
  5
A906
  8
0
 10
4317.5840654696557976
 20
186.1796521361652026
 30
0.0
 11
4317.5559339385490603
 21
186.1973886845252935
 31
0.0
  0
LINE
  5
A907
  8
0
 10
4317.5559339385490603
 20
186.1973886845252935
 30
0.0
 11
4317.5282998233624312
 21
186.1991618947972995
 31
0.0
  0
LINE
  5
A908
  8
0
 10
4317.6363584402015476
 20
186.1675431088006007
 30
0.0
 11
4317.636358440132426
 21
186.1522850424364037
 31
0.0
  0
LINE
  5
A909
  8
0
 10
4317.636358440132426
 20
186.1522850424364037
 30
0.0
 11
4317.6102119549932468
 21
186.150574287320012
 31
0.0
  0
LINE
  5
A90A
  8
0
 10
4317.6102119549932468
 20
186.150574287320012
 30
0.0
 11
4317.5830729466697449
 21
186.1636935256688901
 31
0.0
  0
LINE
  5
A90B
  8
0
 10
4317.5830729466697449
 20
186.1636935256688901
 30
0.0
 11
4317.5569264615069187
 21
186.1651264397260945
 31
0.0
  0
LINE
  5
A90C
  8
0
 10
4317.5569264615069187
 20
186.1651264397260945
 30
0.0
 11
4317.5289687727990895
 21
186.1828621441252949
 31
0.0
  0
LINE
  5
A90D
  8
0
 10
4317.5289687727990895
 20
186.1828621441252949
 30
0.0
 11
4317.5058155091519438
 21
186.1871954938447118
 31
0.0
  0
LINE
  5
A90E
  8
0
 10
4317.6363584401478874
 20
186.1522850424252908
 30
0.0
 11
4317.646283670147568
 21
186.147494355225291
 31
0.0
  0
LINE
  5
A90F
  8
0
 10
4317.646283670147568
 20
186.147494355225291
 30
0.0
 11
4317.646283670147568
 21
186.127198925125299
 31
0.0
  0
LINE
  5
A910
  8
0
 10
4317.646283670147568
 20
186.127198925125299
 30
0.0
 11
4317.6363584401478874
 21
186.1263836948253072
 31
0.0
  0
LINE
  5
A911
  8
0
 10
4317.6363584401478874
 20
186.1263836948253072
 30
0.0
 11
4317.6102119549486815
 21
186.1368929732855122
 31
0.0
  0
LINE
  5
A912
  8
0
 10
4317.6102119549486815
 20
186.1368929732855122
 30
0.0
 11
4317.5840654696939964
 21
186.1381519582984936
 31
0.0
  0
LINE
  5
A913
  8
0
 10
4317.5840654696939964
 20
186.1381519582984936
 30
0.0
 11
4317.5559339384608393
 21
186.1524371862790019
 31
0.0
  0
LINE
  5
A914
  8
0
 10
4317.5559339384608393
 20
186.1524371862790019
 30
0.0
 11
4317.528601098980289
 21
186.1573888609337075
 31
0.0
  0
LINE
  5
A915
  8
0
 10
4317.528601098980289
 20
186.1573888609337075
 30
0.0
 11
4317.5016559229479753
 21
186.1752176252252866
 31
0.0
  0
LINE
  5
A916
  8
0
 10
4317.5016559229479753
 20
186.1752176252252866
 30
0.0
 11
4317.4931484052140149
 21
186.1776723482201987
 31
0.0
  0
LINE
  5
A917
  8
0
 10
4317.6363584401478874
 20
186.1263836948253072
 30
0.0
 11
4317.636281970751952
 21
186.1170546699518979
 31
0.0
  0
LINE
  5
A918
  8
0
 10
4317.636281970751952
 20
186.1170546699518979
 30
0.0
 11
4317.6100883040162444
 21
186.1178518564697129
 31
0.0
  0
LINE
  5
A919
  8
0
 10
4317.6100883040162444
 20
186.1178518564697129
 30
0.0
 11
4317.5830785415982973
 21
186.1285724836752991
 31
0.0
  0
LINE
  5
A91A
  8
0
 10
4317.5830785415982973
 20
186.1285724836752991
 30
0.0
 11
4317.5558886847111353
 21
186.1334090512528974
 31
0.0
  0
LINE
  5
A91B
  8
0
 10
4317.5558886847111353
 20
186.1334090512528974
 30
0.0
 11
4317.5288098095534224
 21
186.14791494328
 31
0.0
  0
LINE
  5
A91C
  8
0
 10
4317.5288098095534224
 20
186.14791494328
 30
0.0
 11
4317.5014063439903111
 21
186.1561602477009956
 31
0.0
  0
LINE
  5
A91D
  8
0
 10
4317.5014063439903111
 20
186.1561602477009956
 30
0.0
 11
4317.4913657130491629
 21
186.1628433343753102
 31
0.0
  0
LINE
  5
A91E
  8
0
 10
4317.4913657130491629
 20
186.1628433343753102
 30
0.0
 11
4317.482048889141879
 21
186.1646359409396041
 31
0.0
  0
LINE
  5
A91F
  8
0
 10
4317.636281970751952
 20
186.1170546699518979
 30
0.0
 11
4317.646283670153025
 21
186.1136194320930883
 31
0.0
  0
LINE
  5
A920
  8
0
 10
4317.646283670153025
 20
186.1136194320930883
 30
0.0
 11
4317.646283670147568
 21
186.1029745707253937
 31
0.0
  0
LINE
  5
A921
  8
0
 10
4317.646283670147568
 20
186.1029745707253937
 30
0.0
 11
4317.6373509627210296
 21
186.1035963332599863
 31
0.0
  0
LINE
  5
A922
  8
0
 10
4317.6373509627210296
 20
186.1035963332599863
 30
0.0
 11
4317.610211954947772
 21
186.1111307885254007
 31
0.0
  0
LINE
  5
A923
  8
0
 10
4317.610211954947772
 20
186.1111307885254007
 30
0.0
 11
4317.5828918573506598
 21
186.1155935350460879
 31
0.0
  0
LINE
  5
A924
  8
0
 10
4317.5828918573506598
 20
186.1155935350460879
 30
0.0
 11
4317.5559891813491049
 21
186.1267083339253077
 31
0.0
  0
LINE
  5
A925
  8
0
 10
4317.5559891813491049
 20
186.1267083339253077
 30
0.0
 11
4317.52861315217433
 21
186.1349681935431875
 31
0.0
  0
LINE
  5
A926
  8
0
 10
4317.52861315217433
 20
186.1349681935431875
 30
0.0
 11
4317.5014683016379422
 21
186.1502300422505982
 31
0.0
  0
LINE
  5
A927
  8
0
 10
4317.5014683016379422
 20
186.1502300422505982
 30
0.0
 11
4317.4849540284358227
 21
186.1479742311821042
 31
0.0
  0
ARC
  5
A928
  8
0
 10
4317.7187679898634087
 20
186.56391540782991
 30
0.0
 40
0.472440959640737
 50
261.1745291272939085
 51
264.459344244557883
  0
ARC
  5
A929
  8
0
 10
4317.6468877060606246
 20
186.1009584143110942
 30
0.0
 40
0.0039370076324422
 50
219.6468490347916998
 51
261.1745291272939085
  0
ARC
  5
A92A
  8
0
 10
4317.7224367092658213
 20
186.8251572614645966
 30
0.0
 40
0.7309470419247752
 50
259.7793332336236745
 51
263.8284899795486922
  0
ARC
  5
A92B
  8
0
 10
4317.6127890027828471
 20
186.318569044434895
 30
0.0
 40
0.2137026854635209
 50
234.720968982709195
 51
264.6161201412338073
  0
ARC
  5
A92C
  8
0
 10
4317.6306146958977479
 20
186.3098570688804898
 30
0.0
 40
0.2177684164121449
 50
226.8394954136412878
 51
229.5614543398428964
  0
ARC
  5
A92D
  8
0
 10
4317.7134267597084545
 20
186.7641263318988933
 30
0.0
 40
0.6768455050172522
 50
260.7935264110951152
 51
266.9513426288456799
  0
ARC
  5
A92E
  8
0
 10
4317.6656158539981334
 20
186.4691440645331113
 30
0.0
 40
0.3780137450500269
 50
246.3010797659948139
 51
260.7935264110951152
  0
ARC
  5
A92F
  8
0
 10
4317.5429223283872489
 20
186.1896260993877092
 30
0.0
 40
0.0727532103164054
 50
215.702065818121298
 51
246.3010797659948139
  0
ARC
  5
A930
  8
0
 10
4317.5010458880560691
 20
186.1595325348588119
 30
0.0
 40
0.0211852078259917
 50
186.4239193304809987
 51
215.7020658181199053
  0
LINE
  5
A931
  8
0
 10
4317.6373509627210296
 20
186.1035963332599863
 30
0.0
 11
4317.6373174915479467
 21
186.0999686919824967
 31
0.0
  0
LINE
  5
A932
  8
0
 10
4317.6373174915479467
 20
186.0999686919824967
 30
0.0
 11
4317.610211954947772
 21
186.10449497822529
 31
0.0
  0
LINE
  5
A933
  8
0
 10
4317.610211954947772
 20
186.10449497822529
 30
0.0
 11
4317.5832194867480212
 21
186.1123396457115859
 31
0.0
  0
LINE
  5
A934
  8
0
 10
4317.5832194867480212
 20
186.1123396457115859
 30
0.0
 11
4317.5559339384917621
 21
186.1206266118259123
 31
0.0
  0
LINE
  5
A935
  8
0
 10
4317.5559339384917621
 20
186.1206266118259123
 30
0.0
 11
4317.5287949310441036
 21
186.1320079754050028
 31
0.0
  0
LINE
  5
A936
  8
0
 10
4317.5287949310441036
 20
186.1320079754050028
 30
0.0
 11
4317.5201967019802396
 21
186.1356889535167909
 31
0.0
  0
LINE
  5
A937
  8
0
 10
4317.5201967019802396
 20
186.1356889535167909
 30
0.0
 11
4317.5073925515525843
 21
186.1326646984871047
 31
0.0
  0
LINE
  5
A938
  8
0
 10
4317.6160378484482862
 20
186.1865259728253079
 30
0.0
 11
4317.6160378484482862
 21
186.2022821647433091
 31
0.0
  0
LINE
  5
A939
  8
0
 10
4317.6062236947491328
 20
186.186528623225314
 30
0.0
 11
4317.6061854752579166
 21
186.2030630537003901
 31
0.0
  0
LINE
  5
A93A
  8
0
 10
4317.5622121487476761
 20
186.2024375633253896
 30
0.0
 11
4317.5622121487476761
 21
186.2097321176356104
 31
0.0
  0
LINE
  5
A93B
  8
0
 10
4317.5523780426519806
 20
186.2029152939716994
 30
0.0
 11
4317.5523672998597249
 21
186.2069598274293014
 31
0.0
  0
LINE
  5
A93C
  8
0
 10
4317.5352992989492122
 20
186.1876743704252988
 30
0.0
 11
4317.5352992989492122
 21
186.1987127564071045
 31
0.0
  0
LINE
  5
A93D
  8
0
 10
4317.5254484684910494
 20
186.1887530555808894
 30
0.0
 11
4317.5254603021603543
 21
186.1979453809061908
 31
0.0
  0
LINE
  5
A93E
  8
0
 10
4317.5083864491489294
 20
186.1798331795145032
 30
0.0
 11
4317.5083864491489294
 21
186.1867143183920916
 31
0.0
  0
LINE
  5
A93F
  8
0
 10
4317.4985874591911852
 20
186.1798223985568939
 30
0.0
 11
4317.4985310918273171
 21
186.182009888494008
 31
0.0
  0
LINE
  5
A940
  8
0
 10
4317.5352668448977056
 20
186.151463635075288
 30
0.0
 11
4317.5353087058538222
 21
186.1561736967728962
 31
0.0
  0
LINE
  5
A941
  8
0
 10
4317.5254952163058988
 20
186.1520151882895959
 30
0.0
 11
4317.5254476320988033
 21
186.1594754094739983
 31
0.0
  0
LINE
  5
A942
  8
0
 10
4317.5890975898573743
 20
186.1326471047179041
 30
0.0
 11
4317.5891332857354428
 21
186.1379079368026055
 31
0.0
  0
LINE
  5
A943
  8
0
 10
4317.5792824789477891
 20
186.1336256105253142
 30
0.0
 11
4317.5792824789477891
 21
186.1405807671916079
 31
0.0
  0
LINE
  5
A944
  8
0
 10
4317.6160232424854257
 20
186.1150810386830869
 30
0.0
 11
4317.616047988201899
 21
186.1176704775153894
 31
0.0
  0
LINE
  5
A945
  8
0
 10
4317.6061953287489814
 20
186.1158215133253009
 30
0.0
 11
4317.6061953287489814
 21
186.1193970435735139
 31
0.0
  0
LINE
  5
A946
  8
0
 10
4317.6429506982485691
 20
186.1071686981252924
 30
0.0
 11
4317.6429506982485691
 21
186.1147641926789902
 31
0.0
  0
LINE
  5
A947
  8
0
 10
4317.5622121487476761
 20
186.1308998949999989
 30
0.0
 11
4317.5622121487476761
 21
186.1322842251358054
 31
0.0
  0
LINE
  5
A948
  8
0
 10
4317.5523696290483713
 20
186.1315691796162923
 30
0.0
 11
4317.5523696290483713
 21
186.1352941754009862
 31
0.0
  0
LINE
  5
A949
  8
0
 10
4317.4985510466676715
 20
186.1540889331913888
 30
0.0
 11
4317.4985430822762282
 21
186.1580660468804922
 31
0.0
  0
ARC
  5
A94A
  8
0
 10
4317.6108910040429691
 20
186.1863615523485009
 30
0.0
 40
0.0051494700145701
 50
262.4224634185512741
 51
1.8297418586266541
  0
ARC
  5
A94B
  8
0
 10
4317.610824989653338
 20
186.1858653135003863
 30
0.0
 40
0.004648859493229
 50
171.7969137284644034
 51
262.4224634185512741
  0
ARC
  5
A94C
  8
0
 10
4317.6392308164058704
 20
186.2118873001361123
 30
0.0
 40
0.0061633141115219
 50
186.5862786029528877
 51
251.5939103835281117
  0
ARC
  5
A94D
  8
0
 10
4317.6354316806582574
 20
186.2139788897052881
 30
0.0
 40
0.0081529856556783
 50
283.1374156562089865
 51
337.2559304307465027
  0
ARC
  5
A94E
  8
0
 10
4317.5562116627670548
 20
186.2034712110462067
 30
0.0
 40
0.006088863573657
 50
267.3857275548152188
 51
350.2261133582139223
  0
ARC
  5
A94F
  8
0
 10
4317.5571622193538133
 20
186.2020862378311108
 30
0.0
 40
0.0048554794610461
 50
170.1687748295184974
 51
255.3467885979061123
  0
ARC
  5
A950
  8
0
 10
4317.5314724074651167
 20
186.1883555633089031
 30
0.0
 40
0.006037039081241
 50
176.2247855454963883
 51
245.4987968791145931
  0
ARC
  5
A951
  8
0
 10
4317.5299394074700103
 20
186.1881553103006013
 30
0.0
 40
0.0053814254454
 50
259.6088291140595175
 51
354.8726151703442042
  0
ARC
  5
A952
  8
0
 10
4317.5038822964352221
 20
186.1800259509332136
 30
0.0
 40
0.0052987484383589
 50
182.2015694088547946
 51
245.1546988399751115
  0
ARC
  5
A953
  8
0
 10
4317.502351481450205
 20
186.18141843788041
 30
0.0
 40
0.0062397018527744
 50
263.5997634694156773
 51
345.2821098395058925
  0
ARC
  5
A954
  8
0
 10
4317.5314538510638158
 20
186.1534422205157
 30
0.0
 40
0.006127132213444
 50
193.4680896670840866
 51
244.4353014263016064
  0
ARC
  5
A955
  8
0
 10
4317.5307660166827191
 20
186.152004326554902
 30
0.0
 40
0.0045331889334166
 50
244.4353014263008959
 51
353.1497963167681178
  0
ARC
  5
A956
  8
0
 10
4317.5595691902080944
 20
186.1331521754167966
 30
0.0
 40
0.007371536923065
 50
192.4005284868084118
 51
240.9447373776334018
  0
ARC
  5
A957
  8
0
 10
4317.5571212285040019
 20
186.1317428689910969
 30
0.0
 40
0.0051602397317965
 50
257.3274509515067052
 51
350.5980544224448749
  0
ARC
  5
A958
  8
0
 10
4317.5876855296673966
 20
186.1359858156081089
 30
0.0
 40
0.0087282202886387
 50
195.68871365391621
 51
238.1412662739799089
  0
ARC
  5
A959
  8
0
 10
4317.5833245424310007
 20
186.1346920830563079
 30
0.0
 40
0.0061245418598751
 50
267.6980152217955151
 51
340.4944000243773985
  0
ARC
  5
A95A
  8
0
 10
4317.6118511998120084
 20
186.1165995225802874
 30
0.0
 40
0.0057091309222015
 50
187.8323274711189868
 51
253.3139764399795979
  0
ARC
  5
A95B
  8
0
 10
4317.6115120067142925
 20
186.1154679302914872
 30
0.0
 40
0.0045277956328397
 50
253.3139764399282967
 51
355.098206197390823
  0
ARC
  5
A95C
  8
0
 10
4317.6515732869338535
 20
186.1105994815168003
 30
0.0
 40
0.009280049046659
 50
201.6967795328206989
 51
235.2498581933992909
  0
LINE
  5
A95D
  8
0
 10
4317.6160080155977994
 20
186.1414066598752868
 30
0.0
 11
4317.6160548620200643
 21
186.150956586624801
 31
0.0
  0
LINE
  5
A95E
  8
0
 10
4317.6061857491013143
 20
186.1423913304442976
 30
0.0
 11
4317.606199410982299
 21
186.152513986834407
 31
0.0
  0
LINE
  5
A95F
  8
0
 10
4317.5621572997488329
 20
186.1565991838253069
 30
0.0
 11
4317.5622317526522238
 21
186.1648356921853917
 31
0.0
  0
LINE
  5
A960
  8
0
 10
4317.5523696290483713
 20
186.1577041428253949
 30
0.0
 11
4317.5523696290483713
 21
186.1680171877532928
 31
0.0
  0
ARC
  5
A961
  8
0
 10
4317.6144404680871958
 20
186.1442126136157924
 30
0.0
 40
0.0084532513222992
 50
192.4421385842908023
 51
239.9852265464276115
  0
ARC
  5
A962
  8
0
 10
4317.6093714340186125
 20
186.1439505198148083
 30
0.0
 40
0.0071074213641122
 50
276.7916707709686079
 51
339.0277335227935964
  0
ARC
  5
A963
  8
0
 10
4317.5547628656813686
 20
186.16092211046751
 30
0.0
 40
0.0085653575489501
 50
277.858206376945418
 51
329.6886324389143965
  0
ARC
  5
A964
  8
0
 10
4317.5606067486487518
 20
186.1594389352846122
 30
0.0
 40
0.0084178170686149
 50
191.8930673954180861
 51
236.281743085680688
  0
LINE
  5
A965
  8
0
 10
4317.5891249985488685
 20
186.1686462506253861
 30
0.0
 11
4317.5891249985488685
 21
186.1799626984841041
 31
0.0
  0
LINE
  5
A966
  8
0
 10
4317.5792824789477891
 20
186.1698538462063084
 30
0.0
 11
4317.5792824789477891
 21
186.1826677468575042
 31
0.0
  0
ARC
  5
A967
  8
0
 10
4317.5898861907317041
 20
186.1721320442030958
 30
0.0
 40
0.0108456853026587
 50
192.1256163102256949
 51
231.0826585750085087
  0
ARC
  5
A968
  8
0
 10
4317.5820070426643724
 20
186.1711700794635078
 30
0.0
 40
0.0075521525405184
 50
278.1137663689286228
 51
340.476911595482818
  0
ARC
  5
A969
  8
0
 10
4317.5035488726725816
 20
186.1548350607365023
 30
0.0
 40
0.0050532139366088
 50
188.491000187232487
 51
245.6863027676290017
  0
LINE
  5
A96A
  8
0
 10
4317.5539349644323011
 20
186.1214649273246096
 30
0.0
 11
4317.5381107755783887
 21
186.1195859105702937
 31
0.0
  0
LINE
  5
A96B
  8
0
 10
4317.5352443474494066
 20
186.1243135971253082
 30
0.0
 11
4317.5352443474494066
 21
186.1293032651053068
 31
0.0
  0
LINE
  5
A96C
  8
0
 10
4317.5041057378493861
 20
186.1379643238252868
 30
0.0
 11
4317.5041057378493861
 21
186.1487471771166042
 31
0.0
  0
ARC
  5
A96D
  8
0
 10
4317.5844088335079505
 20
186.1169026842790117
 30
0.0
 40
0.0050017886250932
 50
273.3370499884736091
 51
332.8316902967770261
  0
ARC
  5
A96E
  8
0
 10
4317.583885182101767
 20
186.116836567436394
 30
0.0
 40
0.0046043883570214
 50
176.9354818737573112
 51
240.6667030360096078
  0
ARC
  5
A96F
  8
0
 10
4317.5837260653379417
 20
186.1133653252294948
 30
0.0
 40
0.0066641796364956
 50
276.6960041802540786
 51
334.0646793922344955
  0
ARC
  5
A970
  8
0
 10
4317.5856632842478575
 20
186.1130249794184977
 30
0.0
 40
0.0063846683509862
 50
175.4591602190131141
 51
259.5305517358805218
  0
ARC
  5
A971
  8
0
 10
4317.6085504445763945
 20
186.1082915760071046
 30
0.0
 40
0.0051826429327796
 50
201.673037672475914
 51
250.1644889410912924
  0
ARC
  5
A972
  8
0
 10
4317.6022950211927309
 20
186.1639848098116943
 30
0.0
 40
0.0616564768642122
 50
277.8285512219258067
 51
282.0017580248921263
  0
ARC
  5
A973
  8
0
 10
4317.5036685373061118
 20
186.1547492728913085
 30
0.0
 40
0.0050263786745523
 50
244.0403707563528997
 51
351.2519932798564923
  0
ARC
  5
A974
  8
0
 10
4317.5110285819810088
 20
186.1385888042800048
 30
0.0
 40
0.0069509529361578
 50
185.154459112268114
 51
238.4597022043847119
  0
ARC
  5
A975
  8
0
 10
4317.5406033513845614
 20
186.1243299866289931
 30
0.0
 40
0.0053590289978215
 50
180.175227797726194
 51
242.2822018374226047
  0
ARC
  5
A976
  8
0
 10
4317.6735294051486562
 20
186.0975635006674054
 30
0.0
 40
0.0039
 50
264.4593442442961759
 51
0.0000000001042204
  0
LINE
  5
A977
  8
0
 10
4317.6363584401478874
 20
186.1675431087253116
 30
0.0
 11
4317.646283670147568
 21
186.1696790411056952
 31
0.0
  0
LINE
  5
A978
  8
0
 10
4317.646283670147568
 20
186.1696790411056952
 30
0.0
 11
4317.6462836701048218
 21
186.2002657414379883
 31
0.0
  0
LINE
  5
A979
  8
0
 10
4317.6462836701048218
 20
186.2002657414379883
 30
0.0
 11
4317.6372847506818289
 21
186.2060392860257991
 31
0.0
  0
LINE
  5
A97A
  8
0
 10
4317.6462836715490994
 20
186.2002657407253139
 30
0.0
 11
4317.6646070157767099
 21
186.190810490224095
 31
0.0
  0
LINE
  5
A97B
  8
0
 10
4317.6646070157767099
 20
186.190810490224095
 30
0.0
 11
4317.674787947106779
 21
186.1936216765847973
 31
0.0
  0
ARC
  5
A97C
  8
0
 10
4317.6735676525368035
 20
186.1974316432541912
 30
0.0
 40
0.0040006205592999
 50
287.7597474367079258
 51
344.85953250135492
  0
LINE
  5
A97D
  8
0
 10
4317.7187683955989996
 20
186.2231695787706087
 30
0.0
 11
4317.6919568637977136
 21
186.2257962938753053
 31
0.0
  0
LINE
  5
A97E
  8
0
 10
4317.6919568637977136
 20
186.2257962938753053
 30
0.0
 11
4317.6774294051483594
 21
186.2248030533733925
 31
0.0
  0
LINE
  5
A97F
  8
0
 10
4317.6774294051492689
 20
186.2152595912264985
 30
0.0
 11
4317.6918551380113058
 21
186.2130439750874018
 31
0.0
  0
LINE
  5
A980
  8
0
 10
4317.6918551380113058
 20
186.2130439750874018
 30
0.0
 11
4317.7187683955989996
 21
186.216567664824197
 31
0.0
  0
LINE
  5
A981
  8
0
 10
4317.7187683955989996
 20
186.1974980479218971
 30
0.0
 11
4317.6918287152484481
 21
186.202598373025296
 31
0.0
  0
LINE
  5
A982
  8
0
 10
4317.6918287152484481
 20
186.202598373025296
 30
0.0
 11
4317.6774294051492689
 21
186.1999629810567001
 31
0.0
  0
LINE
  5
A983
  8
0
 10
4317.7187683955989996
 20
186.1848690334045955
 30
0.0
 11
4317.6928393906437122
 21
186.1781900037562991
 31
0.0
  0
LINE
  5
A984
  8
0
 10
4317.6928393906437122
 20
186.1781900037562991
 30
0.0
 11
4317.6928393899479488
 21
186.1557067708253044
 31
0.0
  0
LINE
  5
A985
  8
0
 10
4317.6928393899479488
 20
186.1557067708253044
 30
0.0
 11
4317.7187683955989996
 21
186.1557067708253044
 31
0.0
  0
ARC
  5
A986
  8
0
 10
4317.6899236838044089
 20
186.2228631692429133
 30
0.0
 40
0.0447682147371419
 50
253.7942092341633895
 51
273.734256256480819
  0
ARC
  5
A987
  8
0
 10
4317.7202238220743311
 20
186.1912327479514033
 30
0.0
 40
0.0065282228321748
 50
193.2903601146678909
 51
257.1142774821482817
  0
ARC
  5
A988
  8
0
 10
4318.2511915879458684
 20
186.1952595215163058
 30
0.0
 40
0.5373495775508341
 50
179.66205139355489
 51
180.5893913382633968
  0
LINE
  5
A989
  8
0
 10
4317.7138435634979032
 20
186.2214169490557083
 30
0.0
 11
4317.7138467280492478
 21
186.2236517525826116
 31
0.0
  0
ARC
  5
A98A
  8
0
 10
4317.7189712104718637
 20
186.2216990599748954
 30
0.0
 40
0.0051354016459553
 50
183.1491024546822075
 51
267.7366017339346058
  0
LINE
  5
A98B
  8
0
 10
4317.7187683955989996
 20
186.1356042427474904
 30
0.0
 11
4317.6921955084417277
 21
186.1253968799939003
 31
0.0
  0
LINE
  5
A98C
  8
0
 10
4317.6921955084417277
 20
186.1253968799939003
 30
0.0
 11
4317.6774294051483594
 21
186.1310074138422124
 31
0.0
  0
LINE
  5
A98D
  8
0
 10
4317.6774294051483594
 20
186.0990953821801952
 30
0.0
 11
4317.6918140354209754
 21
186.1050345272217044
 31
0.0
  0
LINE
  5
A98E
  8
0
 10
4317.6918140354209754
 20
186.1050345272217044
 30
0.0
 11
4317.7116833395657522
 21
186.0966826450004135
 31
0.0
  0
ARC
  5
A98F
  8
0
 10
4317.6840379174236659
 20
186.1224066595036106
 30
0.0
 40
0.024700454564177
 50
254.4816976769143082
 51
288.354652307604681
  0
ARC
  5
A990
  8
0
 10
4317.7026630214495526
 20
186.1261139165025895
 30
0.0
 40
0.029237624139355
 50
248.2230696921481012
 51
270.0292697754550773
  0
ARC
  5
A991
  8
0
 10
4317.7107229727262165
 20
186.27639718123271
 30
0.0
 40
0.1797010585362102
 50
267.4340745093115856
 51
272.5659254906883007
  0
ARC
  5
A992
  8
0
 10
4317.7187024622062381
 20
186.8806833255806055
 30
0.0
 40
0.7856547149878143
 50
266.9686782620927943
 51
270.004778616752219
  0
LINE
  5
A993
  8
0
 10
4317.6966437028486325
 20
186.1087886176752875
 30
0.0
 11
4317.6968066479266781
 21
186.1271681430542912
 31
0.0
  0
LINE
  5
A994
  8
0
 10
4317.6869338781489205
 20
186.1094739707253041
 30
0.0
 11
4317.6869338781489205
 21
186.1273960909078937
 31
0.0
  0
ARC
  5
A995
  8
0
 10
4317.6944253367591955
 20
186.1128070910583858
 30
0.0
 40
0.0081994904280416
 50
203.9853691914410945
 51
251.4295068874845072
  0
ARC
  5
A996
  8
0
 10
4317.6909428805784046
 20
186.1111390230379925
 30
0.0
 40
0.0061663425085377
 50
278.1216768134286781
 51
337.59402109802528
  0
ARC
  5
A997
  8
0
 10
4317.7137762453312462
 20
188.6624615708452097
 30
0.0
 40
2.6572735538587189
 50
270.1076401444998965
 51
275.5568044051968855
  0
ARC
  5
A998
  8
0
 10
4317.967593237982328
 20
186.0677911076838882
 30
0.0
 40
0.0502373507806984
 50
273.9876990111206965
 51
291.2183480144173018
  0
ARC
  5
A999
  8
0
 10
4317.8230659815189938
 20
186.4361042425848893
 30
0.0
 40
0.4458918254381774
 50
291.4018962168548796
 51
309.9043940504041075
  0
ARC
  5
A99A
  8
0
 10
4317.9383755029175518
 20
186.3255071428704923
 30
0.0
 40
0.2876123004584574
 50
306.4146751063620968
 51
331.0814392529024985
  0
ARC
  5
A99B
  8
0
 10
4318.0754815904747375
 20
186.2382449928298058
 30
0.0
 40
0.1258098234941599
 50
335.6776022413416172
 51
358.7400586171115719
  0
ARC
  5
A99C
  8
0
 10
4317.6927973079127696
 20
187.5487868142749903
 30
0.0
 40
1.53021423167614
 50
270.9724815856098985
 51
275.8467665679602874
  0
ARC
  5
A99D
  8
0
 10
4317.7603523419356861
 20
186.7608445726999093
 30
0.0
 40
0.7396045978068693
 50
276.8587653914087809
 51
285.8733134036335741
  0
ARC
  5
A99E
  8
0
 10
4317.8837174745358425
 20
186.3270010749785115
 30
0.0
 40
0.2885623199030914
 50
285.8733134036335741
 51
303.1757972145020972
  0
ARC
  5
A99F
  8
0
 10
4318.0054320342296705
 20
186.1408301396351987
 30
0.0
 40
0.0661346885086637
 50
303.1757972145030067
 51
332.2646254748711954
  0
ARC
  5
A9A0
  8
0
 10
4318.0313347417459227
 20
186.1272105070619887
 30
0.0
 40
0.0368696129376175
 50
332.2646254748697174
 51
44.0352370513945601
  0
ARC
  5
A9A1
  8
0
 10
4317.9427078545777476
 20
186.0415191189931079
 30
0.0
 40
0.1601487235704676
 50
44.0352370513945601
 51
70.9584716000406388
  0
ARC
  5
A9A2
  8
0
 10
4317.7928664486489652
 20
185.6494962037465086
 30
0.0
 40
0.5797702550673539
 50
69.6001302432753306
 51
82.4233212241049529
  0
ARC
  5
A9A3
  8
0
 10
4317.7273609856310941
 20
185.2482699575577954
 30
0.0
 40
0.9862039822853939
 50
81.7243527744223854
 51
86.899106640680003
  0
ARC
  5
A9A4
  8
0
 10
4317.6967294580617818
 20
184.3137276370399888
 30
0.0
 40
1.921138727241406
 50
87.4946048344333605
 51
89.34269931362644
  0
ARC
  5
A9A5
  8
0
 10
4317.7434241046576062
 20
186.7538575340790885
 30
0.0
 40
0.4955408487607179
 50
267.1480623954627731
 51
267.4389547896772115
  0
ARC
  5
A9A6
  8
0
 10
4317.6043391782977778
 20
184.7953511608934889
 30
0.0
 40
1.4681253607377811
 50
69.2315969349775457
 51
85.431313203013346
  0
ARC
  5
A9A7
  8
0
 10
4318.0225090579879179
 20
186.1691268991536106
 30
0.0
 40
0.1024200707111574
 50
307.9466541452030128
 51
359.4141886390673903
  0
ARC
  5
A9A8
  8
0
 10
4317.8102536061305727
 20
186.4192385813310011
 30
0.0
 40
0.430390084356305
 50
290.8052407361064979
 51
309.7548771610377116
  0
ARC
  5
A9A9
  8
0
 10
4318.1286064367286599
 20
186.2039539235580037
 30
0.0
 40
0.0360627097571587
 50
264.1388373392017002
 51
314.2635057046231282
  0
ARC
  5
A9AA
  8
0
 10
4318.1633812791587843
 20
186.2433180275315863
 30
0.0
 40
0.0379188324921629
 50
313.6949459778052187
 51
357.3973260403104746
  0
LINE
  5
A9AB
  8
0
 10
4318.1537767398976939
 20
186.1781280668753027
 30
0.0
 11
4318.1895763152979271
 21
186.2159016466752917
 31
0.0
  0
ARC
  5
A9AC
  8
0
 10
4317.7078209416258687
 20
186.1507252672701895
 30
0.0
 40
0.2045176746103377
 50
82.8879276691013871
 51
86.9315960922829731
  0
ARC
  5
A9AD
  8
0
 10
4317.6144418644908001
 20
184.7514357614174116
 30
0.0
 40
1.606624507796119
 50
68.9013309658253235
 51
85.763016427117492
  0
ARC
  5
A9AE
  8
0
 10
4318.188020878401403
 20
186.2360649717768126
 30
0.0
 40
0.0150640084999888
 50
28.4921181259073109
 51
71.5562160450689362
  0
ARC
  5
A9AF
  8
0
 10
4317.6918839102527272
 20
187.9301005488991052
 30
0.0
 40
1.88669450939092
 50
270.8164648118902278
 51
272.8943340586499176
  0
ARC
  5
A9B0
  8
0
 10
4317.7272568273137949
 20
186.9645225842432126
 30
0.0
 40
0.920660086819004
 50
273.7300502445190773
 51
279.6907441615712173
  0
ARC
  5
A9B1
  8
0
 10
4317.789679960869762
 20
186.598976658740014
 30
0.0
 40
0.5498225600572731
 50
279.6907441615712173
 51
289.5296715875113023
  0
ARC
  5
A9B2
  8
0
 10
4317.9070704540590668
 20
186.2680209183914997
 30
0.0
 40
0.1986641485664105
 50
289.5296715875113023
 51
308.6304160119370863
  0
ARC
  5
A9B3
  8
0
 10
4318.0006796618381486
 20
186.1508862766083041
 30
0.0
 40
0.0487201320578278
 50
308.63041601193612
 51
341.6143307858674802
  0
ARC
  5
A9B4
  8
0
 10
4318.0106742690813917
 20
186.1462907917089922
 30
0.0
 40
0.037805550803252
 50
343.4461594494168253
 51
32.9597859072279675
  0
ARC
  5
A9B5
  8
0
 10
4317.6941126865413025
 20
186.7538575340790885
 30
0.0
 40
0.4955408487607179
 50
272.5610452103229022
 51
272.8519376045372269
  0
ARC
  5
A9B6
  8
0
 10
4317.6968339210097838
 20
187.2183997569663916
 30
0.0
 40
1.14359865919447
 50
271.099013083254988
 51
274.6879872984903841
  0
ARC
  5
A9B7
  8
0
 10
4317.7385825230549017
 20
186.6631280611910029
 30
0.0
 40
0.5867846371742949
 50
275.0564160553956867
 51
287.0179827708890912
  0
ARC
  5
A9B8
  8
0
 10
4317.8619010323791372
 20
186.2602237122439988
 30
0.0
 40
0.1654304285299065
 50
287.0179827708890912
 51
307.1906827087071861
  0
ARC
  5
A9B9
  8
0
 10
4317.9275104900380029
 20
186.1737572500431952
 30
0.0
 40
0.056889883019705
 50
307.1906827087062197
 51
338.4966837055213773
  0
ARC
  5
A9BA
  8
0
 10
4317.9518795341709847
 20
186.1641563988960968
 30
0.0
 40
0.0306977724768323
 50
338.4966837055213773
 51
22.5103659726491614
  0
ARC
  5
A9BB
  8
0
 10
4317.9215980847466199
 20
186.1432442066258091
 30
0.0
 40
0.0671244012084944
 50
29.1194232174466983
 51
61.1880189673672277
  0
ARC
  5
A9BC
  8
0
 10
4317.8741023009815763
 20
186.0698322290807027
 30
0.0
 40
0.1544643182355334
 50
58.8742032853246329
 51
66.3060255484456036
  0
ARC
  5
A9BD
  8
0
 10
4317.6562711167880479
 20
187.6268535176492094
 30
0.0
 40
1.54918928536056
 50
272.3120494930456061
 51
275.2116344834136044
  0
ARC
  5
A9BE
  8
0
 10
4317.7079926226906537
 20
186.7931191901429031
 30
0.0
 40
0.7146142287187424
 50
277.1542520289352751
 51
284.341458454402698
  0
ARC
  5
A9BF
  8
0
 10
4317.8422880895523122
 20
186.2678453761114099
 30
0.0
 40
0.1724446499642292
 50
284.341458454402698
 51
303.9975662584072893
  0
ARC
  5
A9C0
  8
0
 10
4317.9100559097669247
 20
186.167366244761098
 30
0.0
 40
0.0512483905598695
 50
303.9975662584072893
 51
334.5100041557794839
  0
ARC
  5
A9C1
  8
0
 10
4317.9311042985082167
 20
186.1539112577380877
 30
0.0
 40
0.0266379231876389
 50
341.1648962977014889
 51
42.5429783198944875
  0
ARC
  5
A9C2
  8
0
 10
4317.8583035383253446
 20
186.0763536413072075
 30
0.0
 40
0.1329514248401596
 50
45.9574656032250388
 51
75.9453554400480328
  0
ARC
  5
A9C3
  8
0
 10
4317.7631837086755695
 20
185.7926351392013089
 30
0.0
 40
0.4319091090108033
 50
72.8433620714517218
 51
81.1578797127773441
  0
ARC
  5
A9C4
  8
0
 10
4317.7240594080685696
 20
185.5502935548149139
 30
0.0
 40
0.6773859705636266
 50
81.0387472327916356
 51
87.6436881717983027
  0
ARC
  5
A9C5
  8
0
 10
4317.7170854695314119
 20
185.3808117627370109
 30
0.0
 40
0.847011185860932
 50
87.6436881717983027
 51
89.8861589716955933
  0
ARC
  5
A9C6
  8
0
 10
4317.7189827892898393
 20
185.4385506672894905
 30
0.0
 40
0.7932245979381479
 50
84.4247149115922753
 51
90.0154859719088165
  0
ARC
  5
A9C7
  8
0
 10
4317.7384265490081816
 20
185.6377381447472885
 30
0.0
 40
0.5930903655639677
 50
75.7243940804766851
 51
84.4247149115922753
  0
ARC
  5
A9C8
  8
0
 10
4317.8247659076942
 20
185.9770644834634936
 30
0.0
 40
0.2429520371782617
 50
60.2785298056949514
 51
75.7243940804766851
  0
ARC
  5
A9C9
  8
0
 10
4317.9146315970610885
 20
186.1344787183346057
 30
0.0
 40
0.0616923244300898
 50
30.5078522284890816
 51
60.2785298056949514
  0
ARC
  5
A9CA
  8
0
 10
4317.9474678464712269
 20
186.1538268094373905
 30
0.0
 40
0.0235797555773683
 50
326.8448694552369034
 51
30.5078522284904814
  0
ARC
  5
A9CB
  8
0
 10
4317.9099996213626582
 20
186.1783034435246975
 30
0.0
 40
0.0683343476201967
 50
300.2843488404233767
 51
326.8448694552354823
  0
ARC
  5
A9CC
  8
0
 10
4317.8393278458834175
 20
186.2993195683874887
 30
0.0
 40
0.208474999560379
 50
288.0796013893390182
 51
300.2843488404233767
  0
ARC
  5
A9CD
  8
0
 10
4317.4889463272647845
 20
187.3726069985027038
 30
0.0
 40
1.337506937209981
 50
287.075692336105476
 51
288.0796013893390182
  0
ARC
  5
A9CE
  8
0
 10
4317.8521889196017582
 20
186.4259155439640097
 30
0.0
 40
0.3211271515808505
 50
287.6383130079793204
 51
293.5861403048264719
  0
ARC
  5
A9CF
  8
0
 10
4317.9789697520782283
 20
186.1355342373965129
 30
0.0
 40
0.0042759519823821
 50
293.5861403048264719
 51
6.3508429841082492
  0
ARC
  5
A9D0
  8
0
 10
4319.5406484266586631
 20
186.1831311984516901
 30
0.0
 40
1.5581417279611509
 50
179.4770829617532115
 51
181.7331006466403096
  0
ARC
  5
A9D1
  8
0
 10
4317.979238730617908
 20
186.1353043971323018
 30
0.0
 40
0.003960703200842
 50
257.5070188760096244
 51
291.3499501136865888
  0
ARC
  5
A9D2
  8
0
 10
4317.7672575678398061
 20
185.1785645266762117
 30
0.0
 40
0.9759817405648927
 50
77.5070188760096244
 51
78.136214490980521
  0
LINE
  5
A9D3
  8
0
 10
4317.9825854661221456
 20
186.1674641816264
 30
0.0
 11
4318.0009959378130588
 21
186.1766199283705987
 31
0.0
  0
LINE
  5
A9D4
  8
0
 10
4318.0008348034489245
 20
186.1907467018195916
 30
0.0
 11
4318.0008348034489245
 21
186.1781861890746939
 31
0.0
  0
ARC
  5
A9D5
  8
0
 10
4318.0069363677921501
 20
186.1780224891581952
 30
0.0
 40
0.0061037599157694
 50
178.4631703693650024
 51
267.3165010109153172
  0
ARC
  5
A9D6
  8
0
 10
4317.9318821292490611
 20
184.5767003770324948
 30
0.0
 40
1.596976289709241
 50
86.4457983991428165
 51
87.3165010109152462
  0
ARC
  5
A9D7
  8
0
 10
4318.0312349976993573
 20
186.1762710163920076
 30
0.0
 40
0.0056768926012351
 50
266.4457983991428023
 51
314.7238790835568238
  0
LINE
  5
A9D8
  8
0
 10
4317.7601073860487304
 20
186.0975635006674054
 30
0.0
 11
4317.7601073860487304
 21
186.2267196752449081
 31
0.0
  0
LINE
  5
A9D9
  8
0
 10
4317.7945860929476112
 20
186.2239980448075869
 30
0.0
 11
4317.7945860929476112
 21
186.2108268190253
 31
0.0
  0
LINE
  5
A9DA
  8
0
 10
4317.804428612648735
 20
186.222894881063695
 30
0.0
 11
4317.804428612648735
 21
186.2111803726253072
 31
0.0
  0
LINE
  5
A9DB
  8
0
 10
4317.8495553063676198
 20
186.2149828156393028
 30
0.0
 11
4317.828317359249013
 21
186.2010764540252978
 31
0.0
  0
LINE
  5
A9DC
  8
0
 10
4317.828317359249013
 20
186.2010764540252978
 30
0.0
 11
4317.8002520405152609
 21
186.2060392860257991
 31
0.0
  0
LINE
  5
A9DD
  8
0
 10
4317.8273248362484082
 20
186.1812570510253124
 30
0.0
 11
4317.8011783509964516
 21
186.1675431088006007
 31
0.0
  0
LINE
  5
A9DE
  8
0
 10
4317.8273248362484082
 20
186.1812570510253124
 30
0.0
 11
4317.8534713215403826
 21
186.1796521361652026
 31
0.0
  0
LINE
  5
A9DF
  8
0
 10
4317.8534713215403826
 20
186.1796521361652026
 30
0.0
 11
4317.881602852648939
 21
186.1973886845252935
 31
0.0
  0
LINE
  5
A9E0
  8
0
 10
4317.881602852648939
 20
186.1973886845252935
 30
0.0
 11
4317.9092369678346586
 21
186.1991618947972995
 31
0.0
  0
LINE
  5
A9E1
  8
0
 10
4317.8011783509964516
 20
186.1675431088006007
 30
0.0
 11
4317.8011783510646637
 21
186.1522850424364037
 31
0.0
  0
LINE
  5
A9E2
  8
0
 10
4317.8011783510646637
 20
186.1522850424364037
 30
0.0
 11
4317.827324836203843
 21
186.150574287320012
 31
0.0
  0
LINE
  5
A9E3
  8
0
 10
4317.827324836203843
 20
186.150574287320012
 30
0.0
 11
4317.8544638445273449
 21
186.1636935256688901
 31
0.0
  0
LINE
  5
A9E4
  8
0
 10
4317.8544638445273449
 20
186.1636935256688901
 30
0.0
 11
4317.8806103296901711
 21
186.1651264397260945
 31
0.0
  0
LINE
  5
A9E5
  8
0
 10
4317.8806103296901711
 20
186.1651264397260945
 30
0.0
 11
4317.9085680183980003
 21
186.1828621441252949
 31
0.0
  0
LINE
  5
A9E6
  8
0
 10
4317.9085680183980003
 20
186.1828621441252949
 30
0.0
 11
4317.9317212820460554
 21
186.1871954938447118
 31
0.0
  0
LINE
  5
A9E7
  8
0
 10
4317.8011783510492023
 20
186.1522850424252908
 30
0.0
 11
4317.7912531210486122
 21
186.147494355225291
 31
0.0
  0
LINE
  5
A9E8
  8
0
 10
4317.7912531210486122
 20
186.147494355225291
 30
0.0
 11
4317.7912531210486122
 21
186.127198925125299
 31
0.0
  0
LINE
  5
A9E9
  8
0
 10
4317.7912531210486122
 20
186.127198925125299
 30
0.0
 11
4317.8011783510492023
 21
186.1263836948253072
 31
0.0
  0
LINE
  5
A9EA
  8
0
 10
4317.8011783510492023
 20
186.1263836948253072
 30
0.0
 11
4317.8273248362484082
 21
186.1368929732855122
 31
0.0
  0
LINE
  5
A9EB
  8
0
 10
4317.8273248362484082
 20
186.1368929732855122
 30
0.0
 11
4317.8534713215021839
 21
186.1381519582984936
 31
0.0
  0
LINE
  5
A9EC
  8
0
 10
4317.8534713215021839
 20
186.1381519582984936
 30
0.0
 11
4317.88160285273716
 21
186.1524371862790019
 31
0.0
  0
LINE
  5
A9ED
  8
0
 10
4317.88160285273716
 20
186.1524371862790019
 30
0.0
 11
4317.9089356922177103
 21
186.1573888609337075
 31
0.0
  0
LINE
  5
A9EE
  8
0
 10
4317.9089356922177103
 20
186.1573888609337075
 30
0.0
 11
4317.9358808682491144
 21
186.1752176252252866
 31
0.0
  0
LINE
  5
A9EF
  8
0
 10
4317.9358808682491144
 20
186.1752176252252866
 30
0.0
 11
4317.9443883859839843
 21
186.1776723482201987
 31
0.0
  0
LINE
  5
A9F0
  8
0
 10
4317.8011783510492023
 20
186.1263836948253072
 30
0.0
 11
4317.8012548204442282
 21
186.1170546699518979
 31
0.0
  0
LINE
  5
A9F1
  8
0
 10
4317.8012548204442282
 20
186.1170546699518979
 30
0.0
 11
4317.8274484871808454
 21
186.1178518564697129
 31
0.0
  0
LINE
  5
A9F2
  8
0
 10
4317.8274484871808454
 20
186.1178518564697129
 30
0.0
 11
4317.854458249597883
 21
186.1285724836752991
 31
0.0
  0
LINE
  5
A9F3
  8
0
 10
4317.854458249597883
 20
186.1285724836752991
 30
0.0
 11
4317.881648106486864
 21
186.1334090512528974
 31
0.0
  0
LINE
  5
A9F4
  8
0
 10
4317.881648106486864
 20
186.1334090512528974
 30
0.0
 11
4317.9087269816445769
 21
186.14791494328
 31
0.0
  0
LINE
  5
A9F5
  8
0
 10
4317.9087269816445769
 20
186.14791494328
 30
0.0
 11
4317.9361304472067786
 21
186.1561602477009956
 31
0.0
  0
LINE
  5
A9F6
  8
0
 10
4317.9361304472067786
 20
186.1561602477009956
 30
0.0
 11
4317.9461710781488364
 21
186.1628433343753102
 31
0.0
  0
LINE
  5
A9F7
  8
0
 10
4317.9461710781488364
 20
186.1628433343753102
 30
0.0
 11
4317.9554879020561202
 21
186.1646359409396041
 31
0.0
  0
LINE
  5
A9F8
  8
0
 10
4317.8012548204442282
 20
186.1170546699518979
 30
0.0
 11
4317.7912531210458837
 21
186.1136194320930883
 31
0.0
  0
LINE
  5
A9F9
  8
0
 10
4317.7912531210458837
 20
186.1136194320930883
 30
0.0
 11
4317.7912531210486122
 21
186.1029745707253937
 31
0.0
  0
LINE
  5
A9FA
  8
0
 10
4317.7912531210486122
 20
186.1029745707253937
 30
0.0
 11
4317.8001858284760601
 21
186.1035963332599863
 31
0.0
  0
LINE
  5
A9FB
  8
0
 10
4317.8001858284760601
 20
186.1035963332599863
 30
0.0
 11
4317.8273248362484082
 21
186.1111307885254007
 31
0.0
  0
LINE
  5
A9FC
  8
0
 10
4317.8273248362484082
 20
186.1111307885254007
 30
0.0
 11
4317.8546449338482489
 21
186.1155935350460879
 31
0.0
  0
LINE
  5
A9FD
  8
0
 10
4317.8546449338482489
 20
186.1155935350460879
 30
0.0
 11
4317.8815476098488944
 21
186.1267083339253077
 31
0.0
  0
LINE
  5
A9FE
  8
0
 10
4317.8815476098488944
 20
186.1267083339253077
 30
0.0
 11
4317.9089236390236692
 21
186.1349681935431875
 31
0.0
  0
LINE
  5
A9FF
  8
0
 10
4317.9089236390236692
 20
186.1349681935431875
 30
0.0
 11
4317.9360684895600571
 21
186.1502300422505982
 31
0.0
  0
LINE
  5
AA00
  8
0
 10
4317.9360684895600571
 20
186.1502300422505982
 30
0.0
 11
4317.9525827627612671
 21
186.1479742311821042
 31
0.0
  0
ARC
  5
AA01
  8
0
 10
4317.7187688013327715
 20
186.56391540782991
 30
0.0
 40
0.472440959640737
 50
275.540655755442117
 51
278.8254708727062052
  0
ARC
  5
AA02
  8
0
 10
4317.7906490851346462
 20
186.1009584143110942
 30
0.0
 40
0.0039370076324422
 50
278.8254708727062052
 51
320.3531509652082718
  0
ARC
  5
AA03
  8
0
 10
4317.715100081930359
 20
186.8251572614645966
 30
0.0
 40
0.7309470419247752
 50
276.1715100204513078
 51
280.2206667663762119
  0
ARC
  5
AA04
  8
0
 10
4317.8247477884133332
 20
186.318569044434895
 30
0.0
 40
0.2137026854635209
 50
275.3838798587661927
 51
305.2790310172908903
  0
ARC
  5
AA05
  8
0
 10
4317.8069220952993419
 20
186.3098570688804898
 30
0.0
 40
0.2177684164121449
 50
310.4385456601571036
 51
313.1605045863586838
  0
ARC
  5
AA06
  8
0
 10
4317.7241100314886353
 20
186.7641263318988933
 30
0.0
 40
0.6768455050172522
 50
273.0486573711543201
 51
279.2064735889049985
  0
ARC
  5
AA07
  8
0
 10
4317.7719209371989564
 20
186.4691440645331113
 30
0.0
 40
0.3780137450500269
 50
279.2064735889049985
 51
293.6989202340050724
  0
ARC
  5
AA08
  8
0
 10
4317.8946144628098409
 20
186.1896260993877092
 30
0.0
 40
0.0727532103164054
 50
293.6989202340050724
 51
324.297934181878702
  0
ARC
  5
AA09
  8
0
 10
4317.9364909031410207
 20
186.1595325348588119
 30
0.0
 40
0.0211852078259917
 50
324.2979341818800094
 51
353.5760806695188876
  0
LINE
  5
AA0A
  8
0
 10
4317.8001858284760601
 20
186.1035963332599863
 30
0.0
 11
4317.8002192996491431
 21
186.0999686919824967
 31
0.0
  0
LINE
  5
AA0B
  8
0
 10
4317.8002192996491431
 20
186.0999686919824967
 30
0.0
 11
4317.8273248362484082
 21
186.10449497822529
 31
0.0
  0
LINE
  5
AA0C
  8
0
 10
4317.8273248362484082
 20
186.10449497822529
 30
0.0
 11
4317.8543173044490686
 21
186.1123396457115859
 31
0.0
  0
LINE
  5
AA0D
  8
0
 10
4317.8543173044490686
 20
186.1123396457115859
 30
0.0
 11
4317.8816028527044182
 21
186.1206266118259123
 31
0.0
  0
LINE
  5
AA0E
  8
0
 10
4317.8816028527044182
 20
186.1206266118259123
 30
0.0
 11
4317.9087418601529862
 21
186.1320079754050028
 31
0.0
  0
LINE
  5
AA0F
  8
0
 10
4317.9087418601529862
 20
186.1320079754050028
 30
0.0
 11
4317.9173400892159407
 21
186.1356889535167909
 31
0.0
  0
LINE
  5
AA10
  8
0
 10
4317.9173400892159407
 20
186.1356889535167909
 30
0.0
 11
4317.9301442396435959
 21
186.1326646984871047
 31
0.0
  0
LINE
  5
AA11
  8
0
 10
4317.821498942747894
 20
186.1865259728253079
 30
0.0
 11
4317.821498942747894
 21
186.2022821647433091
 31
0.0
  0
LINE
  5
AA12
  8
0
 10
4317.8313130964488664
 20
186.186528623225314
 30
0.0
 11
4317.8313513159382637
 21
186.2030630537003901
 31
0.0
  0
LINE
  5
AA13
  8
0
 10
4317.8753246424475947
 20
186.2024375633253896
 30
0.0
 11
4317.8753246424475947
 21
186.2097321176356104
 31
0.0
  0
LINE
  5
AA14
  8
0
 10
4317.8851587485451091
 20
186.2029152939716994
 30
0.0
 11
4317.8851694913355459
 21
186.2069598274293014
 31
0.0
  0
LINE
  5
AA15
  8
0
 10
4317.902237492248787
 20
186.1876743704252988
 30
0.0
 11
4317.902237492248787
 21
186.1987127564071045
 31
0.0
  0
LINE
  5
AA16
  8
0
 10
4317.9120883227060403
 20
186.1887530555808894
 30
0.0
 11
4317.9120764890367354
 21
186.1979453809061908
 31
0.0
  0
LINE
  5
AA17
  8
0
 10
4317.9291503420490699
 20
186.1798331795145032
 30
0.0
 11
4317.9291503420490699
 21
186.1867143183920916
 31
0.0
  0
LINE
  5
AA18
  8
0
 10
4317.9389493320059046
 20
186.1798223985568939
 30
0.0
 11
4317.9390056993706821
 21
186.182009888494008
 31
0.0
  0
LINE
  5
AA19
  8
0
 10
4317.9022699462975652
 20
186.151463635075288
 30
0.0
 11
4317.9022280853441771
 21
186.1561736967728962
 31
0.0
  0
LINE
  5
AA1A
  8
0
 10
4317.912041574891191
 20
186.1520151882895959
 30
0.0
 11
4317.9120891590982865
 21
186.1594754094739983
 31
0.0
  0
LINE
  5
AA1B
  8
0
 10
4317.8484392013397155
 20
186.1326471047179041
 30
0.0
 11
4317.848403505461647
 21
186.1379079368026055
 31
0.0
  0
LINE
  5
AA1C
  8
0
 10
4317.8582543122483912
 20
186.1336256105253142
 30
0.0
 11
4317.8582543122483912
 21
186.1405807671916079
 31
0.0
  0
LINE
  5
AA1D
  8
0
 10
4317.8215135487143925
 20
186.1150810386830869
 30
0.0
 11
4317.8214888029951908
 21
186.1176704775153894
 31
0.0
  0
LINE
  5
AA1E
  8
0
 10
4317.8313414624490179
 20
186.1158215133253009
 30
0.0
 11
4317.8313414624490179
 21
186.1193970435735139
 31
0.0
  0
LINE
  5
AA1F
  8
0
 10
4317.7945860929476112
 20
186.1071686981252924
 30
0.0
 11
4317.7945860929476112
 21
186.1147641926789902
 31
0.0
  0
LINE
  5
AA20
  8
0
 10
4317.8753246424475947
 20
186.1308998949999989
 30
0.0
 11
4317.8753246424475947
 21
186.1322842251358054
 31
0.0
  0
LINE
  5
AA21
  8
0
 10
4317.885167162147809
 20
186.1315691796162923
 30
0.0
 11
4317.885167162147809
 21
186.1352941754009862
 31
0.0
  0
LINE
  5
AA22
  8
0
 10
4317.9389857445294183
 20
186.1540889331913888
 30
0.0
 11
4317.938993708921771
 21
186.1580660468804922
 31
0.0
  0
ARC
  5
AA23
  8
0
 10
4317.8266457871550301
 20
186.1863615523485009
 30
0.0
 40
0.0051494700145701
 50
178.1702581413732958
 51
277.5775365814487259
  0
ARC
  5
AA24
  8
0
 10
4317.8267118015437518
 20
186.1858653135003863
 30
0.0
 40
0.004648859493229
 50
277.5775365814487259
 51
8.2030862715371562
  0
ARC
  5
AA25
  8
0
 10
4317.7983059747912193
 20
186.2118873001361123
 30
0.0
 40
0.0061633141115219
 50
288.4060896164718883
 51
353.4137213970470839
  0
ARC
  5
AA26
  8
0
 10
4317.8021051105397419
 20
186.2139788897052881
 30
0.0
 40
0.0081529856556783
 50
202.7440695692534973
 51
256.8625843437910135
  0
ARC
  5
AA27
  8
0
 10
4317.881325128430035
 20
186.2034712110462067
 30
0.0
 40
0.006088863573657
 50
189.7738866417859924
 51
272.6142724451848949
  0
ARC
  5
AA28
  8
0
 10
4317.8803745718432765
 20
186.2020862378311108
 30
0.0
 40
0.0048554794610461
 50
284.6532114020939161
 51
9.831225170481467
  0
ARC
  5
AA29
  8
0
 10
4317.9060643837328826
 20
186.1883555633089031
 30
0.0
 40
0.006037039081241
 50
294.5012031208855205
 51
3.7752144545035482
  0
ARC
  5
AA2A
  8
0
 10
4317.9075973837270794
 20
186.1881553103006013
 30
0.0
 40
0.0053814254454
 50
185.1273848296557958
 51
280.3911708859404257
  0
ARC
  5
AA2B
  8
0
 10
4317.9336544947627772
 20
186.1800259509332136
 30
0.0
 40
0.0052987484383589
 50
294.845301160024917
 51
357.798430591145177
  0
ARC
  5
AA2C
  8
0
 10
4317.9351853097477942
 20
186.18141843788041
 30
0.0
 40
0.0062397018527744
 50
194.7178901604939938
 51
276.400236530584209
  0
ARC
  5
AA2D
  8
0
 10
4317.9060829401323645
 20
186.1534422205157
 30
0.0
 40
0.006127132213444
 50
295.564698573698422
 51
346.5319103329157997
  0
ARC
  5
AA2E
  8
0
 10
4317.9067707745152802
 20
186.152004326554902
 30
0.0
 40
0.0045331889334166
 50
186.8502036832319106
 51
295.564698573698422
  0
ARC
  5
AA2F
  8
0
 10
4317.8779676009871764
 20
186.1331521754167966
 30
0.0
 40
0.007371536923065
 50
299.0552626223665129
 51
347.5994715131915882
  0
ARC
  5
AA30
  8
0
 10
4317.8804155626939973
 20
186.1317428689910969
 30
0.0
 40
0.0051602397317965
 50
189.4019455775550966
 51
282.6725490484932948
  0
ARC
  5
AA31
  8
0
 10
4317.8498512615296931
 20
186.1359858156081089
 30
0.0
 40
0.0087282202886387
 50
301.8587337260200911
 51
344.3112863460838184
  0
ARC
  5
AA32
  8
0
 10
4317.8542122487669985
 20
186.1346920830563079
 30
0.0
 40
0.0061245418598751
 50
199.5055999756226015
 51
272.3019847782044849
  0
ARC
  5
AA33
  8
0
 10
4317.8256855913850814
 20
186.1165995225802874
 30
0.0
 40
0.0057091309222015
 50
286.6860235600203737
 51
352.167672528880928
  0
ARC
  5
AA34
  8
0
 10
4317.8260247844827973
 20
186.1154679302914872
 30
0.0
 40
0.0045277956328397
 50
184.9017938026092054
 51
286.6860235600717033
  0
ARC
  5
AA35
  8
0
 10
4317.7859635042641457
 20
186.1105994815168003
 30
0.0
 40
0.009280049046659
 50
304.7501418066007091
 51
338.3032204671791874
  0
LINE
  5
AA36
  8
0
 10
4317.8215287755983809
 20
186.1414066598752868
 30
0.0
 11
4317.8214819291770254
 21
186.150956586624801
 31
0.0
  0
LINE
  5
AA37
  8
0
 10
4317.831351042094866
 20
186.1423913304442976
 30
0.0
 11
4317.8313373802147908
 21
186.152513986834407
 31
0.0
  0
LINE
  5
AA38
  8
0
 10
4317.8753794914491664
 20
186.1565991838253069
 30
0.0
 11
4317.875305038544866
 21
186.1648356921853917
 31
0.0
  0
LINE
  5
AA39
  8
0
 10
4317.885167162147809
 20
186.1577041428253949
 30
0.0
 11
4317.885167162147809
 21
186.1680171877532928
 31
0.0
  0
ARC
  5
AA3A
  8
0
 10
4317.8230963231108035
 20
186.1442126136157924
 30
0.0
 40
0.0084532513222992
 50
300.0147734535723885
 51
347.5578614157092261
  0
ARC
  5
AA3B
  8
0
 10
4317.8281653571775678
 20
186.1439505198148083
 30
0.0
 40
0.0071074213641122
 50
200.9722664772064036
 51
263.2083292290313921
  0
ARC
  5
AA3C
  8
0
 10
4317.8827739255166307
 20
186.16092211046751
 30
0.0
 40
0.0085653575489501
 50
210.3113675610842108
 51
262.141793623054582
  0
ARC
  5
AA3D
  8
0
 10
4317.8769300425474285
 20
186.1594389352846122
 30
0.0
 40
0.0084178170686149
 50
303.7182569143192268
 51
348.1069326045818002
  0
LINE
  5
AA3E
  8
0
 10
4317.8484117926491308
 20
186.1686462506253861
 30
0.0
 11
4317.8484117926491308
 21
186.1799626984841041
 31
0.0
  0
LINE
  5
AA3F
  8
0
 10
4317.8582543122483912
 20
186.1698538462063084
 30
0.0
 11
4317.8582543122483912
 21
186.1826677468575042
 31
0.0
  0
ARC
  5
AA40
  8
0
 10
4317.8476506004662951
 20
186.1721320442030958
 30
0.0
 40
0.0108456853026587
 50
308.9173414249914913
 51
347.8743836897742199
  0
ARC
  5
AA41
  8
0
 10
4317.8555297485336268
 20
186.1711700794635078
 30
0.0
 40
0.0075521525405184
 50
199.523088404518802
 51
261.8862336310713772
  0
ARC
  5
AA42
  8
0
 10
4317.9339879185235986
 20
186.1548350607365023
 30
0.0
 40
0.0050532139366088
 50
294.3136972323709983
 51
351.5089998127673994
  0
LINE
  5
AA43
  8
0
 10
4317.8836018267638792
 20
186.1214649273246096
 30
0.0
 11
4317.8994260156177916
 21
186.1195859105702937
 31
0.0
  0
LINE
  5
AA44
  8
0
 10
4317.9022924437485926
 20
186.1243135971253082
 30
0.0
 11
4317.9022924437485926
 21
186.1293032651053068
 31
0.0
  0
LINE
  5
AA45
  8
0
 10
4317.9334310533477037
 20
186.1379643238252868
 30
0.0
 11
4317.9334310533477037
 21
186.1487471771166042
 31
0.0
  0
ARC
  5
AA46
  8
0
 10
4317.8531279576891393
 20
186.1169026842790117
 30
0.0
 40
0.0050017886250932
 50
207.1683097032228886
 51
266.6629500115265046
  0
ARC
  5
AA47
  8
0
 10
4317.8536516090953228
 20
186.116836567436394
 30
0.0
 40
0.0046043883570214
 50
299.3332969639903922
 51
3.0645181262426799
  0
ARC
  5
AA48
  8
0
 10
4317.8538107258591481
 20
186.1133653252294948
 30
0.0
 40
0.0066641796364956
 50
205.9353206077655045
 51
263.3039958197459214
  0
ARC
  5
AA49
  8
0
 10
4317.8518735069492323
 20
186.1130249794184977
 30
0.0
 40
0.0063846683509862
 50
280.4694482641194782
 51
4.5408397809869196
  0
ARC
  5
AA4A
  8
0
 10
4317.8289863466206953
 20
186.1082915760071046
 30
0.0
 40
0.0051826429327796
 50
289.8355110589087076
 51
338.326962327524086
  0
ARC
  5
AA4B
  8
0
 10
4317.8352417700052683
 20
186.1639848098116943
 30
0.0
 40
0.0616564768642122
 50
257.9982419751078737
 51
262.1714487780741933
  0
ARC
  5
AA4C
  8
0
 10
4317.9338682538909779
 20
186.1547492728913085
 30
0.0
 40
0.0050263786745523
 50
188.7480067201435077
 51
295.9596292436464182
  0
ARC
  5
AA4D
  8
0
 10
4317.926508209216081
 20
186.1385888042800048
 30
0.0
 40
0.0069509529361578
 50
301.5402977956152881
 51
354.845540887731886
  0
ARC
  5
AA4E
  8
0
 10
4317.8969334398134379
 20
186.1243299866289931
 30
0.0
 40
0.0053590289978215
 50
297.7177981625774237
 51
359.8247722022737776
  0
ARC
  5
AA4F
  8
0
 10
4317.7640073860484335
 20
186.0975635006674054
 30
0.0
 40
0.0039
 50
179.9999999998956923
 51
275.5406557557038241
  0
LINE
  5
AA50
  8
0
 10
4317.8011783510492023
 20
186.1675431087253116
 30
0.0
 11
4317.7912531210486122
 21
186.1696790411056952
 31
0.0
  0
LINE
  5
AA51
  8
0
 10
4317.7912531210486122
 20
186.1696790411056952
 30
0.0
 11
4317.7912531210913585
 21
186.2002657414379883
 31
0.0
  0
LINE
  5
AA52
  8
0
 10
4317.7912531210913585
 20
186.2002657414379883
 30
0.0
 11
4317.8002520405152609
 21
186.2060392860257991
 31
0.0
  0
LINE
  5
AA53
  8
0
 10
4317.7912531196488999
 20
186.2002657407253139
 30
0.0
 11
4317.7729297754185609
 21
186.190810490224095
 31
0.0
  0
LINE
  5
AA54
  8
0
 10
4317.7729297754185609
 20
186.190810490224095
 30
0.0
 11
4317.7627488440894012
 21
186.1936216765847973
 31
0.0
  0
ARC
  5
AA55
  8
0
 10
4317.7639691386593768
 20
186.1974316432541912
 30
0.0
 40
0.0040006205592999
 50
195.1404674986451084
 51
252.2402525632921026
  0
LINE
  5
AA56
  8
0
 10
4317.7187683955989996
 20
186.2231695787706087
 30
0.0
 11
4317.7455799273975572
 21
186.2257962938753053
 31
0.0
  0
LINE
  5
AA57
  8
0
 10
4317.7455799273975572
 20
186.2257962938753053
 30
0.0
 11
4317.7601073860487304
 21
186.2248030533733925
 31
0.0
  0
LINE
  5
AA58
  8
0
 10
4317.7601073860487304
 20
186.2152595912264985
 30
0.0
 11
4317.7456816531876029
 21
186.2130439750874018
 31
0.0
  0
LINE
  5
AA59
  8
0
 10
4317.7456816531876029
 20
186.2130439750874018
 30
0.0
 11
4317.7187683955989996
 21
186.216567664824197
 31
0.0
  0
LINE
  5
AA5A
  8
0
 10
4317.7187683955989996
 20
186.1974980479218971
 30
0.0
 11
4317.7457080759486416
 21
186.202598373025296
 31
0.0
  0
LINE
  5
AA5B
  8
0
 10
4317.7457080759486416
 20
186.202598373025296
 30
0.0
 11
4317.7601073860487304
 21
186.1999629810567001
 31
0.0
  0
LINE
  5
AA5C
  8
0
 10
4317.7187683955989996
 20
186.1848690334045955
 30
0.0
 11
4317.7446974005533775
 21
186.1781900037562991
 31
0.0
  0
LINE
  5
AA5D
  8
0
 10
4317.7446974005533775
 20
186.1781900037562991
 30
0.0
 11
4317.7446974012482315
 21
186.1557067708253044
 31
0.0
  0
LINE
  5
AA5E
  8
0
 10
4317.7446974012482315
 20
186.1557067708253044
 30
0.0
 11
4317.7187683955989996
 21
186.1557067708253044
 31
0.0
  0
ARC
  5
AA5F
  8
0
 10
4317.7476131073926808
 20
186.2228631692429133
 30
0.0
 40
0.0447682147371419
 50
266.265743743519181
 51
286.2057907658365821
  0
ARC
  5
AA60
  8
0
 10
4317.7173129691245776
 20
186.1912327479514033
 30
0.0
 40
0.0065282228321748
 50
282.8857225178517183
 51
346.7096398853320807
  0
ARC
  5
AA61
  8
0
 10
4317.1863452032530404
 20
186.1952595215163058
 30
0.0
 40
0.5373495775508341
 50
359.4106086617366032
 51
0.3379486064450999
  0
LINE
  5
AA62
  8
0
 10
4317.723693227700096
 20
186.2214169490557083
 30
0.0
 11
4317.7236900631487515
 21
186.2236517525826116
 31
0.0
  0
ARC
  5
AA63
  8
0
 10
4317.718565580725226
 20
186.2216990599748954
 30
0.0
 40
0.0051354016459553
 50
272.2633982660655079
 51
356.8508975453178209
  0
LINE
  5
AA64
  8
0
 10
4317.7187683955989996
 20
186.1356042427474904
 30
0.0
 11
4317.7453412827544525
 21
186.1253968799939003
 31
0.0
  0
LINE
  5
AA65
  8
0
 10
4317.7453412827544525
 20
186.1253968799939003
 30
0.0
 11
4317.7601073860487304
 21
186.1310074138422124
 31
0.0
  0
LINE
  5
AA66
  8
0
 10
4317.7601073860487304
 20
186.0990953821801952
 30
0.0
 11
4317.7457227557770238
 21
186.1050345272217044
 31
0.0
  0
LINE
  5
AA67
  8
0
 10
4317.7457227557770238
 20
186.1050345272217044
 30
0.0
 11
4317.7258534516313375
 21
186.0966826450004135
 31
0.0
  0
ARC
  5
AA68
  8
0
 10
4317.7534988737734238
 20
186.1224066595036106
 30
0.0
 40
0.024700454564177
 50
251.6453476923952906
 51
285.5183023230856065
  0
ARC
  5
AA69
  8
0
 10
4317.7348737697466277
 20
186.1261139165025895
 30
0.0
 40
0.029237624139355
 50
269.9707302245449227
 51
291.7769303078518988
  0
ARC
  5
AA6A
  8
0
 10
4317.7268138184690542
 20
186.27639718123271
 30
0.0
 40
0.1797010585362102
 50
267.4340745093115856
 51
272.5659254906883007
  0
ARC
  5
AA6B
  8
0
 10
4317.7188343289908516
 20
186.8806833255806055
 30
0.0
 40
0.7856547149878143
 50
269.995221383247781
 51
273.031321737907092
  0
LINE
  5
AA6C
  8
0
 10
4317.7408930883475477
 20
186.1087886176752875
 30
0.0
 11
4317.7407301432685927
 21
186.1271681430542912
 31
0.0
  0
LINE
  5
AA6D
  8
0
 10
4317.7506029130490788
 20
186.1094739707253041
 30
0.0
 11
4317.7506029130490788
 21
186.1273960909078937
 31
0.0
  0
ARC
  5
AA6E
  8
0
 10
4317.7431114544378943
 20
186.1128070910583858
 30
0.0
 40
0.0081994904280416
 50
288.5704931125155781
 51
336.0146308085589908
  0
ARC
  5
AA6F
  8
0
 10
4317.7465939106186852
 20
186.1111390230379925
 30
0.0
 40
0.0061663425085377
 50
202.4059789019746916
 51
261.8783231865712082
  0
ARC
  5
AA70
  8
0
 10
4317.7187683955989996
 20
186.4808707563690007
 30
0.0
 40
0.3948022382444901
 50
263.9896510430701255
 51
276.0103489569298745
  0
LINE
  5
AA71
  8
0
 10
4313.967199599956075
 20
184.0288708823252932
 30
0.0
 11
4313.967199599956075
 21
184.3985559216253023
 31
0.0
  0
LINE
  5
AA72
  8
0
 10
4313.59632074234014
 20
184.0288708823252932
 30
0.0
 11
4313.59632074234014
 21
184.3985559216253023
 31
0.0
  0
LINE
  5
AA73
  8
0
 10
4321.4703371912391958
 20
184.0288708823252932
 30
0.0
 11
4321.4703371912391958
 21
184.3788708823254012
 31
0.0
  0
LINE
  5
AA74
  8
0
 10
4321.8412160488569498
 20
184.0288708823252932
 30
0.0
 11
4321.8412160488569498
 21
184.3788708823254012
 31
0.0
  0
ENDSEC
  0
EOF
