  0
SECTION
  2
HEADER
  9
$ACADVER
  1
AC1009
  9
$INSBASE
 10
4342.1960366547600643
 20
183.1793111234306082
 30
0.0
  9
$EXTMIN
 10
4335.3458383730094283
 20
176.58049596958341
 30
0.0
  9
$EXTMAX
 10
4349.0462349365107002
 20
184.3339129190582071
 30
0.0
  9
$LIMMIN
 10
0.0
 20
0.0
  9
$LIMMAX
 10
11.6929133858000007
 20
8.2677165353999982
  9
$ORTHOMODE
 70
     0
  9
$REGENMODE
 70
     1
  9
$FILLMODE
 70
     1
  9
$QTEXTMODE
 70
     0
  9
$MIRRTEXT
 70
     0
  9
$DRAGMODE
 70
     2
  9
$LTSCALE
 40
0.6431102362
  9
$OSMODE
 70
  4095
  9
$ATTMODE
 70
     1
  9
$TEXTSIZE
 40
0.2
  9
$TRACEWID
 40
0.05
  9
$TEXTSTYLE
  7
STANDARD
  9
$CLAYER
  8
0
  9
$CELTYPE
  6
BYLAYER
  9
$CECOLOR
 62
   256
  9
$DIMSCALE
 40
1.0
  9
$DIMASZ
 40
0.1875
  9
$DIMEXO
 40
0.0625
  9
$DIMDLI
 40
0.4443307087
  9
$DIMRND
 40
0.0
  9
$DIMDLE
 40
0.0
  9
$DIMEXE
 40
0.125
  9
$DIMTP
 40
0.01
  9
$DIMTM
 40
0.01
  9
$DIMTXT
 40
2.0
  9
$DIMCEN
 40
0.1052362205
  9
$DIMTSZ
 40
0.0
  9
$DIMTOL
 70
     1
  9
$DIMLIM
 70
     0
  9
$DIMTIH
 70
     1
  9
$DIMTOH
 70
     1
  9
$DIMSE1
 70
     0
  9
$DIMSE2
 70
     0
  9
$DIMTAD
 70
     0
  9
$DIMZIN
 70
     0
  9
$DIMBLK
  1

  9
$DIMASO
 70
     1
  9
$DIMSHO
 70
     1
  9
$DIMPOST
  1
\X
  9
$DIMAPOST
  1

  9
$DIMALT
 70
     1
  9
$DIMALTD
 70
     2
  9
$DIMALTF
 40
25.3999999999999986
  9
$DIMLFAC
 40
1.0
  9
$DIMTOFL
 70
     0
  9
$DIMTVP
 40
0.0
  9
$DIMTIX
 70
     0
  9
$DIMSOXD
 70
     0
  9
$DIMSAH
 70
     0
  9
$DIMBLK1
  1

  9
$DIMBLK2
  1

  9
$DIMSTYLE
  2
STANDARD
  9
$DIMCLRD
 70
     0
  9
$DIMCLRE
 70
     0
  9
$DIMCLRT
 70
     0
  9
$DIMTFAC
 40
1.0
  9
$DIMGAP
 40
0.09
  9
$LUNITS
 70
     2
  9
$LUPREC
 70
     4
  9
$SKETCHINC
 40
0.1
  9
$FILLETRAD
 40
0.0
  9
$AUNITS
 70
     0
  9
$AUPREC
 70
     0
  9
$MENU
  1
.
  9
$ELEVATION
 40
0.0
  9
$PELEVATION
 40
0.0
  9
$THICKNESS
 40
0.0
  9
$LIMCHECK
 70
     0
  9
$BLIPMODE
 70
     0
  9
$CHAMFERA
 40
0.0
  9
$CHAMFERB
 40
0.0
  9
$SKPOLY
 70
     0
  9
$TDCREATE
 40
2458060.468368056230247
  9
$TDUPDATE
 40
2459455.801759259775281
  9
$TDINDWG
 40
0.4208751157
  9
$TDUSRTIMER
 40
0.4208751157
  9
$USRTIMER
 70
     1
  9
$ANGBASE
 50
0.0
  9
$ANGDIR
 70
     0
  9
$PDMODE
 70
     0
  9
$PDSIZE
 40
0.3125
  9
$PLINEWID
 40
0.0
  9
$COORDS
 70
     1
  9
$SPLFRAME
 70
     0
  9
$SPLINETYPE
 70
     6
  9
$SPLINESEGS
 70
     8
  9
$ATTDIA
 70
     1
  9
$ATTREQ
 70
     1
  9
$HANDLING
 70
     1
  9
$HANDSEED
  5
AC21
  9
$SURFTAB1
 70
     6
  9
$SURFTAB2
 70
     6
  9
$SURFTYPE
 70
     6
  9
$SURFU
 70
     6
  9
$SURFV
 70
     6
  9
$UCSNAME
  2

  9
$UCSORG
 10
0.0
 20
0.0
 30
0.0
  9
$UCSXDIR
 10
1.0
 20
0.0
 30
0.0
  9
$UCSYDIR
 10
0.0
 20
1.0
 30
0.0
  9
$PUCSNAME
  2

  9
$PUCSORG
 10
0.0
 20
0.0
 30
0.0
  9
$PUCSXDIR
 10
1.0
 20
0.0
 30
0.0
  9
$PUCSYDIR
 10
0.0
 20
1.0
 30
0.0
  9
$USERI1
 70
     0
  9
$USERI2
 70
     0
  9
$USERI3
 70
     0
  9
$USERI4
 70
     0
  9
$USERI5
 70
     0
  9
$USERR1
 40
0.0
  9
$USERR2
 40
0.0
  9
$USERR3
 40
0.0
  9
$USERR4
 40
0.0
  9
$USERR5
 40
0.0
  9
$WORLDVIEW
 70
     1
  9
$SHADEDGE
 70
     3
  9
$SHADEDIF
 70
    70
  9
$TILEMODE
 70
     1
  9
$MAXACTVP
 70
    64
  9
$PLIMCHECK
 70
     0
  9
$PEXTMIN
 10
1.0000000000000000E+20
 20
1.0000000000000000E+20
 30
1.0000000000000000E+20
  9
$PEXTMAX
 10
-1.0000000000000000E+20
 20
-1.0000000000000000E+20
 30
-1.0000000000000000E+20
  9
$PLIMMIN
 10
0.0
 20
0.0
  9
$PLIMMAX
 10
12.0
 20
9.0
  9
$UNITMODE
 70
     0
  9
$VISRETAIN
 70
     1
  9
$PLINEGEN
 70
     0
  9
$PSLTSCALE
 70
     1
  0
ENDSEC
  0
SECTION
  2
TABLES
  0
TABLE
  2
VPORT
 70
     1
  0
VPORT
  2
*ACTIVE
 70
     0
 10
0.0
 20
0.0
 11
1.0
 21
1.0
 12
538.6707153202933114
 22
55.2852491315203167
 13
0.0
 23
0.0
 14
1.0
 24
1.0
 15
0.0
 25
0.0
 16
0.0
 26
0.0
 36
17.1152628219792007
 17
3803.5440673828129547
 27
125.9952621967499056
 37
0.0
 40
9.4829714421240912
 41
2.3493253373313339
 42
50.0
 43
0.0
 44
0.0
 50
0.0
 51
0.0
 71
     0
 72
   100
 73
     1
 74
     1
 75
     0
 76
     0
 77
     0
 78
     0
  0
ENDTAB
  0
TABLE
  2
LTYPE
 70
     2
  0
LTYPE
  2
CONTINUOUS
 70
     0
  3
Solid line
 72
    65
 73
     0
 40
0.0
  0
LTYPE
  2
PHANTOM2
 70
     0
  3
___ _ _ ___ _ _ ___ _ _ ___ _ _
 72
    65
 73
     6
 40
1.25
 49
0.625
 49
-0.125
 49
0.125
 49
-0.125
 49
0.125
 49
-0.125
  0
ENDTAB
  0
TABLE
  2
LAYER
 70
     2
  0
LAYER
  2
0
 70
     0
 62
   255
  6
CONTINUOUS
  0
LAYER
  2
DEFPOINTS
 70
     0
 62
     7
  6
CONTINUOUS
  0
ENDTAB
  0
TABLE
  2
STYLE
 70
     1
  0
STYLE
  2
STANDARD
 70
     0
 40
0.0
 41
0.8
 50
0.0
 71
     0
 42
0.2
  3
txt
  4

  0
ENDTAB
  0
TABLE
  2
VIEW
 70
     0
  0
ENDTAB
  0
TABLE
  2
UCS
 70
     0
  0
ENDTAB
  0
TABLE
  2
APPID
 70
     9
  0
APPID
  2
ACAD
 70
     0
  0
APPID
  2
ACAD_MLEADERVER
 70
     0
  0
APPID
  2
ACAD_EXEMPT_FROM_CAD_STANDARDS
 70
     0
  0
APPID
  2
ACAD_NAV_VCDISPLAY
 70
     0
  0
APPID
  2
ACAECLAYERSTANDARD
 70
     0
  0
APPID
  2
ACCMTRANSPARENCY
 70
     0
  0
APPID
  2
ACAD_DSTYLE_DIMJAG
 70
     0
  0
APPID
  2
ACAD_DSTYLE_DIMTALN
 70
     0
  0
APPID
  2
ACDBATTR
 70
     0
  0
ENDTAB
  0
TABLE
  2
DIMSTYLE
 70
     1
  0
DIMSTYLE
  2
STANDARD
 70
     0
  3

  4

  5

  6

  7

 40
1.0
 41
0.1875
 42
0.0625
 43
0.38
 44
0.125
 45
0.0
 46
0.0
 47
0.01
 48
0.01
140
0.15625
141
0.09
142
0.0
143
25.3999999999999986
144
1.0
145
0.0
146
1.0
147
0.09
 71
     1
 72
     0
 73
     1
 74
     1
 75
     0
 76
     0
 77
     0
 78
     4
170
     0
171
     2
172
     0
173
     0
174
     0
175
     0
176
     0
177
     0
178
     0
  0
ENDTAB
  0
ENDSEC
  0
SECTION
  2
BLOCKS
  0
BLOCK
  8
0
  2
$MODEL_SPACE
 70
     0
 10
0.0
 20
0.0
 30
0.0
  3
$MODEL_SPACE
  1

  0
ENDBLK
  5
21
  8
0
  0
BLOCK
 67
     1
  8
0
  2
$PAPER_SPACE
 70
     0
 10
0.0
 20
0.0
 30
0.0
  3
$PAPER_SPACE
  1

  0
ENDBLK
  5
1D
 67
     1
  8
0
  0
ENDSEC
  0
SECTION
  2
ENTITIES
  0
ATTDEF
  5
3930
  8
DEFPOINTS
 10
4342.1911863254381387
 20
183.1761047560412976
 30
0.0
 40
0.001
  1
K-EX27101K-4
  3

  2
MODELNUMBER
 70
     0
1001
ACDBATTR
1070
     0
1070
     1
  0
ATTDEF
  5
3931
  8
DEFPOINTS
 10
4342.1911863254381387
 20
183.174438089374604
 30
0.0
 40
0.001
  1

  3

  2
TRADENAME
 70
     0
1001
ACDBATTR
1070
     0
1070
     1
  0
ATTDEF
  5
3932
  8
DEFPOINTS
 10
4342.1911863254381387
 20
183.1727714227079957
 30
0.0
 40
0.001
  1
BATHROOM SINK FAUCET
  3

  2
PRODUCT
 70
     0
1001
ACDBATTR
1070
     0
1070
     1
  0
LINE
  5
A998
  8
0
 10
4341.7135440538158946
 20
183.2621364250148872
 30
0.0
 11
4341.7135440538158946
 21
176.9419810016702002
 31
0.0
  0
ARC
  5
A999
  8
0
 10
4342.4360901529616967
 20
177.4160162236138945
 30
0.0
 40
0.8709034482320406
 50
214.7567888976741983
 51
253.2282735960104105
  0
ARC
  5
A99A
  8
0
 10
4341.7529440538155541
 20
176.9419810016702002
 30
0.0
 40
0.0394
 50
180.0
 51
214.7567888976741983
  0
ARC
  5
A99B
  8
0
 10
4342.1960366547600643
 20
176.6193994418997875
 30
0.0
 40
0.038903472316389
 50
253.1853853965328085
 51
286.8146146035185211
  0
ARC
  5
A99C
  8
0
 10
4343.4201837498903842
 20
183.516295476062993
 30
0.0
 40
2.3801346646578332
 50
180.9221858178852074
 51
215.078840774955296
  0
ARC
  5
A99D
  8
0
 10
4340.5641189498674066
 20
183.4703226324388083
 30
0.0
 40
0.4763001139220539
 50
0.9221858178852377
 51
1.2659329802755721
  0
ARC
  5
A99E
  8
0
 10
4341.1571453782726167
 20
183.4745827244755105
 30
0.0
 40
0.1170102903300273
 50
173.4654122314954066
 51
176.9318833732895087
  0
ARC
  5
A99F
  8
0
 10
4341.0835650042763518
 20
183.4797061679855119
 30
0.0
 40
0.0434491272128629
 50
140.9962238503852063
 51
169.1313626244964041
  0
ARC
  5
A9A0
  8
0
 10
4342.9519017573993551
 20
182.0781794983979864
 30
0.0
 40
2.3790051110645392
 50
108.5252893311834015
 51
143.0858579040080087
  0
ARC
  5
A9A1
  8
0
 10
4342.2037748058801299
 20
184.4378266106440094
 30
0.0
 40
2.4131213563492162
 50
252.9707217898983913
 51
258.2786519517123907
  0
ARC
  5
A9A2
  8
0
 10
4341.5063621063509345
 20
182.1692969953654142
 30
0.0
 40
0.0398870855190967
 50
211.5527076834021898
 51
256.5245440363723901
  0
ARC
  5
A9A3
  8
0
 10
4342.4360901529616967
 20
182.7881012030711929
 30
0.0
 40
0.8709034482320406
 50
106.7717264039896037
 51
145.2432111023258017
  0
ARC
  5
A9A4
  8
0
 10
4341.7588063391967808
 20
183.2603017235445009
 30
0.0
 40
0.0452994548248096
 50
147.5644181064716065
 51
177.6787929958620111
  0
ARC
  5
A9A5
  8
0
 10
4342.196036628800357
 20
183.5846171529892956
 30
0.0
 40
0.0389999965403225
 50
89.9999618616331531
 51
106.7717264039896037
  0
LINE
  5
A9A6
  8
0
 10
4342.6785292557042339
 20
183.2621364250148872
 30
0.0
 11
4342.6785292557042339
 21
176.9419810016702002
 31
0.0
  0
ARC
  5
A9A7
  8
0
 10
4341.9559831565584318
 20
177.4160162236138945
 30
0.0
 40
0.8709034482320406
 50
286.7717264039895895
 51
325.243211102325688
  0
ARC
  5
A9A8
  8
0
 10
4342.639129255703665
 20
176.9419810016702002
 30
0.0
 40
0.0394
 50
325.243211102325688
 51
0.0
  0
ARC
  5
A9A9
  8
0
 10
4340.9718895596297443
 20
183.516295476062993
 30
0.0
 40
2.3801346646578332
 50
324.9211592250446756
 51
359.0778141821147074
  0
ARC
  5
A9AA
  8
0
 10
4343.8279543596518124
 20
183.4703226324388083
 30
0.0
 40
0.4763001139220539
 50
178.7340670197243924
 51
179.0778141821147074
  0
ARC
  5
A9AB
  8
0
 10
4343.2349279312466024
 20
183.4745827244755105
 30
0.0
 40
0.1170102903300273
 50
3.0681166267105411
 51
6.5345877685045961
  0
ARC
  5
A9AC
  8
0
 10
4343.3085083052428672
 20
183.4797061679855119
 30
0.0
 40
0.0434491272128629
 50
10.8686373755035497
 51
39.0037761496148079
  0
ARC
  5
A9AD
  8
0
 10
4341.4401715521207734
 20
182.0781794983979864
 30
0.0
 40
2.3790051110645392
 50
36.9141420959919984
 51
71.4747106688165275
  0
ARC
  5
A9AE
  8
0
 10
4342.1882985036390892
 20
184.4378266106440094
 30
0.0
 40
2.4131213563492162
 50
281.7213480482874957
 51
287.0292782101017224
  0
ARC
  5
A9AF
  8
0
 10
4342.8857112031673751
 20
182.1692969953654142
 30
0.0
 40
0.0398870855190967
 50
283.4754559636276099
 51
328.4472923165977818
  0
ARC
  5
A9B0
  8
0
 10
4341.9559831565584318
 20
182.7881012030711929
 30
0.0
 40
0.8709034482320406
 50
34.7567888976742481
 51
73.2282735960104105
  0
ARC
  5
A9B1
  8
0
 10
4342.631566677750925
 20
183.2597695881947004
 30
0.0
 40
0.0470221824733468
 50
2.8851720912994381
 51
31.8716168063665606
  0
ARC
  5
A9B2
  8
0
 10
4342.1960366807197715
 20
183.5846171529892956
 30
0.0
 40
0.0389999965403225
 50
73.2282735960104105
 51
90.0000381383668469
  0
LINE
  5
A9B3
  8
0
 10
4341.4850102381087709
 20
182.1356071524654112
 30
0.0
 11
4341.7135440538158946
 21
182.4502504262420928
 31
0.0
  0
LINE
  5
A9B4
  8
0
 10
4342.9112692334101666
 20
182.1386776745654004
 30
0.0
 11
4342.6785292557042339
 21
182.4571859301418897
 31
0.0
  0
LINE
  5
A9B5
  8
0
 10
4341.7155738247702175
 20
183.273829114412905
 30
0.0
 11
4341.0422525249095997
 21
183.493163719924496
 31
0.0
  0
LINE
  5
A9B6
  8
0
 10
4342.6762002676114207
 20
183.2745658140867135
 30
0.0
 11
4343.3498171824103338
 21
183.4937235767654045
 31
0.0
  0
LINE
  5
A9B8
  8
0
 10
4342.1960366547600643
 20
176.58049596958341
 30
0.0
 11
4342.1960366547600643
 21
179.3099245172678877
 31
0.0
  0
LINE
  5
A9B9
  8
0
 10
4342.1960366547600643
 20
176.6430047003848074
 30
0.0
 11
4342.1960366547600643
 21
184.3339129190582071
 31
0.0
  0
ARC
  5
A9D2
  8
0
 10
4339.4829974771637353
 20
183.516295476062993
 30
0.0
 40
2.3801346646578332
 50
180.9221858178852074
 51
182.0843484402028878
  0
ARC
  5
A9D3
  8
0
 10
4339.4829974771637353
 20
183.516295476062993
 30
0.0
 40
2.3801346646578332
 50
197.2170163442092132
 51
215.078840774955296
  0
ARC
  5
A9D4
  8
0
 10
4336.6269326771398482
 20
183.4703226324388083
 30
0.0
 40
0.4763001139220539
 50
0.9221858178852377
 51
1.2659329802755721
  0
ARC
  5
A9D5
  8
0
 10
4337.2199591055468773
 20
183.4745827244755105
 30
0.0
 40
0.1170102903300273
 50
173.4654122314954066
 51
176.9318833732895087
  0
ARC
  5
A9D6
  8
0
 10
4337.1463787315497029
 20
183.4797061679855119
 30
0.0
 40
0.0434491272128629
 50
140.9962238503852063
 51
169.1313626244964041
  0
ARC
  5
A9D7
  8
0
 10
4339.0147154846717967
 20
182.0781794983979864
 30
0.0
 40
2.3790051110645392
 50
108.5252893311834015
 51
143.0858579040080087
  0
ARC
  5
A9D8
  8
0
 10
4338.2588503820334154
 20
184.4103014948321118
 30
0.0
 40
2.3845369673104879
 50
252.9548118285107989
 51
287.0451881714886895
  0
ARC
  5
A9D9
  8
0
 10
4337.5691758336261046
 20
182.1692969953654142
 30
0.0
 40
0.0398870855190967
 50
211.5527076834021898
 51
256.5245440363723901
  0
ARC
  5
A9DA
  8
0
 10
4337.0347032869040049
 20
183.516295476062993
 30
0.0
 40
2.3801346646578332
 50
324.9211592250446756
 51
359.0778141821147074
  0
ARC
  5
A9DB
  8
0
 10
4339.890768086926073
 20
183.4703226324388083
 30
0.0
 40
0.4763001139220539
 50
178.7340670197243924
 51
179.0778141821147074
  0
ARC
  5
A9DC
  8
0
 10
4339.2977416585199535
 20
183.4745827244755105
 30
0.0
 40
0.1170102903300273
 50
3.0681166267105411
 51
6.5345877685045961
  0
ARC
  5
A9DD
  8
0
 10
4339.3713220325171278
 20
183.4797061679855119
 30
0.0
 40
0.0434491272128629
 50
10.8686373755035497
 51
39.0037761496148079
  0
ARC
  5
A9DE
  8
0
 10
4337.5029852793941245
 20
182.0781794983979864
 30
0.0
 40
2.3790051110645392
 50
36.9141420959919984
 51
71.4747106688165275
  0
ARC
  5
A9DF
  8
0
 10
4338.9485249304407262
 20
182.1692969953654142
 30
0.0
 40
0.0398870855190967
 50
283.4754559636276099
 51
328.4472923165977818
  0
LINE
  5
A9E0
  8
0
 10
4337.5478239653830315
 20
182.1356071524654112
 30
0.0
 11
4338.0386647801251456
 21
182.8113923108955987
 31
0.0
  0
LINE
  5
A9E1
  8
0
 10
4338.9740829606826082
 20
182.1386776745654004
 30
0.0
 11
4338.4421235943682404
 21
182.8666722867193926
 31
0.0
  0
LINE
  5
A9E2
  8
0
 10
4337.2995253167664487
 20
183.429818624162408
 30
0.0
 11
4337.1050662521838603
 21
183.493163719924496
 31
0.0
  0
LINE
  5
A9E3
  8
0
 10
4338.5579303675767733
 20
183.215651196970299
 30
0.0
 11
4339.4126309096827754
 21
183.4937235767654045
 31
0.0
  0
LINE
  5
A9E4
  8
0
 10
4335.3458383730094283
 20
182.8895689530602908
 30
0.0
 11
4335.3458383730094283
 21
183.3520548221420086
 31
0.0
  0
LINE
  5
A9E5
  8
0
 10
4335.4214638053217641
 20
183.4289487652276875
 30
0.0
 11
4338.3178043689458718
 21
183.4302902589444102
 31
0.0
  0
LINE
  5
A9E6
  8
0
 10
4335.356910054328182
 20
183.3794385100001989
 30
0.0
 11
4335.3931537354783359
 21
183.4169324573121003
 31
0.0
  0
LINE
  5
A9E7
  8
0
 10
4335.3569095453876798
 20
182.862185791708896
 30
0.0
 11
4335.3931623162497999
 21
182.8246810462435121
 31
0.0
  0
LINE
  5
A9E8
  8
0
 10
4335.4214719962910749
 20
182.8126642122475971
 30
0.0
 11
4338.3174363609723514
 21
182.8112568336954098
 31
0.0
  0
ARC
  5
A9E9
  8
0
 10
4335.3852383730090878
 20
182.8895689530602908
 30
0.0
 40
0.0394
 50
179.9999999999951115
 51
224.0275435462141047
  0
ARC
  5
A9EA
  8
0
 10
4335.4214911438712079
 20
182.852064207594907
 30
0.0
 40
0.0394
 50
224.027543546219988
 51
269.9721554429726211
  0
ARC
  5
A9EB
  8
0
 10
4335.3852383730090878
 20
183.3520548221420086
 30
0.0
 40
0.0394
 50
135.9713915706722958
 51
180.0
  0
ARC
  5
A9EC
  8
0
 10
4335.4214820541592417
 20
183.3895487694539099
 30
0.0
 40
0.0394
 50
90.0265375984211573
 51
135.9713915706770138
  0
LINE
  5
A9ED
  8
0
 10
4338.5740286525469855
 20
183.1208118876012065
 30
0.0
 11
4335.3458383730094283
 21
183.1208118876012065
 31
0.0
  0
ARC
  5
A9EE
  8
0
 10
4338.2518977139252456
 20
183.1149184351820054
 30
0.0
 40
0.3221848450800769
 50
1.048121254760527
 51
78.1961618770593532
  0
ARC
  5
A9EF
  8
0
 10
4338.2518977139252456
 20
183.126705340020294
 30
0.0
 40
0.3221848450800769
 50
281.7369877049623028
 51
358.9518787452395259
  0
LINE
  5
A9F0
  8
0
 10
4338.2590293816310805
 20
183.4302630362215893
 30
0.0
 11
4338.2590300354222563
 21
184.3338527117321917
 31
0.0
  0
ARC
  5
A9F1
  8
0
 10
4344.9090758323563932
 20
183.516295476062993
 30
0.0
 40
2.3801346646578332
 50
357.9156515597970269
 51
359.0778141821147074
  0
ARC
  5
A9F2
  8
0
 10
4344.9090758323563932
 20
183.516295476062993
 30
0.0
 40
2.3801346646578332
 50
324.9211592250446756
 51
342.7829836557908152
  0
ARC
  5
A9F3
  8
0
 10
4347.7651406323793708
 20
183.4703226324388083
 30
0.0
 40
0.4763001139220539
 50
178.7340670197243924
 51
179.0778141821147074
  0
ARC
  5
A9F4
  8
0
 10
4347.1721142039732513
 20
183.4745827244755105
 30
0.0
 40
0.1170102903300273
 50
3.0681166267105411
 51
6.5345877685045961
  0
ARC
  5
A9F5
  8
0
 10
4347.2456945779704256
 20
183.4797061679855119
 30
0.0
 40
0.0434491272128629
 50
10.8686373755035497
 51
39.0037761496148079
  0
ARC
  5
A9F6
  8
0
 10
4345.3773578248474223
 20
182.0781794983979864
 30
0.0
 40
2.3790051110645392
 50
36.9141420959919984
 51
71.4747106688165275
  0
ARC
  5
A9F7
  8
0
 10
4346.1332229274867132
 20
184.4103014948321118
 30
0.0
 40
2.3845369673104879
 50
252.9548118285111968
 51
287.0451881714892011
  0
ARC
  5
A9F8
  8
0
 10
4346.822897475894024
 20
182.1692969953654142
 30
0.0
 40
0.0398870855190967
 50
283.4754559636276099
 51
328.4472923165977818
  0
ARC
  5
A9F9
  8
0
 10
4347.3573700226161236
 20
183.516295476062993
 30
0.0
 40
2.3801346646578332
 50
180.9221858178852074
 51
215.078840774955296
  0
ARC
  5
A9FA
  8
0
 10
4344.501305222593146
 20
183.4703226324388083
 30
0.0
 40
0.4763001139220539
 50
0.9221858178852377
 51
1.2659329802755721
  0
ARC
  5
A9FB
  8
0
 10
4345.094331651000175
 20
183.4745827244755105
 30
0.0
 40
0.1170102903300273
 50
173.4654122314954066
 51
176.9318833732895087
  0
ARC
  5
A9FC
  8
0
 10
4345.0207512770030007
 20
183.4797061679855119
 30
0.0
 40
0.0434491272128629
 50
140.9962238503852063
 51
169.1313626244964041
  0
ARC
  5
A9FD
  8
0
 10
4346.889088030126004
 20
182.0781794983979864
 30
0.0
 40
2.3790051110645392
 50
108.5252893311834015
 51
143.0858579040080087
  0
ARC
  5
A9FE
  8
0
 10
4345.4435483790794024
 20
182.1692969953654142
 30
0.0
 40
0.0398870855190967
 50
211.5527076834021898
 51
256.5245440363723901
  0
LINE
  5
A9FF
  8
0
 10
4346.8442493441361876
 20
182.1356071524654112
 30
0.0
 11
4346.3534085293940734
 21
182.8113923108955987
 31
0.0
  0
LINE
  5
AA00
  8
0
 10
4345.4179903488366108
 20
182.1386776745654004
 30
0.0
 11
4345.9499497151509786
 21
182.8666722867193926
 31
0.0
  0
LINE
  5
AA01
  8
0
 10
4347.0925479927536799
 20
183.429818624162408
 30
0.0
 11
4347.2870070573353587
 21
183.493163719924496
 31
0.0
  0
LINE
  5
AA02
  8
0
 10
4345.8341429419424458
 20
183.215651196970299
 30
0.0
 11
4344.9794423998364437
 21
183.4937235767654045
 31
0.0
  0
LINE
  5
AA03
  8
0
 10
4349.0462349365107002
 20
182.8895689530602908
 30
0.0
 11
4349.0462349365107002
 21
183.3520548221420086
 31
0.0
  0
LINE
  5
AA04
  8
0
 10
4348.9706095041983644
 20
183.4289487652276875
 30
0.0
 11
4346.0742689405742567
 21
183.4302902589444102
 31
0.0
  0
LINE
  5
AA05
  8
0
 10
4349.035163255191037
 20
183.3794385100001989
 30
0.0
 11
4348.9989195740417927
 21
183.4169324573121003
 31
0.0
  0
LINE
  5
AA06
  8
0
 10
4349.0351637641306297
 20
182.862185791708896
 30
0.0
 11
4348.9989109932703286
 21
182.8246810462435121
 31
0.0
  0
LINE
  5
AA07
  8
0
 10
4348.9706013132281441
 20
182.8126642122475971
 30
0.0
 11
4346.0746369485477771
 21
182.8112568336954098
 31
0.0
  0
ARC
  5
AA08
  8
0
 10
4349.0068349365101312
 20
182.8895689530602908
 30
0.0
 40
0.0394
 50
315.97245645378581
 51
0.0000000000048853
  0
ARC
  5
AA09
  8
0
 10
4348.9705821656489206
 20
182.852064207594907
 30
0.0
 40
0.0394
 50
270.0278445570273789
 51
315.972456453780012
  0
ARC
  5
AA0A
  8
0
 10
4349.0068349365101312
 20
183.3520548221420086
 30
0.0
 40
0.0394
 50
0.0
 51
44.02860842932769
  0
ARC
  5
AA0B
  8
0
 10
4348.9705912553608869
 20
183.3895487694539099
 30
0.0
 40
0.0394
 50
44.0286084293230076
 51
89.9734624015788569
  0
LINE
  5
AA0C
  8
0
 10
4345.818044656971324
 20
183.1208118876012065
 30
0.0
 11
4349.0462349365107002
 21
183.1208118876012065
 31
0.0
  0
ARC
  5
AA0D
  8
0
 10
4346.1401755955948829
 20
183.1149184351820054
 30
0.0
 40
0.3221848450800769
 50
101.8038381229406042
 51
178.9518787452394974
  0
ARC
  5
AA0E
  8
0
 10
4346.1401755955948829
 20
183.126705340020294
 30
0.0
 40
0.3221848450800769
 50
181.0481212547605026
 51
258.2630122950376972
  0
LINE
  5
AA0F
  8
0
 10
4346.1330439278881386
 20
183.4302630362215893
 30
0.0
 11
4346.1330432740969627
 21
184.3338527117321917
 31
0.0
  0
ENDSEC
  0
EOF
