  0
SECTION
  2
HEADER
  9
$ACADVER
  1
AC1009
  9
$INSBASE
 10
4350.2801092521776809
 20
184.0343061176297113
 30
0.0
  9
$EXTMIN
 10
4344.8366515822135625
 20
184.0343061176297113
 30
0.0
  9
$EXTMAX
 10
4355.7235669221427088
 20
189.7426933459796885
 30
0.0
  9
$LIMMIN
 10
0.0
 20
0.0
  9
$LIMMAX
 10
11.6929133858000007
 20
8.2677165353999982
  9
$ORTHOMODE
 70
     0
  9
$REGENMODE
 70
     1
  9
$FILLMODE
 70
     1
  9
$QTEXTMODE
 70
     0
  9
$MIRRTEXT
 70
     0
  9
$DRAGMODE
 70
     2
  9
$LTSCALE
 40
0.6431102362
  9
$OSMODE
 70
  4095
  9
$ATTMODE
 70
     1
  9
$TEXTSIZE
 40
0.2
  9
$TRACEWID
 40
0.05
  9
$TEXTSTYLE
  7
STANDARD
  9
$CLAYER
  8
0
  9
$CELTYPE
  6
BYLAYER
  9
$CECOLOR
 62
   256
  9
$DIMSCALE
 40
1.0
  9
$DIMASZ
 40
0.1875
  9
$DIMEXO
 40
0.0625
  9
$DIMDLI
 40
0.4443307087
  9
$DIMRND
 40
0.0
  9
$DIMDLE
 40
0.0
  9
$DIMEXE
 40
0.125
  9
$DIMTP
 40
0.01
  9
$DIMTM
 40
0.01
  9
$DIMTXT
 40
2.0
  9
$DIMCEN
 40
0.1052362205
  9
$DIMTSZ
 40
0.0
  9
$DIMTOL
 70
     1
  9
$DIMLIM
 70
     0
  9
$DIMTIH
 70
     1
  9
$DIMTOH
 70
     1
  9
$DIMSE1
 70
     0
  9
$DIMSE2
 70
     0
  9
$DIMTAD
 70
     0
  9
$DIMZIN
 70
     0
  9
$DIMBLK
  1

  9
$DIMASO
 70
     1
  9
$DIMSHO
 70
     1
  9
$DIMPOST
  1
\X
  9
$DIMAPOST
  1

  9
$DIMALT
 70
     1
  9
$DIMALTD
 70
     2
  9
$DIMALTF
 40
25.3999999999999986
  9
$DIMLFAC
 40
1.0
  9
$DIMTOFL
 70
     0
  9
$DIMTVP
 40
0.0
  9
$DIMTIX
 70
     0
  9
$DIMSOXD
 70
     0
  9
$DIMSAH
 70
     0
  9
$DIMBLK1
  1

  9
$DIMBLK2
  1

  9
$DIMSTYLE
  2
STANDARD
  9
$DIMCLRD
 70
     0
  9
$DIMCLRE
 70
     0
  9
$DIMCLRT
 70
     0
  9
$DIMTFAC
 40
1.0
  9
$DIMGAP
 40
0.09
  9
$LUNITS
 70
     2
  9
$LUPREC
 70
     4
  9
$SKETCHINC
 40
0.1
  9
$FILLETRAD
 40
0.0
  9
$AUNITS
 70
     0
  9
$AUPREC
 70
     0
  9
$MENU
  1
.
  9
$ELEVATION
 40
0.0
  9
$PELEVATION
 40
0.0
  9
$THICKNESS
 40
0.0
  9
$LIMCHECK
 70
     0
  9
$BLIPMODE
 70
     0
  9
$CHAMFERA
 40
0.0
  9
$CHAMFERB
 40
0.0
  9
$SKPOLY
 70
     0
  9
$TDCREATE
 40
2458060.468368056230247
  9
$TDUPDATE
 40
2459359.6335185188800097
  9
$TDINDWG
 40
0.4260140046
  9
$TDUSRTIMER
 40
0.4260140046
  9
$USRTIMER
 70
     1
  9
$ANGBASE
 50
0.0
  9
$ANGDIR
 70
     0
  9
$PDMODE
 70
     0
  9
$PDSIZE
 40
0.3125
  9
$PLINEWID
 40
0.0
  9
$COORDS
 70
     1
  9
$SPLFRAME
 70
     0
  9
$SPLINETYPE
 70
     6
  9
$SPLINESEGS
 70
     8
  9
$ATTDIA
 70
     1
  9
$ATTREQ
 70
     1
  9
$HANDLING
 70
     1
  9
$HANDSEED
  5
BB4D
  9
$SURFTAB1
 70
     6
  9
$SURFTAB2
 70
     6
  9
$SURFTYPE
 70
     6
  9
$SURFU
 70
     6
  9
$SURFV
 70
     6
  9
$UCSNAME
  2

  9
$UCSORG
 10
0.0
 20
0.0
 30
0.0
  9
$UCSXDIR
 10
1.0
 20
0.0
 30
0.0
  9
$UCSYDIR
 10
0.0
 20
1.0
 30
0.0
  9
$PUCSNAME
  2

  9
$PUCSORG
 10
0.0
 20
0.0
 30
0.0
  9
$PUCSXDIR
 10
1.0
 20
0.0
 30
0.0
  9
$PUCSYDIR
 10
0.0
 20
1.0
 30
0.0
  9
$USERI1
 70
     0
  9
$USERI2
 70
     0
  9
$USERI3
 70
     0
  9
$USERI4
 70
     0
  9
$USERI5
 70
     0
  9
$USERR1
 40
0.0
  9
$USERR2
 40
0.0
  9
$USERR3
 40
0.0
  9
$USERR4
 40
0.0
  9
$USERR5
 40
0.0
  9
$WORLDVIEW
 70
     1
  9
$SHADEDGE
 70
     3
  9
$SHADEDIF
 70
    70
  9
$TILEMODE
 70
     1
  9
$MAXACTVP
 70
    64
  9
$PLIMCHECK
 70
     0
  9
$PEXTMIN
 10
1.0000000000000000E+20
 20
1.0000000000000000E+20
 30
1.0000000000000000E+20
  9
$PEXTMAX
 10
-1.0000000000000000E+20
 20
-1.0000000000000000E+20
 30
-1.0000000000000000E+20
  9
$PLIMMIN
 10
0.0
 20
0.0
  9
$PLIMMAX
 10
12.0
 20
9.0
  9
$UNITMODE
 70
     0
  9
$VISRETAIN
 70
     1
  9
$PLINEGEN
 70
     0
  9
$PSLTSCALE
 70
     1
  0
ENDSEC
  0
SECTION
  2
TABLES
  0
TABLE
  2
VPORT
 70
     1
  0
VPORT
  2
*ACTIVE
 70
     0
 10
0.0
 20
0.0
 11
1.0
 21
1.0
 12
546.7388093698318698
 22
60.8968127356942688
 13
0.0
 23
0.0
 14
1.0
 24
1.0
 15
0.0
 25
0.0
 16
0.0
 26
0.0
 36
17.1152628219792007
 17
3803.5440673828129547
 27
125.9952621967499056
 37
0.0
 40
5.789002956355449
 41
2.5375494071146241
 42
50.0
 43
0.0
 44
0.0
 50
0.0
 51
0.0
 71
     0
 72
   100
 73
     1
 74
     1
 75
     0
 76
     0
 77
     0
 78
     0
  0
ENDTAB
  0
TABLE
  2
LTYPE
 70
     2
  0
LTYPE
  2
CONTINUOUS
 70
     0
  3
Solid line
 72
    65
 73
     0
 40
0.0
  0
LTYPE
  2
PHANTOM2
 70
     0
  3
___ _ _ ___ _ _ ___ _ _ ___ _ _
 72
    65
 73
     6
 40
1.25
 49
0.625
 49
-0.125
 49
0.125
 49
-0.125
 49
0.125
 49
-0.125
  0
ENDTAB
  0
TABLE
  2
LAYER
 70
     2
  0
LAYER
  2
0
 70
     0
 62
   255
  6
CONTINUOUS
  0
LAYER
  2
DEFPOINTS
 70
     0
 62
     7
  6
CONTINUOUS
  0
ENDTAB
  0
TABLE
  2
STYLE
 70
     1
  0
STYLE
  2
STANDARD
 70
     0
 40
0.0
 41
0.8
 50
0.0
 71
     0
 42
0.2
  3
txt
  4

  0
ENDTAB
  0
TABLE
  2
VIEW
 70
     0
  0
ENDTAB
  0
TABLE
  2
UCS
 70
     0
  0
ENDTAB
  0
TABLE
  2
APPID
 70
     9
  0
APPID
  2
ACAD
 70
     0
  0
APPID
  2
ACAD_MLEADERVER
 70
     0
  0
APPID
  2
ACAD_EXEMPT_FROM_CAD_STANDARDS
 70
     0
  0
APPID
  2
ACAD_NAV_VCDISPLAY
 70
     0
  0
APPID
  2
ACAECLAYERSTANDARD
 70
     0
  0
APPID
  2
ACCMTRANSPARENCY
 70
     0
  0
APPID
  2
ACAD_DSTYLE_DIMJAG
 70
     0
  0
APPID
  2
ACAD_DSTYLE_DIMTALN
 70
     0
  0
APPID
  2
ACDBATTR
 70
     0
  0
ENDTAB
  0
TABLE
  2
DIMSTYLE
 70
     1
  0
DIMSTYLE
  2
STANDARD
 70
     0
  3

  4

  5

  6

  7

 40
1.0
 41
0.1875
 42
0.0625
 43
0.38
 44
0.125
 45
0.0
 46
0.0
 47
0.01
 48
0.01
140
0.15625
141
0.09
142
0.0
143
25.3999999999999986
144
1.0
145
0.0
146
1.0
147
0.09
 71
     1
 72
     0
 73
     1
 74
     1
 75
     0
 76
     0
 77
     0
 78
     4
170
     0
171
     2
172
     0
173
     0
174
     0
175
     0
176
     0
177
     0
178
     0
  0
ENDTAB
  0
ENDSEC
  0
SECTION
  2
BLOCKS
  0
BLOCK
  8
0
  2
$MODEL_SPACE
 70
     0
 10
0.0
 20
0.0
 30
0.0
  3
$MODEL_SPACE
  1

  0
ENDBLK
  5
21
  8
0
  0
BLOCK
 67
     1
  8
0
  2
$PAPER_SPACE
 70
     0
 10
0.0
 20
0.0
 30
0.0
  3
$PAPER_SPACE
  1

  0
ENDBLK
  5
1D
 67
     1
  8
0
  0
ENDSEC
  0
SECTION
  2
ENTITIES
  0
ATTDEF
  5
3930
  8
DEFPOINTS
 10
4350.2764248225475967
 20
184.0381438653861039
 30
0.0
 40
0.001
  1
K-EX27101T-3E2
  3

  2
MODELNUMBER
 70
     0
1001
ACDBATTR
1070
     0
1070
     1
  0
ATTDEF
  5
3931
  8
DEFPOINTS
 10
4350.2764248225475967
 20
184.0364771987194104
 30
0.0
 40
0.001
  1

  3

  2
TRADENAME
 70
     0
1001
ACDBATTR
1070
     0
1070
     1
  0
ATTDEF
  5
3932
  8
DEFPOINTS
 10
4350.2764248225475967
 20
184.0348105320526884
 30
0.0
 40
0.001
  1
BATHROOM SINK FAUCET
  3

  2
PRODUCT
 70
     0
1001
ACDBATTR
1070
     0
1070
     1
  0
LINE
  5
B6A7
  8
0
 10
4349.2253363070749401
 20
184.0343061176297113
 30
0.0
 11
4351.3348821972822407
 21
184.0343061176297113
 31
0.0
  0
LINE
  5
B6A8
  8
0
 10
4349.1275439711307627
 20
184.2023071595629062
 30
0.0
 11
4349.1891048713423515
 21
184.0582257085677895
 31
0.0
  0
LINE
  5
B6A9
  8
0
 10
4349.7976166512344207
 20
185.9089884128158872
 30
0.0
 11
4349.7976166512344207
 21
189.3812144711841086
 31
0.0
  0
ARC
  5
B6AA
  8
0
 10
4348.1427624613133958
 20
185.622100986018495
 30
0.0
 40
1.6968498694760761
 50
306.0192094109480081
 51
318.4328291575554886
  0
ARC
  5
B6AB
  8
0
 10
4348.3655071390903686
 20
185.424567122531613
 30
0.0
 40
1.3991338660401029
 50
318.4328291575554886
 51
339.0097774282589853
  0
ARC
  5
B6AC
  8
0
 10
4348.0885707488441767
 20
185.5308188239131937
 30
0.0
 40
1.695753468037384
 50
339.0097774282589853
 51
357.3613583071655171
  0
ARC
  5
B6AD
  8
0
 10
4332.229047068062755
 20
186.2617140212948073
 30
0.0
 40
17.572110076869091
 50
357.3613583071655171
 51
358.8498224731918071
  0
ARC
  5
B6AE
  8
0
 10
4349.1637754068651702
 20
184.2177875686248001
 30
0.0
 40
0.0394
 50
126.0192094109479939
 51
203.1353023700388007
  0
ARC
  5
B6AF
  8
0
 10
4349.2253363070749401
 20
184.0737061176297118
 30
0.0
 40
0.0394
 50
203.1353023700388007
 51
270.0
  0
ARC
  5
B6B0
  8
0
 10
4350.5201627503811324
 20
188.9071792492404995
 30
0.0
 40
0.8709034482320406
 50
106.7717264039896037
 51
145.2432111023269954
  0
ARC
  5
B6B1
  8
0
 10
4349.8370166512349897
 20
189.3812144711841086
 30
0.0
 40
0.0394
 50
145.2432111023688037
 51
180.0
  0
LINE
  5
B6B2
  8
0
 10
4349.9758761066277657
 20
185.9089884128158872
 30
0.0
 11
4349.9758761066277657
 21
188.0158154765445033
 31
0.0
  0
ARC
  5
B6B3
  8
0
 10
4332.4073065234570095
 20
186.2617140212948073
 30
0.0
 40
17.572110076869091
 50
357.3613583071655171
 51
358.8498224731918071
  0
ARC
  5
B6B4
  8
0
 10
4347.8065605017218331
 20
185.4405321750543862
 30
0.0
 40
2.1542599033737551
 50
348.971205348958506
 51
0.3250041230507733
  0
ARC
  5
B6B5
  8
0
 10
4347.8785943541415691
 20
185.4264926396161002
 30
0.0
 40
2.0808706367897161
 50
335.4488981181294207
 51
348.971205348958506
  0
ARC
  5
B6B6
  8
0
 10
4348.6011546655872735
 20
185.0964243258393083
 30
0.0
 40
1.286491322208738
 50
318.7041856673989741
 51
335.4488981181294207
  0
LINE
  5
B6B7
  8
0
 10
4349.5982195575534206
 20
184.0636472080059036
 30
0.0
 11
4349.5592188520931813
 21
184.2113477027309045
 31
0.0
  0
ARC
  5
B6B8
  8
0
 10
4349.6363138922661165
 20
184.0737061176297118
 30
0.0
 40
0.0394
 50
194.7914970801477068
 51
270.0
  0
ARC
  5
B6B9
  8
0
 10
4349.5973131868058772
 20
184.2214066123547127
 30
0.0
 40
0.0394
 50
138.7041856673646123
 51
194.79149708015089
  0
ARC
  5
B6BA
  8
0
 10
4350.2806420000561047
 20
189.7000335176946066
 30
0.0
 40
0.0426631547076939
 50
90.7154885404744675
 51
106.0377652248389069
  0
LINE
  5
B6BB
  8
0
 10
4351.4326745332245991
 20
184.2023071595629062
 30
0.0
 11
4351.3711136330148292
 21
184.0582257085677895
 31
0.0
  0
LINE
  5
B6BC
  8
0
 10
4350.7626018531218506
 20
185.918084425178904
 30
0.0
 11
4350.7626018531218506
 21
189.3812144711841086
 31
0.0
  0
ARC
  5
B6BD
  8
0
 10
4352.417456043043785
 20
185.622100986018495
 30
0.0
 40
1.6968498694760761
 50
221.5671708424445114
 51
233.9807905890519919
  0
ARC
  5
B6BE
  8
0
 10
4352.1947113652668122
 20
185.424567122531613
 30
0.0
 40
1.3991338660401029
 50
200.990222571740901
 51
221.5671708424445114
  0
ARC
  5
B6BF
  8
0
 10
4352.4716477555130041
 20
185.5308188239131937
 30
0.0
 40
1.695753468037384
 50
182.6386416928343976
 51
200.990222571740901
  0
ARC
  5
B6C0
  8
0
 10
4371.0476403445873075
 20
186.3430009786769972
 30
0.0
 40
20.2894884281888217
 50
181.2000157259220998
 51
182.5147945533213942
  0
ARC
  5
B6C1
  8
0
 10
4351.3964430974920106
 20
184.2177875686248001
 30
0.0
 40
0.0394
 50
336.8646976299610856
 51
53.9807905890519635
  0
ARC
  5
B6C2
  8
0
 10
4351.3348821972822407
 20
184.0737061176297118
 30
0.0
 40
0.0394
 50
270.0
 51
336.8646976299610856
  0
ARC
  5
B6C3
  8
0
 10
4350.0400557539760484
 20
188.9071792492404995
 30
0.0
 40
0.8709034482320406
 50
34.7567888976742481
 51
73.2282735960104105
  0
ARC
  5
B6C4
  8
0
 10
4350.7232018531221911
 20
189.3812144711841086
 30
0.0
 40
0.0394
 50
0.0
 51
34.7567888976311608
  0
ARC
  5
B6C5
  8
0
 10
4368.1529119808992618
 20
186.2617140212948073
 30
0.0
 40
17.572110076869091
 50
181.1501775268081929
 51
182.6386416928343976
  0
ARC
  5
B6C6
  8
0
 10
4352.7536580026344382
 20
185.4405321750543862
 30
0.0
 40
2.1542599033737551
 50
179.6749958769491968
 51
191.028794651041494
  0
ARC
  5
B6C7
  8
0
 10
4352.6816241502137927
 20
185.4264926396161002
 30
0.0
 40
2.0808706367897161
 50
191.028794651041494
 51
204.5511018818706077
  0
ARC
  5
B6C8
  8
0
 10
4351.9590638387689978
 20
185.0964243258393083
 30
0.0
 40
1.286491322208738
 50
204.5511018818706077
 51
221.2958143326009122
  0
LINE
  5
B6C9
  8
0
 10
4350.9619989468028507
 20
184.0636472080059036
 30
0.0
 11
4351.0009996522639995
 21
184.2113477027309045
 31
0.0
  0
ARC
  5
B6CA
  8
0
 10
4350.9239046120901548
 20
184.0737061176297118
 30
0.0
 40
0.0394
 50
270.0
 51
345.2085029198506732
  0
ARC
  5
B6CB
  8
0
 10
4350.9629053175513036
 20
184.2214066123547127
 30
0.0
 40
0.0394
 50
345.2085029198474899
 51
41.2958143326009193
  0
ARC
  5
B6CC
  8
0
 10
4350.2791791048930463
 20
189.6973347164885979
 30
0.0
 40
0.045368165527061
 50
74.4215181794627654
 51
88.8252280551540991
  0
LINE
  5
B6CD
  8
0
 10
4349.1406059824857948
 20
184.249655072040099
 30
0.0
 11
4351.4196125218722955
 21
184.249655072040099
 31
0.0
  0
ARC
  5
B6CF
  8
0
 10
4350.2851014024463439
 20
190.6407268061495017
 30
0.0
 40
2.6572735538587189
 50
264.4431955948031145
 51
269.8923598555002172
  0
ARC
  5
B6D0
  8
0
 10
4350.031284409795262
 20
188.0460563429882939
 30
0.0
 40
0.0502373507806984
 50
248.781651985582613
 51
266.0123009888794172
  0
ARC
  5
B6D1
  8
0
 10
4350.1758116662576867
 20
188.414369477889295
 30
0.0
 40
0.4458918254381774
 50
230.0956059495958925
 51
248.5981037831450067
  0
ARC
  5
B6D2
  8
0
 10
4350.0605021448591287
 20
188.303772378174898
 30
0.0
 40
0.2876123004584574
 50
208.9185607470973878
 51
233.5853248936379032
  0
ARC
  5
B6D3
  8
0
 10
4349.9233960573019431
 20
188.2165102281342115
 30
0.0
 40
0.1258098234941599
 50
181.2599413828883996
 51
204.3223977586584112
  0
ARC
  5
B6D4
  8
0
 10
4350.3060803398639109
 20
189.527052049579396
 30
0.0
 40
1.53021423167614
 50
264.1532334320395989
 51
269.0275184143901015
  0
ARC
  5
B6D5
  8
0
 10
4350.2385253058409944
 20
188.7391098080042013
 30
0.0
 40
0.7396045978068693
 50
254.1266865963663975
 51
263.1412346085912191
  0
ARC
  5
B6D6
  8
0
 10
4350.115160173240838
 20
188.3052663102828035
 30
0.0
 40
0.2885623199030914
 50
236.8242027854979028
 51
254.1266865963663975
  0
ARC
  5
B6D7
  8
0
 10
4349.9934456135479195
 20
188.1190953749396044
 30
0.0
 40
0.0661346885086637
 50
207.7353745251288046
 51
236.8242027854969933
  0
ARC
  5
B6D8
  8
0
 10
4349.9675429060307579
 20
188.1054757423663943
 30
0.0
 40
0.0368696129376175
 50
135.9647629486053972
 51
207.7353745251301973
  0
ARC
  5
B6D9
  8
0
 10
4350.0561697931989329
 20
188.0197843542975136
 30
0.0
 40
0.1601487235704676
 50
109.0415283999593044
 51
135.9647629486053972
  0
ARC
  5
B6DA
  8
0
 10
4350.2060111991277154
 20
187.6277614390508859
 30
0.0
 40
0.5797702550673539
 50
97.5766787758950329
 51
110.3998697567246978
  0
ARC
  5
B6DB
  8
0
 10
4350.2715166621455865
 20
187.226535192862201
 30
0.0
 40
0.9862039822853939
 50
93.1008933593199828
 51
98.2756472255776288
  0
ARC
  5
B6DC
  8
0
 10
4350.3021481897139893
 20
186.2919928723443093
 30
0.0
 40
1.921138727241406
 50
90.6573006863735458
 51
92.5053951655666538
  0
ARC
  5
B6DD
  8
0
 10
4350.2554535431199838
 20
188.7321227693834942
 30
0.0
 40
0.4955408487607179
 50
272.5610452103229022
 51
272.8519376045372269
  0
ARC
  5
B6DE
  8
0
 10
4350.3945384694798122
 20
186.7736163961978946
 30
0.0
 40
1.4681253607377811
 50
94.568686796986654
 51
110.7684030650223974
  0
ARC
  5
B6DF
  8
0
 10
4349.9763685897887626
 20
188.1473921344579878
 30
0.0
 40
0.1024200707111574
 50
180.5858113609326097
 51
232.0533458547969019
  0
ARC
  5
B6E0
  8
0
 10
4350.1886240416461078
 20
188.3975038166352931
 30
0.0
 40
0.430390084356305
 50
230.2451228389622884
 51
249.1947592638935021
  0
ARC
  5
B6E1
  8
0
 10
4349.8702712110480206
 20
188.1822191588624094
 30
0.0
 40
0.0360627097571587
 50
225.7364942953769003
 51
275.8611626607982998
  0
ARC
  5
B6E2
  8
0
 10
4349.8354963686160772
 20
188.2215832628359919
 30
0.0
 40
0.0379188324921629
 50
182.602673959689497
 51
226.3050540221958045
  0
LINE
  5
B6E3
  8
0
 10
4349.8451009078789866
 20
188.1563933021797084
 30
0.0
 11
4349.8093013324787535
 21
188.1941668819796973
 31
0.0
  0
ARC
  5
B6E4
  8
0
 10
4350.2910567061517213
 20
188.1289905025745952
 30
0.0
 40
0.2045176746103377
 50
93.0684039077170269
 51
97.1120723308985987
  0
ARC
  5
B6E5
  8
0
 10
4350.384435783284971
 20
186.7297009967217889
 30
0.0
 40
1.606624507796119
 50
94.2369835728824938
 51
111.098669034174705
  0
ARC
  5
B6E6
  8
0
 10
4349.810856769376187
 20
188.2143302070811899
 30
0.0
 40
0.0150640084999888
 50
108.443783954931007
 51
151.5078818740927034
  0
ARC
  5
B6E7
  8
0
 10
4350.3069937375239533
 20
189.9083657842035109
 30
0.0
 40
1.88669450939092
 50
267.1056659413500824
 51
269.1835351881097722
  0
ARC
  5
B6E8
  8
0
 10
4350.2716208204628856
 20
188.9427878195475898
 30
0.0
 40
0.920660086819004
 50
260.3092558384287827
 51
266.2699497554809227
  0
ARC
  5
B6E9
  8
0
 10
4350.209197686907828
 20
188.5772418940443913
 30
0.0
 40
0.5498225600572731
 50
250.4703284124881009
 51
260.3092558384287827
  0
ARC
  5
B6EA
  8
0
 10
4350.0918071937176137
 20
188.2462861536959053
 30
0.0
 40
0.1986641485664105
 50
231.3695839880629137
 51
250.4703284124886977
  0
ARC
  5
B6EB
  8
0
 10
4349.9981979859394414
 20
188.1291515119127098
 30
0.0
 40
0.0487201320578278
 50
198.3856692141324913
 51
231.3695839880639085
  0
ARC
  5
B6EC
  8
0
 10
4349.9882033786952888
 20
188.1245560270133126
 30
0.0
 40
0.037805550803252
 50
147.0402140927720041
 51
196.5538405505832031
  0
ARC
  5
B6ED
  8
0
 10
4350.3047649612362875
 20
188.7321227693834942
 30
0.0
 40
0.4955408487607179
 50
267.1480623954627731
 51
267.4389547896772115
  0
LINE
  5
B6EE
  8
0
 10
4350.5843423977294151
 20
185.9089884128158872
 30
0.0
 11
4350.5843423977294151
 21
188.0158154765445033
 31
0.0
  0
LINE
  5
B6EF
  8
0
 10
4350.2801092521776809
 20
189.7426933459796885
 30
0.0
 11
4350.2801092521776809
 21
188.3332149684927117
 31
0.0
  0
LINE
  5
B6F0
  8
0
 10
4350.9389471016856987
 20
185.8368925197208057
 30
0.0
 11
4350.8841287464711058
 21
185.4628368368155122
 31
0.0
  0
ARC
  5
B6F1
  8
0
 10
4350.8542579998438669
 20
185.4689926779250015
 30
0.0
 40
0.0304984570716012
 50
292.7822117710200018
 51
348.3553597098263026
  0
ARC
  5
B6F2
  8
0
 10
4350.8295679024085985
 20
185.5299482407201026
 30
0.0
 40
0.0962628701838857
 50
276.4554744927036154
 51
292.2822819915214723
  0
ARC
  5
B6F3
  8
0
 10
4350.8070214285753536
 20
185.7292127399279025
 30
0.0
 40
0.296798862282264
 50
270.7909939839357776
 51
276.4554744927036154
  0
ARC
  5
B6F4
  8
0
 10
4350.8090020608087798
 20
185.6371255309555011
 30
0.0
 40
0.2040242739483963
 50
270.6220560302576814
 51
278.7242085741837059
  0
ARC
  5
B6F5
  8
0
 10
4350.8302654033414001
 20
185.4985605517707086
 30
0.0
 40
0.0638373159525376
 50
278.7242085741837059
 51
292.8588189541284237
  0
ARC
  5
B6F6
  8
0
 10
4350.8497280957999465
 20
185.4523933632511898
 30
0.0
 40
0.0137353629610775
 50
292.8588189541284237
 51
320.5736651136185742
  0
ARC
  5
B6F7
  8
0
 10
4350.8559548714438279
 20
185.4472738372080869
 30
0.0
 40
0.0056742041224666
 50
320.5736651136160731
 51
37.942756195034093
  0
ARC
  5
B6F8
  8
0
 10
4350.8306505413247578
 20
185.4275446093670894
 30
0.0
 40
0.0377608299023498
 50
37.942756195034093
 51
68.1738290665581985
  0
ARC
  5
B6F9
  8
0
 10
4350.7476246845726564
 20
185.2579317914668877
 30
0.0
 40
0.2265173731255575
 50
64.6269428847830198
 51
82.7010950042262891
  0
ARC
  5
B6FA
  8
0
 10
4350.7748634300387494
 20
185.3740013102159025
 30
0.0
 40
0.1004583355409497
 50
57.7643718719622683
 51
88.9232462980620255
  0
ARC
  5
B6FB
  8
0
 10
4350.8197469174783691
 20
185.4451768868308079
 30
0.0
 40
0.0163126871026325
 50
27.4550812590952518
 51
57.7643718719614014
  0
ARC
  5
B6FC
  8
0
 10
4350.8305607127886105
 20
185.4507954215575012
 30
0.0
 40
0.00412637914993
 50
306.4094493811555253
 51
27.4550812591236202
  0
ARC
  5
B6FD
  8
0
 10
4350.8155576860863221
 20
185.4711380070446012
 30
0.0
 40
0.029403079776359
 50
278.1197815663807091
 51
306.4094493811555253
  0
ARC
  5
B6FE
  8
0
 10
4350.7920578576531625
 20
185.6358487265281099
 30
0.0
 40
0.1957817534371905
 50
275.9613661718378808
 51
278.1197815663807091
  0
LINE
  5
B6FF
  8
0
 10
4350.8922509298918158
 20
185.9094012845260977
 30
0.0
 11
4350.933035262998601
 21
185.8568299681263909
 31
0.0
  0
ARC
  5
B700
  8
0
 10
4350.8582077209230192
 20
185.8770629967708032
 30
0.0
 40
0.046954285553966
 50
43.5287568977239872
 51
60.0301055068834515
  0
ARC
  5
B701
  8
0
 10
4350.8254215035713059
 20
185.8202066309650888
 30
0.0
 40
0.1125864604443437
 50
60.0301055068834515
 51
73.5978542682799599
  0
ARC
  5
B702
  8
0
 10
4350.722303579011168
 20
185.4698904173056917
 30
0.0
 40
0.4777641650186212
 50
73.5978542682799599
 51
85.1614880067719042
  0
ARC
  5
B703
  8
0
 10
4350.9215483384223262
 20
185.8331144612853052
 30
0.0
 40
0.0176753280756556
 50
11.1085577095406407
 51
61.2471359141038008
  0
ARC
  5
B704
  8
0
 10
4350.8442882145682233
 20
185.7107932026131039
 30
0.0
 40
0.1623231684984425
 50
58.1063410777828295
 51
73.5331171281143838
  0
ARC
  5
B705
  8
0
 10
4350.7018512610520702
 20
185.265035970720902
 30
0.0
 40
0.6302556295502868
 50
72.6021802871964468
 51
84.4178240151725134
  0
ARC
  5
B706
  8
0
 10
4350.9113477158662135
 20
185.8395539799483061
 30
0.0
 40
0.0277274136575062
 50
354.4918925220388246
 51
38.5403230985132765
  0
LINE
  5
B707
  8
0
 10
4350.7916924504479539
 20
185.2998859389776953
 30
0.0
 11
4350.8159864273611674
 21
185.4656570589222042
 31
0.0
  0
ARC
  5
B708
  8
0
 10
4350.3020437267678062
 20
189.1966649922702004
 30
0.0
 40
1.1435986591938681
 50
265.3120127015096159
 51
268.9009869167448983
  0
ARC
  5
B709
  8
0
 10
4350.2602951247208694
 20
188.6413932964954085
 30
0.0
 40
0.5867846371742949
 50
252.9820172291109088
 51
264.9435839446043133
  0
ARC
  5
B70A
  8
0
 10
4350.1369766153957244
 20
188.2384889475484044
 30
0.0
 40
0.1654304285299065
 50
232.8093172912928139
 51
252.9820172291109088
  0
ARC
  5
B70B
  8
0
 10
4350.0713671577386776
 20
188.1520224853476009
 30
0.0
 40
0.056889883019705
 50
201.503316294478509
 51
232.8093172912938087
  0
ARC
  5
B70C
  8
0
 10
4350.0469981136056958
 20
188.1424216342003888
 30
0.0
 40
0.0306977724768323
 50
157.4896340273508031
 51
201.503316294478509
  0
ARC
  5
B70D
  8
0
 10
4350.0772795630309702
 20
188.121509441930101
 30
0.0
 40
0.0671244012084944
 50
118.8119810326328007
 51
150.8805767825533053
  0
ARC
  5
B70E
  8
0
 10
4350.1247753467941948
 20
188.0480974643851084
 30
0.0
 40
0.1544643182355334
 50
113.6939744515543964
 51
121.1257967146753032
  0
ARC
  5
B70F
  8
0
 10
4350.3426065309904516
 20
189.6051187529550077
 30
0.0
 40
1.549189285361948
 50
264.7883655165863956
 51
267.6879505069543939
  0
ARC
  5
B710
  8
0
 10
4350.2908850250869364
 20
188.7713844254473088
 30
0.0
 40
0.7146142287187424
 50
255.658541545597302
 51
262.8457479710647249
  0
ARC
  5
B711
  8
0
 10
4350.1565895582243684
 20
188.2461106114157872
 30
0.0
 40
0.1724446499642292
 50
236.002433741592597
 51
255.658541545597302
  0
ARC
  5
B712
  8
0
 10
4350.0888217380097558
 20
188.1456314800655036
 30
0.0
 40
0.0512483905598695
 50
205.4899958442204877
 51
236.0024337415916875
  0
ARC
  5
B713
  8
0
 10
4350.0677733492693733
 20
188.1321764930424933
 30
0.0
 40
0.0266379231876389
 50
137.4570216801054983
 51
198.8351037022983974
  0
ARC
  5
B714
  8
0
 10
4350.1405741094522455
 20
188.0546188766116131
 30
0.0
 40
0.1329514248401596
 50
104.0546445599518961
 51
134.0425343967748972
  0
ARC
  5
B715
  8
0
 10
4350.2356939391020205
 20
187.7709003745056862
 30
0.0
 40
0.4319091090108033
 50
98.8421202872226701
 51
107.1566379285483066
  0
ARC
  5
B716
  8
0
 10
4350.2748182397062919
 20
187.5285587901192059
 30
0.0
 40
0.6773859705636266
 50
92.3563118282017115
 51
98.9612527672083644
  0
ARC
  5
B717
  8
0
 10
4350.2817921782470876
 20
187.3590769980413882
 30
0.0
 40
0.847011185860932
 50
90.1138410283043783
 51
92.3563118282017115
  0
ARC
  5
B718
  8
0
 10
4350.2798948584868413
 20
187.4168159025938962
 30
0.0
 40
0.7932245979381479
 50
89.9845140280912261
 51
95.5752850884077247
  0
ARC
  5
B719
  8
0
 10
4350.2604510987675894
 20
187.6160033800516942
 30
0.0
 40
0.5930903655639677
 50
95.5752850884077247
 51
104.2756059195233007
  0
ARC
  5
B71A
  8
0
 10
4350.17411174008339
 20
187.955329718767814
 30
0.0
 40
0.2429520371782617
 50
104.2756059195233007
 51
119.7214701943050983
  0
ARC
  5
B71B
  8
0
 10
4350.0842460507146825
 20
188.1127439536390114
 30
0.0
 40
0.0616923244300898
 50
119.7214701943050983
 51
149.4921477715109006
  0
ARC
  5
B71C
  8
0
 10
4350.0514098013072726
 20
188.1320920447417961
 30
0.0
 40
0.0235797555773683
 50
149.4921477715095079
 51
213.1551305447632103
  0
ARC
  5
B71D
  8
0
 10
4350.0888780264140223
 20
188.1565686788291032
 30
0.0
 40
0.0683343476201967
 50
213.1551305447632103
 51
239.7156511595765949
  0
ARC
  5
B71E
  8
0
 10
4350.1595498018932631
 20
188.2775848036918944
 30
0.0
 40
0.208474999560379
 50
239.7156511595765949
 51
251.9203986106610103
  0
ARC
  5
B71F
  8
0
 10
4350.509931320511896
 20
189.3508722338071095
 30
0.0
 40
1.337506937209981
 50
251.9203986106610103
 51
252.9243076638944956
  0
ARC
  5
B720
  8
0
 10
4350.1466887281749223
 20
188.4041807792683016
 30
0.0
 40
0.3211271515808505
 50
246.4138596951734996
 51
252.3616869920205943
  0
ARC
  5
B721
  8
0
 10
4350.0199078956993617
 20
188.1137994727008902
 30
0.0
 40
0.0042759519823821
 50
173.6491570158918023
 51
246.4138596951734996
  0
ARC
  5
B722
  8
0
 10
4348.4582292211180174
 20
188.1613964337560958
 30
0.0
 40
1.5581417279611509
 50
358.2668993533595767
 51
0.522917038246783
  0
ARC
  5
B723
  8
0
 10
4350.0196389171569535
 20
188.1135696324367075
 30
0.0
 40
0.003960703200842
 50
248.6500498863132975
 51
282.4929811239903756
  0
ARC
  5
B724
  8
0
 10
4350.2316200799368744
 20
187.1568297619805037
 30
0.0
 40
0.9759817405648927
 50
101.8637855090194932
 51
102.4929811239903046
  0
LINE
  5
B725
  8
0
 10
4350.0162921816536254
 20
188.1457294169308057
 30
0.0
 11
4349.9978817099636217
 21
188.1548851636750044
 31
0.0
  0
LINE
  5
B726
  8
0
 10
4349.9980428443286655
 20
188.1690119371239973
 30
0.0
 11
4349.9980428443286655
 21
188.1564514243790995
 31
0.0
  0
ARC
  5
B727
  8
0
 10
4349.9919412799836209
 20
188.1562877244624872
 30
0.0
 40
0.0061037599157694
 50
272.6834989890846828
 51
1.536829630635038
  0
ARC
  5
B728
  8
0
 10
4350.0669955185276194
 20
186.5549656123369004
 30
0.0
 40
1.596976289709241
 50
92.6834989890847538
 51
93.5542016008571835
  0
ARC
  5
B729
  8
0
 10
4349.9676426500791422
 20
188.1545362516964133
 30
0.0
 40
0.0056768926012351
 50
225.2761209164432046
 51
273.5542016008571977
  0
LINE
  5
B72A
  8
0
 10
4350.2387702617288596
 20
188.0758287359718111
 30
0.0
 11
4350.2387702617288596
 21
188.2049849105493138
 31
0.0
  0
LINE
  5
B72B
  8
0
 10
4350.2042915548281599
 20
188.2022632801119926
 30
0.0
 11
4350.2042915548281599
 21
188.1890920543297057
 31
0.0
  0
LINE
  5
B72C
  8
0
 10
4350.194449035128855
 20
188.2011601163681007
 30
0.0
 11
4350.194449035128855
 21
188.1894456079297129
 31
0.0
  0
LINE
  5
B72D
  8
0
 10
4350.1493223414072418
 20
188.1932480509437084
 30
0.0
 11
4350.1705602885276676
 21
188.1793416893297035
 31
0.0
  0
LINE
  5
B72E
  8
0
 10
4350.1705602885276676
 20
188.1793416893297035
 30
0.0
 11
4350.1986256072614196
 21
188.1843045213302048
 31
0.0
  0
LINE
  5
B72F
  8
0
 10
4350.1715528115282723
 20
188.1595222863296897
 30
0.0
 11
4350.1976992967811384
 21
188.1458083441050064
 31
0.0
  0
LINE
  5
B730
  8
0
 10
4350.1715528115282723
 20
188.1595222863296897
 30
0.0
 11
4350.1454063262372074
 21
188.1579173714696083
 31
0.0
  0
LINE
  5
B731
  8
0
 10
4350.1454063262372074
 20
188.1579173714696083
 30
0.0
 11
4350.1172747951277415
 21
188.1756539198296991
 31
0.0
  0
LINE
  5
B732
  8
0
 10
4350.1172747951277415
 20
188.1756539198296991
 30
0.0
 11
4350.089640679942022
 21
188.1774271301017052
 31
0.0
  0
LINE
  5
B733
  8
0
 10
4350.1976992967811384
 20
188.1458083441050064
 30
0.0
 11
4350.1976992967120168
 21
188.1305502777408094
 31
0.0
  0
LINE
  5
B734
  8
0
 10
4350.1976992967120168
 20
188.1305502777408094
 30
0.0
 11
4350.171552811571928
 21
188.1288395226243892
 31
0.0
  0
LINE
  5
B735
  8
0
 10
4350.171552811571928
 20
188.1288395226243892
 30
0.0
 11
4350.1444138032502451
 21
188.1419587609732957
 31
0.0
  0
LINE
  5
B736
  8
0
 10
4350.1444138032502451
 20
188.1419587609732957
 30
0.0
 11
4350.118267318087419
 21
188.1433916750305002
 31
0.0
  0
LINE
  5
B737
  8
0
 10
4350.118267318087419
 20
188.1433916750305002
 30
0.0
 11
4350.0903096293777708
 21
188.1611273794297006
 31
0.0
  0
LINE
  5
B738
  8
0
 10
4350.0903096293777708
 20
188.1611273794297006
 30
0.0
 11
4350.0671563657306251
 21
188.1654607291490038
 31
0.0
  0
LINE
  5
B739
  8
0
 10
4350.1976992967283877
 20
188.1305502777296965
 30
0.0
 11
4350.2076245267289778
 21
188.1257595905296967
 31
0.0
  0
LINE
  5
B73A
  8
0
 10
4350.2076245267289778
 20
188.1257595905296967
 30
0.0
 11
4350.2076245267289778
 21
188.1054641604297046
 31
0.0
  0
LINE
  5
B73B
  8
0
 10
4350.2076245267289778
 20
188.1054641604297046
 30
0.0
 11
4350.1976992967283877
 21
188.1046489301297129
 31
0.0
  0
LINE
  5
B73C
  8
0
 10
4350.1976992967283877
 20
188.1046489301297129
 30
0.0
 11
4350.1715528115291818
 21
188.1151582085898042
 31
0.0
  0
LINE
  5
B73D
  8
0
 10
4350.1715528115291818
 20
188.1151582085898042
 30
0.0
 11
4350.1454063262754062
 21
188.1164171936028993
 31
0.0
  0
LINE
  5
B73E
  8
0
 10
4350.1454063262754062
 20
188.1164171936028993
 30
0.0
 11
4350.11727479504043
 21
188.1307024215834076
 31
0.0
  0
LINE
  5
B73F
  8
0
 10
4350.11727479504043
 20
188.1307024215834076
 30
0.0
 11
4350.0899419555598797
 21
188.1356540962381132
 31
0.0
  0
LINE
  5
B740
  8
0
 10
4350.0899419555598797
 20
188.1356540962381132
 30
0.0
 11
4350.0629967795275661
 21
188.1534828605296923
 31
0.0
  0
LINE
  5
B741
  8
0
 10
4350.0629967795275661
 20
188.1534828605296923
 30
0.0
 11
4350.0544892617926962
 21
188.1559375835244907
 31
0.0
  0
LINE
  5
B742
  8
0
 10
4350.1976992967283877
 20
188.1046489301297129
 30
0.0
 11
4350.1976228273333618
 21
188.0953199052563036
 31
0.0
  0
LINE
  5
B743
  8
0
 10
4350.1976228273333618
 20
188.0953199052563036
 30
0.0
 11
4350.1714291605949256
 21
188.0961170917740901
 31
0.0
  0
LINE
  5
B744
  8
0
 10
4350.1714291605949256
 20
188.0961170917740901
 30
0.0
 11
4350.1444193981787976
 21
188.1068377189797047
 31
0.0
  0
LINE
  5
B745
  8
0
 10
4350.1444193981787976
 20
188.1068377189797047
 30
0.0
 11
4350.1172295412889071
 21
188.111674286557303
 31
0.0
  0
LINE
  5
B746
  8
0
 10
4350.1172295412889071
 20
188.111674286557303
 30
0.0
 11
4350.0901506661321037
 21
188.1261801785844057
 31
0.0
  0
LINE
  5
B747
  8
0
 10
4350.0901506661321037
 20
188.1261801785844057
 30
0.0
 11
4350.0627472005708114
 21
188.1344254830054012
 31
0.0
  0
LINE
  5
B748
  8
0
 10
4350.0627472005708114
 20
188.1344254830054012
 30
0.0
 11
4350.0527065696287536
 21
188.1411085696796874
 31
0.0
  0
LINE
  5
B749
  8
0
 10
4350.0527065696287536
 20
188.1411085696796874
 30
0.0
 11
4350.0433897457205603
 21
188.1429011762440098
 31
0.0
  0
LINE
  5
B74A
  8
0
 10
4350.1976228273333618
 20
188.0953199052563036
 30
0.0
 11
4350.2076245267307968
 21
188.0918846673974087
 31
0.0
  0
LINE
  5
B74B
  8
0
 10
4350.2076245267307968
 20
188.0918846673974087
 30
0.0
 11
4350.2076245267289778
 21
188.0812398060297141
 31
0.0
  0
LINE
  5
B74C
  8
0
 10
4350.2076245267289778
 20
188.0812398060297141
 30
0.0
 11
4350.1986918192997109
 21
188.081861568564392
 31
0.0
  0
LINE
  5
B74D
  8
0
 10
4350.1986918192997109
 20
188.081861568564392
 30
0.0
 11
4350.1715528115282723
 21
188.0893960238296927
 31
0.0
  0
LINE
  5
B74E
  8
0
 10
4350.1715528115282723
 20
188.0893960238296927
 30
0.0
 11
4350.1442327139302506
 21
188.0938587703504936
 31
0.0
  0
LINE
  5
B74F
  8
0
 10
4350.1442327139302506
 20
188.0938587703504936
 30
0.0
 11
4350.1173300379277862
 21
188.1049735692297133
 31
0.0
  0
LINE
  5
B750
  8
0
 10
4350.1173300379277862
 20
188.1049735692297133
 30
0.0
 11
4350.0899540087539208
 21
188.1132334288475931
 31
0.0
  0
LINE
  5
B751
  8
0
 10
4350.0899540087539208
 20
188.1132334288475931
 30
0.0
 11
4350.0628091582184425
 21
188.1284952775550039
 31
0.0
  0
LINE
  5
B752
  8
0
 10
4350.0628091582184425
 20
188.1284952775550039
 30
0.0
 11
4350.046294885016323
 21
188.1262394664865099
 31
0.0
  0
ARC
  5
B753
  8
0
 10
4350.2801088464429995
 20
188.542180643134202
 30
0.0
 40
0.472440959640737
 50
261.1745291272939085
 51
264.459344244557883
  0
ARC
  5
B754
  8
0
 10
4350.2082285626411249
 20
188.0792236496153862
 30
0.0
 40
0.0039370076324422
 50
219.6468490347916998
 51
261.1745291272939085
  0
ARC
  5
B755
  8
0
 10
4350.2837775658463215
 20
188.8034224967690022
 30
0.0
 40
0.7309470419247752
 50
259.7793332336236745
 51
263.8284899795486922
  0
ARC
  5
B756
  8
0
 10
4350.1741298593642568
 20
188.2968342797393007
 30
0.0
 40
0.2137026854635209
 50
234.720968982709195
 51
264.6161201412338073
  0
ARC
  5
B757
  8
0
 10
4350.1919555524773386
 20
188.2881223041848955
 30
0.0
 40
0.2177684164121449
 50
226.8394954136412878
 51
229.5614543398428964
  0
ARC
  5
B758
  8
0
 10
4350.2747676162880452
 20
188.742391567203299
 30
0.0
 40
0.6768455050172522
 50
260.7935264110951152
 51
266.9513426288456799
  0
ARC
  5
B759
  8
0
 10
4350.2269567105768147
 20
188.4474092998374886
 30
0.0
 40
0.3780137450500269
 50
246.3010797659948139
 51
260.7935264110951152
  0
ARC
  5
B75A
  8
0
 10
4350.1042631849668396
 20
188.1678913346920865
 30
0.0
 40
0.0727532103164054
 50
215.702065818121298
 51
246.3010797659948139
  0
ARC
  5
B75B
  8
0
 10
4350.0623867446347504
 20
188.1377977701633029
 30
0.0
 40
0.0211852078259917
 50
186.4239193304809987
 51
215.7020658181199053
  0
LINE
  5
B75C
  8
0
 10
4350.1986918192997109
 20
188.081861568564392
 30
0.0
 11
4350.198658348128447
 21
188.0782339272869024
 31
0.0
  0
LINE
  5
B75D
  8
0
 10
4350.198658348128447
 20
188.0782339272869024
 30
0.0
 11
4350.1715528115282723
 21
188.0827602135296956
 31
0.0
  0
LINE
  5
B75E
  8
0
 10
4350.1715528115282723
 20
188.0827602135296956
 30
0.0
 11
4350.1445603433294309
 21
188.0906048810159916
 31
0.0
  0
LINE
  5
B75F
  8
0
 10
4350.1445603433294309
 20
188.0906048810159916
 30
0.0
 11
4350.1172747950722624
 21
188.0988918471302895
 31
0.0
  0
LINE
  5
B760
  8
0
 10
4350.1172747950722624
 20
188.0988918471302895
 30
0.0
 11
4350.0901357876236943
 21
188.1102732107094084
 31
0.0
  0
LINE
  5
B761
  8
0
 10
4350.0901357876236943
 20
188.1102732107094084
 30
0.0
 11
4350.0815375585607399
 21
188.1139541888211966
 31
0.0
  0
LINE
  5
B762
  8
0
 10
4350.0815375585607399
 20
188.1139541888211966
 30
0.0
 11
4350.0687334081330846
 21
188.1109299337913967
 31
0.0
  0
LINE
  5
B763
  8
0
 10
4350.1773787050287865
 20
188.1647912081297136
 30
0.0
 11
4350.1773787050287865
 21
188.1805474000476011
 31
0.0
  0
LINE
  5
B764
  8
0
 10
4350.1675645513287236
 20
188.1647938585296913
 30
0.0
 11
4350.1675263318402358
 21
188.1813282890047958
 31
0.0
  0
LINE
  5
B765
  8
0
 10
4350.1235530053281764
 20
188.1807027986297101
 30
0.0
 11
4350.1235530053281764
 21
188.1879973529399876
 31
0.0
  0
LINE
  5
B766
  8
0
 10
4350.1137188992315714
 20
188.1811805292761051
 30
0.0
 11
4350.1137081564411346
 21
188.1852250627335934
 31
0.0
  0
LINE
  5
B767
  8
0
 10
4350.096640155528803
 20
188.1659396057297045
 30
0.0
 11
4350.096640155528803
 21
188.1769779917115955
 31
0.0
  0
LINE
  5
B768
  8
0
 10
4350.0867893250706402
 20
188.1670182908852951
 30
0.0
 11
4350.0868011587399451
 21
188.1762106162105965
 31
0.0
  0
LINE
  5
B769
  8
0
 10
4350.0697273057276107
 20
188.1580984148189089
 30
0.0
 11
4350.0697273057276107
 21
188.164979553696412
 31
0.0
  0
LINE
  5
B76A
  8
0
 10
4350.059928315770776
 20
188.1580876338612995
 30
0.0
 11
4350.0598719484059984
 21
188.1602751237983
 31
0.0
  0
LINE
  5
B76B
  8
0
 10
4350.0966077014782059
 20
188.1297288703796937
 30
0.0
 11
4350.0966495624334129
 21
188.1344389320773018
 31
0.0
  0
LINE
  5
B76C
  8
0
 10
4350.0868360728863991
 20
188.1302804235940016
 30
0.0
 11
4350.0867884886793036
 21
188.137740644778404
 31
0.0
  0
LINE
  5
B76D
  8
0
 10
4350.1504384464360555
 20
188.1109123400223098
 30
0.0
 11
4350.1504741423150335
 21
188.1161731721070112
 31
0.0
  0
LINE
  5
B76E
  8
0
 10
4350.1406233355282893
 20
188.1118908458296914
 30
0.0
 11
4350.1406233355282893
 21
188.1188460024960136
 31
0.0
  0
LINE
  5
B76F
  8
0
 10
4350.177364099064107
 20
188.0933462739874926
 30
0.0
 11
4350.1773888447823992
 21
188.0959357128197098
 31
0.0
  0
LINE
  5
B770
  8
0
 10
4350.1675361853276627
 20
188.0940867486297066
 30
0.0
 11
4350.1675361853276627
 21
188.0976622788778911
 31
0.0
  0
LINE
  5
B771
  8
0
 10
4350.2042915548281599
 20
188.0854339334296981
 30
0.0
 11
4350.2042915548281599
 21
188.0930294279833959
 31
0.0
  0
LINE
  5
B772
  8
0
 10
4350.1235530053281764
 20
188.1091651303044046
 30
0.0
 11
4350.1235530053281764
 21
188.1105494604402963
 31
0.0
  0
LINE
  5
B773
  8
0
 10
4350.113710485627962
 20
188.1098344149206127
 30
0.0
 11
4350.113710485627962
 21
188.1135594107053066
 31
0.0
  0
LINE
  5
B774
  8
0
 10
4350.0598919032481717
 20
188.1323541684957945
 30
0.0
 11
4350.059883938855819
 21
188.1363312821848979
 31
0.0
  0
ARC
  5
B775
  8
0
 10
4350.1722318606216504
 20
188.1646267876529066
 30
0.0
 40
0.0051494700145701
 50
262.4224634185512741
 51
1.8297418586266541
  0
ARC
  5
B776
  8
0
 10
4350.1721658462329287
 20
188.1641305488047919
 30
0.0
 40
0.004648859493229
 50
171.7969137284628118
 51
262.4224634185512741
  0
ARC
  5
B777
  8
0
 10
4350.2005716729845517
 20
188.1901525354404896
 30
0.0
 40
0.0061633141115219
 50
186.5862786029528877
 51
251.5939103835281117
  0
ARC
  5
B778
  8
0
 10
4350.1967725372378482
 20
188.1922441250096938
 30
0.0
 40
0.0081529856556783
 50
283.1374156562089865
 51
337.2559304307465027
  0
ARC
  5
B779
  8
0
 10
4350.1175525193466456
 20
188.1817364463506124
 30
0.0
 40
0.006088863573657
 50
267.3857275548152188
 51
350.2261133582139223
  0
ARC
  5
B77A
  8
0
 10
4350.118503075933404
 20
188.180351473135488
 30
0.0
 40
0.0048554794610461
 50
170.1687748295184974
 51
255.3467885979061123
  0
ARC
  5
B77B
  8
0
 10
4350.092813264043798
 20
188.1666207986133088
 30
0.0
 40
0.006037039081241
 50
176.2247855454963883
 51
245.4987968791145931
  0
ARC
  5
B77C
  8
0
 10
4350.0912802640514201
 20
188.1664205456048933
 30
0.0
 40
0.0053814254454
 50
259.6088291140595175
 51
354.8726151703442042
  0
ARC
  5
B77D
  8
0
 10
4350.0652231530148129
 20
188.1582911862375909
 30
0.0
 40
0.0052987484383589
 50
182.2015694088547946
 51
245.1546988399751115
  0
ARC
  5
B77E
  8
0
 10
4350.0636923380297958
 20
188.1596836731847873
 30
0.0
 40
0.0062397018527744
 50
263.5997634694156773
 51
345.2821098395058925
  0
ARC
  5
B77F
  8
0
 10
4350.0927947076452256
 20
188.1317074558201909
 30
0.0
 40
0.006127132213444
 50
193.4680896670840866
 51
244.4353014263016064
  0
ARC
  5
B780
  8
0
 10
4350.0921068732623098
 20
188.1302695618593077
 30
0.0
 40
0.0045331889334166
 50
244.4353014263016064
 51
353.1497963167681178
  0
ARC
  5
B781
  8
0
 10
4350.1209100467885946
 20
188.1114174107212023
 30
0.0
 40
0.007371536923065
 50
192.4005284868084118
 51
240.9447373776334018
  0
ARC
  5
B782
  8
0
 10
4350.1184620850835927
 20
188.1100081042955026
 30
0.0
 40
0.0051602397317965
 50
257.3274509515067052
 51
350.5980544224448749
  0
ARC
  5
B783
  8
0
 10
4350.1490263862469874
 20
188.1142510509124861
 30
0.0
 40
0.0087282202886387
 50
195.68871365391621
 51
238.1412662739799089
  0
ARC
  5
B784
  8
0
 10
4350.144665399009682
 20
188.1129573183607135
 30
0.0
 40
0.0061245418598751
 50
267.6980152217955151
 51
340.4944000243773985
  0
ARC
  5
B785
  8
0
 10
4350.1731920563906897
 20
188.0948647578846931
 30
0.0
 40
0.0057091309222015
 50
187.8323274711173951
 51
253.3139764399795979
  0
ARC
  5
B786
  8
0
 10
4350.1728528632938833
 20
188.0937331655958928
 30
0.0
 40
0.0045277956328397
 50
253.3139764399282967
 51
355.098206197390823
  0
ARC
  5
B787
  8
0
 10
4350.2129141435134443
 20
188.0888647168210923
 30
0.0
 40
0.009280049046659
 50
201.6967795328206989
 51
235.2498581933992909
  0
LINE
  5
B788
  8
0
 10
4350.1773488721782996
 20
188.1196718951796925
 30
0.0
 11
4350.1773957185996551
 21
188.1292218219292067
 31
0.0
  0
LINE
  5
B789
  8
0
 10
4350.1675266056818145
 20
188.1206565657487033
 30
0.0
 11
4350.1675402675618898
 21
188.1307792221388127
 31
0.0
  0
LINE
  5
B78A
  8
0
 10
4350.1234981563284236
 20
188.1348644191297126
 30
0.0
 11
4350.1235726092318146
 21
188.1431009274897974
 31
0.0
  0
LINE
  5
B78B
  8
0
 10
4350.113710485627962
 20
188.1359693781296869
 30
0.0
 11
4350.113710485627962
 21
188.1462824230576985
 31
0.0
  0
ARC
  5
B78C
  8
0
 10
4350.1757813246667865
 20
188.1224778489201981
 30
0.0
 40
0.0084532513222992
 50
192.4421385842908023
 51
239.9852265464276115
  0
ARC
  5
B78D
  8
0
 10
4350.1707122905991127
 20
188.122215755119214
 30
0.0
 40
0.0071074213641122
 50
276.7916707709686079
 51
339.0277335227935964
  0
ARC
  5
B78E
  8
0
 10
4350.1161037222591403
 20
188.1391873457718873
 30
0.0
 40
0.0085653575489501
 50
277.858206376945418
 51
329.6886324389143965
  0
ARC
  5
B78F
  8
0
 10
4350.1219476052301616
 20
188.1377041705889894
 30
0.0
 40
0.0084178170686149
 50
191.8930673954180861
 51
236.281743085680688
  0
LINE
  5
B790
  8
0
 10
4350.1504658551275497
 20
188.1469114859297065
 30
0.0
 11
4350.1504658551275497
 21
188.1582279337885097
 31
0.0
  0
LINE
  5
B791
  8
0
 10
4350.1406233355282893
 20
188.1481190815106004
 30
0.0
 11
4350.1406233355282893
 21
188.1609329821619099
 31
0.0
  0
ARC
  5
B792
  8
0
 10
4350.1512270473112949
 20
188.1503972795075015
 30
0.0
 40
0.0108456853026587
 50
192.1256163102256949
 51
231.0826585750085087
  0
ARC
  5
B793
  8
0
 10
4350.1433478992430537
 20
188.1494353147677998
 30
0.0
 40
0.0075521525405184
 50
278.1137663689286228
 51
340.4769115954812264
  0
ARC
  5
B794
  8
0
 10
4350.0648897292521724
 20
188.133100296040908
 30
0.0
 40
0.0050532139366088
 50
188.491000187232487
 51
245.6863027676290017
  0
LINE
  5
B795
  8
0
 10
4350.1152758210128013
 20
188.0997301626289868
 30
0.0
 11
4350.0994516321579795
 21
188.0978511458746141
 31
0.0
  0
LINE
  5
B796
  8
0
 10
4350.0965852040280879
 20
188.1025788324297139
 30
0.0
 11
4350.0965852040280879
 21
188.1075685004097124
 31
0.0
  0
LINE
  5
B797
  8
0
 10
4350.0654465944289768
 20
188.1162295591296925
 30
0.0
 11
4350.0654465944289768
 21
188.1270124124210099
 31
0.0
  0
ARC
  5
B798
  8
0
 10
4350.1457496900884507
 20
188.095167919583389
 30
0.0
 40
0.0050017886250932
 50
273.3370499884736091
 51
332.8316902967770261
  0
ARC
  5
B799
  8
0
 10
4350.1452260386822672
 20
188.0951018027407997
 30
0.0
 40
0.0046043883570214
 50
176.9354818737573112
 51
240.6667030360096078
  0
ARC
  5
B79A
  8
0
 10
4350.1450669219193514
 20
188.0916305605339005
 30
0.0
 40
0.0066641796364956
 50
276.6960041802540786
 51
334.0646793922344955
  0
ARC
  5
B79B
  8
0
 10
4350.1470041408283578
 20
188.0912902147229033
 30
0.0
 40
0.0063846683509862
 50
175.4591602190131141
 51
259.5305517358805218
  0
ARC
  5
B79C
  8
0
 10
4350.1698913011550758
 20
188.0865568113113966
 30
0.0
 40
0.0051826429327796
 50
201.673037672475914
 51
250.1644889410912924
  0
ARC
  5
B79D
  8
0
 10
4350.1636358777723217
 20
188.1422500451161
 30
0.0
 40
0.0616564768642122
 50
277.8285512219258067
 51
282.0017580248921263
  0
ARC
  5
B79E
  8
0
 10
4350.0650093938857026
 20
188.1330145081957141
 30
0.0
 40
0.0050263786745523
 50
244.0403707563528997
 51
351.2519932798564923
  0
ARC
  5
B79F
  8
0
 10
4350.0723694385605995
 20
188.1168540395844104
 30
0.0
 40
0.0069509529361578
 50
185.154459112268114
 51
238.4597022043847119
  0
ARC
  5
B7A0
  8
0
 10
4350.1019442079641522
 20
188.1025952219333135
 30
0.0
 40
0.0053590289978215
 50
180.175227797726194
 51
242.2822018374226047
  0
ARC
  5
B7A1
  8
0
 10
4350.234870261728247
 20
188.0758287359718111
 30
0.0
 40
0.0039
 50
264.4593442442961759
 51
0.0000000001042204
  0
LINE
  5
B7A2
  8
0
 10
4350.1976992967283877
 20
188.1458083440296889
 30
0.0
 11
4350.2076245267289778
 21
188.1479442764101009
 31
0.0
  0
LINE
  5
B7A3
  8
0
 10
4350.2076245267289778
 20
188.1479442764101009
 30
0.0
 11
4350.2076245266862315
 21
188.1785309767423939
 31
0.0
  0
LINE
  5
B7A4
  8
0
 10
4350.2076245266862315
 20
188.1785309767423939
 30
0.0
 11
4350.1986256072614196
 21
188.1843045213302048
 31
0.0
  0
LINE
  5
B7A5
  8
0
 10
4350.2076245281277806
 20
188.1785309760296911
 30
0.0
 11
4350.2259478723581196
 21
188.1690757255285007
 31
0.0
  0
LINE
  5
B7A6
  8
0
 10
4350.2259478723581196
 20
188.1690757255285007
 30
0.0
 11
4350.2361288036881888
 21
188.171886911889203
 31
0.0
  0
ARC
  5
B7A7
  8
0
 10
4350.2349085091182133
 20
188.1756968785585116
 30
0.0
 40
0.0040006205592999
 50
287.7597474367079258
 51
344.8595325013533284
  0
LINE
  5
B7A8
  8
0
 10
4350.2801092521776809
 20
188.201434814074986
 30
0.0
 11
4350.2532977203782139
 21
188.204061529179711
 31
0.0
  0
LINE
  5
B7A9
  8
0
 10
4350.2532977203782139
 20
188.204061529179711
 30
0.0
 11
4350.2387702617288596
 21
188.2030682886777981
 31
0.0
  0
LINE
  5
B7AA
  8
0
 10
4350.2387702617288596
 20
188.1935248265309042
 30
0.0
 11
4350.2531959945890776
 21
188.1913092103918075
 31
0.0
  0
LINE
  5
B7AB
  8
0
 10
4350.2531959945890776
 20
188.1913092103918075
 30
0.0
 11
4350.2801092521776809
 21
188.1948329001286027
 31
0.0
  0
LINE
  5
B7AC
  8
0
 10
4350.2801092521776809
 20
188.1757632832263027
 30
0.0
 11
4350.2531695718280389
 21
188.1808636083297017
 31
0.0
  0
LINE
  5
B7AD
  8
0
 10
4350.2531695718280389
 20
188.1808636083297017
 30
0.0
 11
4350.2387702617288596
 21
188.1782282163611058
 31
0.0
  0
LINE
  5
B7AE
  8
0
 10
4350.2801092521776809
 20
188.1631342687090012
 30
0.0
 11
4350.254180247223303
 21
188.1564552390607048
 31
0.0
  0
LINE
  5
B7AF
  8
0
 10
4350.254180247223303
 20
188.1564552390607048
 30
0.0
 11
4350.2541802465293586
 21
188.1339720061297101
 31
0.0
  0
LINE
  5
B7B0
  8
0
 10
4350.2541802465293586
 20
188.1339720061297101
 30
0.0
 11
4350.2801092521776809
 21
188.1339720061297101
 31
0.0
  0
ARC
  5
B7B1
  8
0
 10
4350.2512645403839997
 20
188.2011284045472905
 30
0.0
 40
0.0447682147371419
 50
253.7942092341633895
 51
273.734256256480819
  0
ARC
  5
B7B2
  8
0
 10
4350.2815646786530124
 20
188.169497983255809
 30
0.0
 40
0.0065282228321748
 50
193.2903601146678909
 51
257.1142774821482817
  0
ARC
  5
B7B3
  8
0
 10
4350.8125324445245496
 20
188.1735247568207114
 30
0.0
 40
0.5373495775508341
 50
179.66205139355489
 51
180.5893913382633968
  0
LINE
  5
B7B4
  8
0
 10
4350.2751844200765845
 20
188.199682184360114
 30
0.0
 11
4350.275187584627929
 21
188.2019169878869889
 31
0.0
  0
ARC
  5
B7B5
  8
0
 10
4350.2803120670514545
 20
188.199964295279301
 30
0.0
 40
0.0051354016459553
 50
183.1491024546822075
 51
267.7366017339346058
  0
LINE
  5
B7B6
  8
0
 10
4350.2801092521776809
 20
188.1138694780518961
 30
0.0
 11
4350.253536365022228
 21
188.1036621152983059
 31
0.0
  0
LINE
  5
B7B7
  8
0
 10
4350.253536365022228
 20
188.1036621152983059
 30
0.0
 11
4350.2387702617288596
 21
188.1092726491465896
 31
0.0
  0
LINE
  5
B7B8
  8
0
 10
4350.2387702617288596
 20
188.0773606174846009
 30
0.0
 11
4350.2531548919996567
 21
188.08329976252611
 31
0.0
  0
LINE
  5
B7B9
  8
0
 10
4350.2531548919996567
 20
188.08329976252611
 30
0.0
 11
4350.2730628957751833
 21
188.0749316132655906
 31
0.0
  0
ARC
  5
B7BA
  8
0
 10
4350.2453787740041662
 20
188.1006718948079879
 30
0.0
 40
0.024700454564177
 50
254.4816976769143082
 51
288.354652307604681
  0
ARC
  5
B7BB
  8
0
 10
4350.2640038780300529
 20
188.1043791518069099
 30
0.0
 40
0.029237624139355
 50
248.2230696921481012
 51
270.0292697754550773
  0
ARC
  5
B7BC
  8
0
 10
4350.2543032160529037
 20
187.4616245022886858
 30
0.0
 40
0.61359395202205
 50
87.5896277961734739
 51
89.0927452436685883
  0
ARC
  5
B7BD
  8
0
 10
4350.2800433187849194
 20
188.8589485608850111
 30
0.0
 40
0.7856547149878143
 50
266.9686782620927943
 51
270.004778616752219
  0
LINE
  5
B7BE
  8
0
 10
4350.2579845594282233
 20
188.0870538529796931
 30
0.0
 11
4350.2581475045071784
 21
188.1054333783586969
 31
0.0
  0
LINE
  5
B7BF
  8
0
 10
4350.2482747347276018
 20
188.0877392060297097
 30
0.0
 11
4350.2482747347276018
 21
188.1056613262122994
 31
0.0
  0
ARC
  5
B7C0
  8
0
 10
4350.2557661933387863
 20
188.0910723263627915
 30
0.0
 40
0.0081994904280416
 50
203.9853691914410945
 51
251.4295068874845072
  0
ARC
  5
B7C1
  8
0
 10
4350.2522837371579953
 20
188.0894042583423982
 30
0.0
 40
0.0061663425085377
 50
278.1216768134286781
 51
337.59402109802528
  0
ARC
  5
B7C2
  8
0
 10
4350.2751171019108369
 20
190.6407268061495017
 30
0.0
 40
2.6572735538587189
 50
270.1076401444998965
 51
275.5568044051968855
  0
ARC
  5
B7C3
  8
0
 10
4350.5289340945619188
 20
188.0460563429882939
 30
0.0
 40
0.0502373507806984
 50
273.9876990111206965
 51
291.2183480144173018
  0
ARC
  5
B7C4
  8
0
 10
4350.3844068380976751
 20
188.414369477889295
 30
0.0
 40
0.4458918254381774
 50
291.4018962168548796
 51
309.9043940504041075
  0
ARC
  5
B7C5
  8
0
 10
4350.4997163594971425
 20
188.303772378174898
 30
0.0
 40
0.2876123004584574
 50
306.4146751063620968
 51
331.0814392529024985
  0
ARC
  5
B7C6
  8
0
 10
4350.6368224470552377
 20
188.2165102281342115
 30
0.0
 40
0.1258098234941599
 50
335.6776022413416172
 51
358.7400586171115719
  0
ARC
  5
B7C7
  8
0
 10
4350.2541381644932699
 20
189.527052049579396
 30
0.0
 40
1.53021423167614
 50
270.9724815856098985
 51
275.8467665679602874
  0
ARC
  5
B7C8
  8
0
 10
4350.3216931985161864
 20
188.7391098080042013
 30
0.0
 40
0.7396045978068693
 50
276.8587653914087809
 51
285.8733134036335741
  0
ARC
  5
B7C9
  8
0
 10
4350.4450583311163427
 20
188.3052663102828035
 30
0.0
 40
0.2885623199030914
 50
285.8733134036335741
 51
303.1757972145020972
  0
ARC
  5
B7CA
  8
0
 10
4350.5667728908092613
 20
188.1190953749396044
 30
0.0
 40
0.0661346885086637
 50
303.1757972145030067
 51
332.2646254748697174
  0
ARC
  5
B7CB
  8
0
 10
4350.5926755983273324
 20
188.1054757423663943
 30
0.0
 40
0.0368696129376175
 50
332.2646254748697174
 51
44.0352370513945601
  0
ARC
  5
B7CC
  8
0
 10
4350.5040487111582479
 20
188.0197843542975136
 30
0.0
 40
0.1601487235704676
 50
44.0352370513945601
 51
70.9584716000406388
  0
ARC
  5
B7CD
  8
0
 10
4350.3542073052285559
 20
187.6277614390508859
 30
0.0
 40
0.5797702550673539
 50
69.6001302432753306
 51
82.4233212241049529
  0
ARC
  5
B7CE
  8
0
 10
4350.2887018422097754
 20
187.226535192862201
 30
0.0
 40
0.9862039822853939
 50
81.7243527744223854
 51
86.899106640680003
  0
ARC
  5
B7CF
  8
0
 10
4350.258070314642282
 20
186.2919928723443093
 30
0.0
 40
1.921138727241406
 50
87.4946048344333605
 51
89.34269931362644
  0
ARC
  5
B7D0
  8
0
 10
4350.3047649612362875
 20
188.7321227693834942
 30
0.0
 40
0.4955408487607179
 50
267.1480623954627731
 51
267.4389547896772115
  0
ARC
  5
B7D1
  8
0
 10
4350.1656800348773686
 20
186.7736163961978946
 30
0.0
 40
1.4681253607377811
 50
69.2315969349775457
 51
85.431313203013346
  0
ARC
  5
B7D2
  8
0
 10
4350.5838499145665992
 20
188.1473921344579878
 30
0.0
 40
0.1024200707111574
 50
307.9466541452030128
 51
359.4141886390673903
  0
ARC
  5
B7D3
  8
0
 10
4350.371594462711073
 20
188.3975038166352931
 30
0.0
 40
0.430390084356305
 50
290.8052407361064979
 51
309.7548771610377116
  0
ARC
  5
B7D4
  8
0
 10
4350.6899472933091602
 20
188.1822191588624094
 30
0.0
 40
0.0360627097571587
 50
264.1388373392017002
 51
314.2635057046231282
  0
ARC
  5
B7D5
  8
0
 10
4350.7247221357401941
 20
188.2215832628359919
 30
0.0
 40
0.0379188324921629
 50
313.6949459778052187
 51
357.3973260403104746
  0
LINE
  5
B7D6
  8
0
 10
4350.7151175964781942
 20
188.1563933021797084
 30
0.0
 11
4350.7509171718784273
 21
188.1941668819796973
 31
0.0
  0
ARC
  5
B7D7
  8
0
 10
4350.26916179820455
 20
188.1289905025745952
 30
0.0
 40
0.2045176746103377
 50
82.8879276691013871
 51
86.9315960922829731
  0
ARC
  5
B7D8
  8
0
 10
4350.1757827210722098
 20
186.7297009967217889
 30
0.0
 40
1.606624507796119
 50
68.9013309658253235
 51
85.763016427117492
  0
ARC
  5
B7D9
  8
0
 10
4350.7493617349809938
 20
188.2143302070811899
 30
0.0
 40
0.0150640084999888
 50
28.4921181259073109
 51
71.5562160450689362
  0
ARC
  5
B7DA
  8
0
 10
4350.2532247668332275
 20
189.9083657842035109
 30
0.0
 40
1.88669450939092
 50
270.8164648118902278
 51
272.8943340586499176
  0
ARC
  5
B7DB
  8
0
 10
4350.2885976838952047
 20
188.9427878195475898
 30
0.0
 40
0.920660086819004
 50
273.7300502445190773
 51
279.6907441615712173
  0
ARC
  5
B7DC
  8
0
 10
4350.3510208174493528
 20
188.5772418940443913
 30
0.0
 40
0.5498225600572731
 50
279.6907441615712173
 51
289.5296715875113023
  0
ARC
  5
B7DD
  8
0
 10
4350.4684113106386576
 20
188.2462861536959053
 30
0.0
 40
0.1986641485664105
 50
289.5296715875113023
 51
308.6304160119370863
  0
ARC
  5
B7DE
  8
0
 10
4350.5620205184177394
 20
188.1291515119127098
 30
0.0
 40
0.0487201320578278
 50
308.63041601193612
 51
341.6143307858674802
  0
ARC
  5
B7DF
  8
0
 10
4350.5720151256609824
 20
188.1245560270133126
 30
0.0
 40
0.037805550803252
 50
343.4461594494168253
 51
32.9597859072279675
  0
ARC
  5
B7E0
  8
0
 10
4350.2554535431199838
 20
188.7321227693834942
 30
0.0
 40
0.4955408487607179
 50
272.5610452103229022
 51
272.8519376045372269
  0
ARC
  5
B7E1
  8
0
 10
4350.2581747775893746
 20
189.1966649922707973
 30
0.0
 40
1.14359865919447
 50
271.099013083254988
 51
274.6879872984903841
  0
ARC
  5
B7E2
  8
0
 10
4350.2999233796363114
 20
188.6413932964954085
 30
0.0
 40
0.5867846371742949
 50
275.0564160553956867
 51
287.0179827708890912
  0
ARC
  5
B7E3
  8
0
 10
4350.4232418889596374
 20
188.2384889475484044
 30
0.0
 40
0.1654304285299065
 50
287.0179827708890912
 51
307.1906827087071861
  0
ARC
  5
B7E4
  8
0
 10
4350.4888513466166842
 20
188.1520224853476009
 30
0.0
 40
0.056889883019705
 50
307.1906827087062197
 51
338.4966837055200131
  0
ARC
  5
B7E5
  8
0
 10
4350.5132203907505755
 20
188.1424216342003888
 30
0.0
 40
0.0306977724768323
 50
338.4966837055213773
 51
22.5103659726491614
  0
ARC
  5
B7E6
  8
0
 10
4350.4829389413253011
 20
188.121509441930101
 30
0.0
 40
0.0671244012084944
 50
29.1194232174466983
 51
61.1880189673672277
  0
ARC
  5
B7E7
  8
0
 10
4350.4354431575620765
 20
188.0480974643851084
 30
0.0
 40
0.1544643182355334
 50
58.8742032853246329
 51
66.3060255484456036
  0
ARC
  5
B7E8
  8
0
 10
4350.2176119733658197
 20
189.6051187529535866
 30
0.0
 40
1.54918928536056
 50
272.3120494930456061
 51
275.2116344834136044
  0
ARC
  5
B7E9
  8
0
 10
4350.2693334792702444
 20
188.7713844254473088
 30
0.0
 40
0.7146142287187424
 50
277.1542520289352751
 51
284.341458454402698
  0
ARC
  5
B7EA
  8
0
 10
4350.4036289461328124
 20
188.2461106114157872
 30
0.0
 40
0.1724446499642292
 50
284.341458454402698
 51
303.9975662584072893
  0
ARC
  5
B7EB
  8
0
 10
4350.471396766347425
 20
188.1456314800655036
 30
0.0
 40
0.0512483905598695
 50
303.9975662584072893
 51
334.5100041557794839
  0
ARC
  5
B7EC
  8
0
 10
4350.492445155086898
 20
188.1321764930424933
 30
0.0
 40
0.0266379231876389
 50
341.1648962977014889
 51
42.5429783198944875
  0
ARC
  5
B7ED
  8
0
 10
4350.4196443949049353
 20
188.0546188766116131
 30
0.0
 40
0.1329514248401596
 50
45.9574656032250388
 51
75.9453554400480328
  0
ARC
  5
B7EE
  8
0
 10
4350.3245245652542508
 20
187.7709003745056862
 30
0.0
 40
0.4319091090108033
 50
72.8433620714517218
 51
81.1578797127773441
  0
ARC
  5
B7EF
  8
0
 10
4350.2854002646499794
 20
187.5285587901192059
 30
0.0
 40
0.6773859705636266
 50
81.0387472327916356
 51
87.6436881717983027
  0
ARC
  5
B7F0
  8
0
 10
4350.2784263261091837
 20
187.3590769980413882
 30
0.0
 40
0.847011185860932
 50
87.6436881717983027
 51
89.8861589716955933
  0
ARC
  5
B7F1
  8
0
 10
4350.2803236458703395
 20
187.4168159025938962
 30
0.0
 40
0.7932245979381479
 50
84.4247149115922753
 51
90.0154859719088165
  0
ARC
  5
B7F2
  8
0
 10
4350.2997674055886819
 20
187.6160033800516942
 30
0.0
 40
0.5930903655639677
 50
75.7243940804766851
 51
84.4247149115922753
  0
ARC
  5
B7F3
  8
0
 10
4350.3861067642737908
 20
187.955329718767814
 30
0.0
 40
0.2429520371782617
 50
60.2785298056949514
 51
75.7243940804766851
  0
ARC
  5
B7F4
  8
0
 10
4350.4759724536415888
 20
188.1127439536390114
 30
0.0
 40
0.0616923244300898
 50
30.5078522284890816
 51
60.2785298056949514
  0
ARC
  5
B7F5
  8
0
 10
4350.5088087030489987
 20
188.1320920447417961
 30
0.0
 40
0.0235797555773683
 50
326.8448694552369034
 51
30.5078522284904814
  0
ARC
  5
B7F6
  8
0
 10
4350.4713404779431585
 20
188.1565686788291032
 30
0.0
 40
0.0683343476201967
 50
300.2843488404233767
 51
326.8448694552354823
  0
ARC
  5
B7F7
  8
0
 10
4350.4006687024639177
 20
188.2775848036918944
 30
0.0
 40
0.208474999560379
 50
288.0796013893390182
 51
300.2843488404233767
  0
ARC
  5
B7F8
  8
0
 10
4350.0502871838461942
 20
189.3508722338071095
 30
0.0
 40
1.337506937209981
 50
287.075692336105476
 51
288.0796013893390182
  0
ARC
  5
B7F9
  8
0
 10
4350.4135297761822585
 20
188.4041807792683016
 30
0.0
 40
0.3211271515808505
 50
287.6383130079793204
 51
293.5861403048264719
  0
ARC
  5
B7FA
  8
0
 10
4350.5403106086578191
 20
188.1137994727008902
 30
0.0
 40
0.0042759519823821
 50
293.5861403048264719
 51
6.3508429841082492
  0
ARC
  5
B7FB
  8
0
 10
4352.1019892832391633
 20
188.1613964337560958
 30
0.0
 40
1.5581417279611509
 50
179.4770829617532115
 51
181.7331006466403096
  0
ARC
  5
B7FC
  8
0
 10
4350.5405795871993178
 20
188.1135696324367075
 30
0.0
 40
0.003960703200842
 50
257.5070188760096244
 51
291.3499501136865888
  0
ARC
  5
B7FD
  8
0
 10
4350.3285984244203064
 20
187.1568297619805037
 30
0.0
 40
0.9759817405648927
 50
77.5070188760096244
 51
78.136214490980521
  0
LINE
  5
B7FE
  8
0
 10
4350.5439263227026458
 20
188.1457294169308057
 30
0.0
 11
4350.5623367943917401
 21
188.1548851636750044
 31
0.0
  0
LINE
  5
B7FF
  8
0
 10
4350.5621756600276058
 20
188.1690119371239973
 30
0.0
 11
4350.5621756600276058
 21
188.1564514243790995
 31
0.0
  0
ARC
  5
B800
  8
0
 10
4350.5682772243726504
 20
188.1562877244624872
 30
0.0
 40
0.0061037599157694
 50
178.4631703693650024
 51
267.3165010109153172
  0
ARC
  5
B801
  8
0
 10
4350.4932229858286519
 20
186.5549656123369004
 30
0.0
 40
1.596976289709241
 50
86.4457983991428165
 51
87.3165010109152462
  0
ARC
  5
B802
  8
0
 10
4350.5925758542771291
 20
188.1545362516964133
 30
0.0
 40
0.0056768926012351
 50
266.4457983991428023
 51
314.7238790835568238
  0
LINE
  5
B803
  8
0
 10
4350.3214482426283212
 20
188.0758287359718111
 30
0.0
 11
4350.3214482426283212
 21
188.2049849105493138
 31
0.0
  0
LINE
  5
B804
  8
0
 10
4350.3559269495290209
 20
188.2022632801119926
 30
0.0
 11
4350.3559269495290209
 21
188.1890920543297057
 31
0.0
  0
LINE
  5
B805
  8
0
 10
4350.3657694692283258
 20
188.2011601163681007
 30
0.0
 11
4350.3657694692283258
 21
188.1894456079297129
 31
0.0
  0
LINE
  5
B806
  8
0
 10
4350.4108961629490295
 20
188.1932480509437084
 30
0.0
 11
4350.3896582158276942
 21
188.1793416893297035
 31
0.0
  0
LINE
  5
B807
  8
0
 10
4350.3896582158276942
 20
188.1793416893297035
 30
0.0
 11
4350.3615928970957611
 21
188.1843045213302048
 31
0.0
  0
LINE
  5
B808
  8
0
 10
4350.388665692827999
 20
188.1595222863296897
 30
0.0
 11
4350.3625192075760424
 21
188.1458083441050064
 31
0.0
  0
LINE
  5
B809
  8
0
 10
4350.388665692827999
 20
188.1595222863296897
 30
0.0
 11
4350.4148121781199734
 21
188.1579173714696083
 31
0.0
  0
LINE
  5
B80A
  8
0
 10
4350.4148121781199734
 20
188.1579173714696083
 30
0.0
 11
4350.4429437092276203
 21
188.1756539198296991
 31
0.0
  0
LINE
  5
B80B
  8
0
 10
4350.4429437092276203
 20
188.1756539198296991
 30
0.0
 11
4350.4705778244151588
 21
188.1774271301017052
 31
0.0
  0
LINE
  5
B80C
  8
0
 10
4350.3625192075760424
 20
188.1458083441050064
 30
0.0
 11
4350.362519207645164
 21
188.1305502777408094
 31
0.0
  0
LINE
  5
B80D
  8
0
 10
4350.362519207645164
 20
188.1305502777408094
 30
0.0
 11
4350.3886656927852528
 21
188.1288395226243892
 31
0.0
  0
LINE
  5
B80E
  8
0
 10
4350.3886656927852528
 20
188.1288395226243892
 30
0.0
 11
4350.4158047011060262
 21
188.1419587609732957
 31
0.0
  0
LINE
  5
B80F
  8
0
 10
4350.4158047011060262
 20
188.1419587609732957
 30
0.0
 11
4350.4419511862697618
 21
188.1433916750305002
 31
0.0
  0
LINE
  5
B810
  8
0
 10
4350.4419511862697618
 20
188.1433916750305002
 30
0.0
 11
4350.46990887497941
 21
188.1611273794297006
 31
0.0
  0
LINE
  5
B811
  8
0
 10
4350.46990887497941
 20
188.1611273794297006
 30
0.0
 11
4350.4930621386247367
 21
188.1654607291490038
 31
0.0
  0
LINE
  5
B812
  8
0
 10
4350.3625192076287931
 20
188.1305502777296965
 30
0.0
 11
4350.3525939776272935
 21
188.1257595905296967
 31
0.0
  0
LINE
  5
B813
  8
0
 10
4350.3525939776272935
 20
188.1257595905296967
 30
0.0
 11
4350.3525939776272935
 21
188.1054641604297046
 31
0.0
  0
LINE
  5
B814
  8
0
 10
4350.3525939776272935
 20
188.1054641604297046
 30
0.0
 11
4350.3625192076287931
 21
188.1046489301297129
 31
0.0
  0
LINE
  5
B815
  8
0
 10
4350.3625192076287931
 20
188.1046489301297129
 30
0.0
 11
4350.388665692827999
 21
188.1151582085898042
 31
0.0
  0
LINE
  5
B816
  8
0
 10
4350.388665692827999
 20
188.1151582085898042
 30
0.0
 11
4350.4148121780817746
 21
188.1164171936028993
 31
0.0
  0
LINE
  5
B817
  8
0
 10
4350.4148121780817746
 20
188.1164171936028993
 30
0.0
 11
4350.4429437093167508
 21
188.1307024215834076
 31
0.0
  0
LINE
  5
B818
  8
0
 10
4350.4429437093167508
 20
188.1307024215834076
 30
0.0
 11
4350.4702765487973011
 21
188.1356540962381132
 31
0.0
  0
LINE
  5
B819
  8
0
 10
4350.4702765487973011
 20
188.1356540962381132
 30
0.0
 11
4350.4972217248277957
 21
188.1534828605296923
 31
0.0
  0
LINE
  5
B81A
  8
0
 10
4350.4972217248277957
 20
188.1534828605296923
 30
0.0
 11
4350.5057292425635751
 21
188.1559375835244907
 31
0.0
  0
LINE
  5
B81B
  8
0
 10
4350.3625192076287931
 20
188.1046489301297129
 30
0.0
 11
4350.3625956770247285
 21
188.0953199052563036
 31
0.0
  0
LINE
  5
B81C
  8
0
 10
4350.3625956770247285
 20
188.0953199052563036
 30
0.0
 11
4350.3887893437613457
 21
188.0961170917740901
 31
0.0
  0
LINE
  5
B81D
  8
0
 10
4350.3887893437613457
 20
188.0961170917740901
 30
0.0
 11
4350.4157991061783832
 21
188.1068377189797047
 31
0.0
  0
LINE
  5
B81E
  8
0
 10
4350.4157991061783832
 20
188.1068377189797047
 30
0.0
 11
4350.4429889630673642
 21
188.111674286557303
 31
0.0
  0
LINE
  5
B81F
  8
0
 10
4350.4429889630673642
 20
188.111674286557303
 30
0.0
 11
4350.4700678382250771
 21
188.1261801785844057
 31
0.0
  0
LINE
  5
B820
  8
0
 10
4350.4700678382250771
 20
188.1261801785844057
 30
0.0
 11
4350.4974713037863694
 21
188.1344254830054012
 31
0.0
  0
LINE
  5
B821
  8
0
 10
4350.4974713037863694
 20
188.1344254830054012
 30
0.0
 11
4350.5075119347284271
 21
188.1411085696796874
 31
0.0
  0
LINE
  5
B822
  8
0
 10
4350.5075119347284271
 20
188.1411085696796874
 30
0.0
 11
4350.5168287586348015
 21
188.1429011762440098
 31
0.0
  0
LINE
  5
B823
  8
0
 10
4350.3625956770247285
 20
188.0953199052563036
 30
0.0
 11
4350.352593977624565
 21
188.0918846673974087
 31
0.0
  0
LINE
  5
B824
  8
0
 10
4350.352593977624565
 20
188.0918846673974087
 30
0.0
 11
4350.3525939776272935
 21
188.0812398060297141
 31
0.0
  0
LINE
  5
B825
  8
0
 10
4350.3525939776272935
 20
188.0812398060297141
 30
0.0
 11
4350.3615266850556509
 21
188.081861568564392
 31
0.0
  0
LINE
  5
B826
  8
0
 10
4350.3615266850556509
 20
188.081861568564392
 30
0.0
 11
4350.388665692827999
 21
188.0893960238296927
 31
0.0
  0
LINE
  5
B827
  8
0
 10
4350.388665692827999
 20
188.0893960238296927
 30
0.0
 11
4350.4159857904260207
 21
188.0938587703504936
 31
0.0
  0
LINE
  5
B828
  8
0
 10
4350.4159857904260207
 20
188.0938587703504936
 30
0.0
 11
4350.4428884664275756
 21
188.1049735692297133
 31
0.0
  0
LINE
  5
B829
  8
0
 10
4350.4428884664275756
 20
188.1049735692297133
 30
0.0
 11
4350.47026449560326
 21
188.1132334288475931
 31
0.0
  0
LINE
  5
B82A
  8
0
 10
4350.47026449560326
 20
188.1132334288475931
 30
0.0
 11
4350.4974093461387383
 21
188.1284952775550039
 31
0.0
  0
LINE
  5
B82B
  8
0
 10
4350.4974093461387383
 20
188.1284952775550039
 30
0.0
 11
4350.5139236193408578
 21
188.1262394664865099
 31
0.0
  0
ARC
  5
B82C
  8
0
 10
4350.2801096579141813
 20
188.542180643134202
 30
0.0
 40
0.472440959640737
 50
275.540655755442117
 51
278.8254708727062052
  0
ARC
  5
B82D
  8
0
 10
4350.3519899417160559
 20
188.0792236496153862
 30
0.0
 40
0.0039370076324422
 50
278.8254708727062052
 51
320.3531509652082718
  0
ARC
  5
B82E
  8
0
 10
4350.2764409385099498
 20
188.8034224967690022
 30
0.0
 40
0.7309470419247752
 50
276.1715100204513078
 51
280.2206667663762119
  0
ARC
  5
B82F
  8
0
 10
4350.3860886449938334
 20
188.2968342797393007
 30
0.0
 40
0.2137026854635209
 50
275.3838798587661927
 51
305.2790310172908903
  0
ARC
  5
B830
  8
0
 10
4350.3682629518798421
 20
188.2881223041848955
 30
0.0
 40
0.2177684164121449
 50
310.4385456601560804
 51
313.1605045863586838
  0
ARC
  5
B831
  8
0
 10
4350.2854508880691355
 20
188.742391567203299
 30
0.0
 40
0.6768455050172522
 50
273.0486573711543201
 51
279.2064735889049985
  0
ARC
  5
B832
  8
0
 10
4350.3332617937785471
 20
188.4474092998374886
 30
0.0
 40
0.3780137450500269
 50
279.2064735889049985
 51
293.6989202340050724
  0
ARC
  5
B833
  8
0
 10
4350.4559553193903412
 20
188.1678913346920865
 30
0.0
 40
0.0727532103164054
 50
293.6989202340050724
 51
324.297934181878702
  0
ARC
  5
B834
  8
0
 10
4350.4978317597206114
 20
188.1377977701633029
 30
0.0
 40
0.0211852078259917
 50
324.2979341818800094
 51
353.5760806695188876
  0
LINE
  5
B835
  8
0
 10
4350.3615266850556509
 20
188.081861568564392
 30
0.0
 11
4350.3615601562287338
 21
188.0782339272869024
 31
0.0
  0
LINE
  5
B836
  8
0
 10
4350.3615601562287338
 20
188.0782339272869024
 30
0.0
 11
4350.388665692827999
 21
188.0827602135296956
 31
0.0
  0
LINE
  5
B837
  8
0
 10
4350.388665692827999
 20
188.0827602135296956
 30
0.0
 11
4350.4156581610277499
 21
188.0906048810159916
 31
0.0
  0
LINE
  5
B838
  8
0
 10
4350.4156581610277499
 20
188.0906048810159916
 30
0.0
 11
4350.4429437092849184
 21
188.0988918471302895
 31
0.0
  0
LINE
  5
B839
  8
0
 10
4350.4429437092849184
 20
188.0988918471302895
 30
0.0
 11
4350.4700827167316675
 21
188.1102732107094084
 31
0.0
  0
LINE
  5
B83A
  8
0
 10
4350.4700827167316675
 20
188.1102732107094084
 30
0.0
 11
4350.4786809457973504
 21
188.1139541888211966
 31
0.0
  0
LINE
  5
B83B
  8
0
 10
4350.4786809457973504
 20
188.1139541888211966
 30
0.0
 11
4350.4914850962240962
 21
188.1109299337913967
 31
0.0
  0
LINE
  5
B83C
  8
0
 10
4350.3828397993283943
 20
188.1647912081297136
 30
0.0
 11
4350.3828397993283943
 21
188.1805474000476011
 31
0.0
  0
LINE
  5
B83D
  8
0
 10
4350.3926539530275477
 20
188.1647938585296913
 30
0.0
 11
4350.3926921725178545
 21
188.1813282890047958
 31
0.0
  0
LINE
  5
B83E
  8
0
 10
4350.4366654990290044
 20
188.1807027986297101
 30
0.0
 11
4350.4366654990290044
 21
188.1879973529399876
 31
0.0
  0
LINE
  5
B83F
  8
0
 10
4350.4464996051246999
 20
188.1811805292761051
 30
0.0
 11
4350.4465103479160462
 21
188.1852250627335934
 31
0.0
  0
LINE
  5
B840
  8
0
 10
4350.4635783488283778
 20
188.1659396057297045
 30
0.0
 11
4350.4635783488283778
 21
188.1769779917115955
 31
0.0
  0
LINE
  5
B841
  8
0
 10
4350.4734291792856311
 20
188.1670182908852951
 30
0.0
 11
4350.4734173456172357
 21
188.1762106162105965
 31
0.0
  0
LINE
  5
B842
  8
0
 10
4350.4904911986286606
 20
188.1580984148189089
 30
0.0
 11
4350.4904911986286606
 21
188.164979553696412
 31
0.0
  0
LINE
  5
B843
  8
0
 10
4350.5002901885873143
 20
188.1580876338612995
 30
0.0
 11
4350.5003465559502729
 21
188.1602751237983
 31
0.0
  0
LINE
  5
B844
  8
0
 10
4350.4636108028780654
 20
188.1297288703796937
 30
0.0
 11
4350.4635689419237679
 21
188.1344389320773018
 31
0.0
  0
LINE
  5
B845
  8
0
 10
4350.4733824314698722
 20
188.1302804235940016
 30
0.0
 11
4350.4734300156778772
 21
188.137740644778404
 31
0.0
  0
LINE
  5
B846
  8
0
 10
4350.4097800579202158
 20
188.1109123400223098
 30
0.0
 11
4350.4097443620421473
 21
188.1161731721070112
 31
0.0
  0
LINE
  5
B847
  8
0
 10
4350.4195951688288915
 20
188.1118908458296914
 30
0.0
 11
4350.4195951688288915
 21
188.1188460024960136
 31
0.0
  0
LINE
  5
B848
  8
0
 10
4350.3828544052921643
 20
188.0933462739874926
 30
0.0
 11
4350.3828296595747815
 21
188.0959357128197098
 31
0.0
  0
LINE
  5
B849
  8
0
 10
4350.3926823190276991
 20
188.0940867486297066
 30
0.0
 11
4350.3926823190276991
 21
188.0976622788778911
 31
0.0
  0
LINE
  5
B84A
  8
0
 10
4350.3559269495290209
 20
188.0854339334296981
 30
0.0
 11
4350.3559269495290209
 21
188.0930294279833959
 31
0.0
  0
LINE
  5
B84B
  8
0
 10
4350.4366654990290044
 20
188.1091651303044046
 30
0.0
 11
4350.4366654990290044
 21
188.1105494604402963
 31
0.0
  0
LINE
  5
B84C
  8
0
 10
4350.4465080187283093
 20
188.1098344149206127
 30
0.0
 11
4350.4465080187283093
 21
188.1135594107053066
 31
0.0
  0
LINE
  5
B84D
  8
0
 10
4350.5003266011090091
 20
188.1323541684957945
 30
0.0
 11
4350.5003345655013618
 21
188.1363312821848979
 31
0.0
  0
ARC
  5
B84E
  8
0
 10
4350.3879866437337114
 20
188.1646267876529066
 30
0.0
 40
0.0051494700145701
 50
178.1702581413732958
 51
277.5775365814487259
  0
ARC
  5
B84F
  8
0
 10
4350.388052658124252
 20
188.1641305488047919
 30
0.0
 40
0.004648859493229
 50
277.5775365814487259
 51
8.203086271535545
  0
ARC
  5
B850
  8
0
 10
4350.3596468313708101
 20
188.1901525354404896
 30
0.0
 40
0.0061633141115219
 50
288.4060896164718883
 51
353.4137213970470839
  0
ARC
  5
B851
  8
0
 10
4350.3634459671193326
 20
188.1922441250096938
 30
0.0
 40
0.0081529856556783
 50
202.7440695692534973
 51
256.8625843437910135
  0
ARC
  5
B852
  8
0
 10
4350.4426659850087162
 20
188.1817364463506124
 30
0.0
 40
0.006088863573657
 50
189.7738866417859924
 51
272.6142724451848949
  0
ARC
  5
B853
  8
0
 10
4350.4417154284237768
 20
188.180351473135488
 30
0.0
 40
0.0048554794610461
 50
284.6532114020939161
 51
9.831225170481467
  0
ARC
  5
B854
  8
0
 10
4350.4674052403115638
 20
188.1666207986133088
 30
0.0
 40
0.006037039081241
 50
294.5012031208855205
 51
3.7752144545035482
  0
ARC
  5
B855
  8
0
 10
4350.4689382403066702
 20
188.1664205456048933
 30
0.0
 40
0.0053814254454
 50
185.1273848296557958
 51
280.3911708859404257
  0
ARC
  5
B856
  8
0
 10
4350.4949953513423679
 20
188.1582911862375909
 30
0.0
 40
0.0052987484383589
 50
294.845301160024917
 51
357.798430591145177
  0
ARC
  5
B857
  8
0
 10
4350.496526166327385
 20
188.1596836731847873
 30
0.0
 40
0.0062397018527744
 50
194.7178901604939938
 51
276.400236530584209
  0
ARC
  5
B858
  8
0
 10
4350.4674237967119552
 20
188.1317074558201909
 30
0.0
 40
0.006127132213444
 50
295.564698573698422
 51
346.5319103329157997
  0
ARC
  5
B859
  8
0
 10
4350.4681116310939615
 20
188.1302695618593077
 30
0.0
 40
0.0045331889334166
 50
186.8502036832319106
 51
295.564698573698422
  0
ARC
  5
B85A
  8
0
 10
4350.4393084575667672
 20
188.1114174107212023
 30
0.0
 40
0.007371536923065
 50
299.0552626223665129
 51
347.5994715131915882
  0
ARC
  5
B85B
  8
0
 10
4350.4417564192726786
 20
188.1100081042955026
 30
0.0
 40
0.0051602397317965
 50
189.4019455775550966
 51
282.6725490484932948
  0
ARC
  5
B85C
  8
0
 10
4350.4111921181101934
 20
188.1142510509124861
 30
0.0
 40
0.0087282202886387
 50
301.8587337260200911
 51
344.3112863460838184
  0
ARC
  5
B85D
  8
0
 10
4350.4155531053456798
 20
188.1129573183607135
 30
0.0
 40
0.0061245418598751
 50
199.5055999756226015
 51
272.3019847782044849
  0
ARC
  5
B85E
  8
0
 10
4350.3870264479655816
 20
188.0948647578846931
 30
0.0
 40
0.0057091309222015
 50
286.6860235600203737
 51
352.167672528880928
  0
ARC
  5
B85F
  8
0
 10
4350.3873656410632975
 20
188.0937331655958928
 30
0.0
 40
0.0045277956328397
 50
184.9017938026092054
 51
286.6860235600717033
  0
ARC
  5
B860
  8
0
 10
4350.3473043608437365
 20
188.0888647168210923
 30
0.0
 40
0.009280049046659
 50
304.7501418066007091
 51
338.3032204671791874
  0
LINE
  5
B861
  8
0
 10
4350.3828696321788811
 20
188.1196718951796925
 30
0.0
 11
4350.3828227857557067
 21
188.1292218219292067
 31
0.0
  0
LINE
  5
B862
  8
0
 10
4350.3926918986753662
 20
188.1206565657487033
 30
0.0
 11
4350.392678236795291
 21
188.1307792221388127
 31
0.0
  0
LINE
  5
B863
  8
0
 10
4350.4367203480278476
 20
188.1348644191297126
 30
0.0
 11
4350.4366458951253662
 21
188.1431009274897974
 31
0.0
  0
LINE
  5
B864
  8
0
 10
4350.4465080187283093
 20
188.1359693781296869
 30
0.0
 11
4350.4465080187283093
 21
188.1462824230576985
 31
0.0
  0
ARC
  5
B865
  8
0
 10
4350.3844371796903943
 20
188.1224778489201981
 30
0.0
 40
0.0084532513222992
 50
300.0147734535723885
 51
347.5578614157092261
  0
ARC
  5
B866
  8
0
 10
4350.3895062137571585
 20
188.122215755119214
 30
0.0
 40
0.0071074213641122
 50
200.9722664772064036
 51
263.2083292290313921
  0
ARC
  5
B867
  8
0
 10
4350.444114782097131
 20
188.1391873457718873
 30
0.0
 40
0.0085653575489501
 50
210.3113675610856035
 51
262.141793623054582
  0
ARC
  5
B868
  8
0
 10
4350.4382708991270192
 20
188.1377041705889894
 30
0.0
 40
0.0084178170686149
 50
303.7182569143192268
 51
348.1069326045818002
  0
LINE
  5
B869
  8
0
 10
4350.4097526492287216
 20
188.1469114859297065
 30
0.0
 11
4350.4097526492287216
 21
188.1582279337885097
 31
0.0
  0
LINE
  5
B86A
  8
0
 10
4350.4195951688288915
 20
188.1481190815106004
 30
0.0
 11
4350.4195951688288915
 21
188.1609329821619099
 31
0.0
  0
ARC
  5
B86B
  8
0
 10
4350.4089914570458859
 20
188.1503972795075015
 30
0.0
 40
0.0108456853026587
 50
308.9173414249914913
 51
347.8743836897742199
  0
ARC
  5
B86C
  8
0
 10
4350.4168706051141271
 20
188.1494353147677998
 30
0.0
 40
0.0075521525405184
 50
199.5230884045172104
 51
261.8862336310713772
  0
ARC
  5
B86D
  8
0
 10
4350.4953287751040989
 20
188.133100296040908
 30
0.0
 40
0.0050532139366088
 50
294.3136972323709983
 51
351.5089998127673994
  0
LINE
  5
B86E
  8
0
 10
4350.444942683345289
 20
188.0997301626289868
 30
0.0
 11
4350.4607668721992013
 21
188.0978511458746141
 31
0.0
  0
LINE
  5
B86F
  8
0
 10
4350.4636333003281834
 20
188.1025788324297139
 30
0.0
 11
4350.4636333003281834
 21
188.1075685004097124
 31
0.0
  0
LINE
  5
B870
  8
0
 10
4350.494771909928204
 20
188.1162295591296925
 30
0.0
 11
4350.494771909928204
 21
188.1270124124210099
 31
0.0
  0
ARC
  5
B871
  8
0
 10
4350.4144688142678206
 20
188.095167919583389
 30
0.0
 40
0.0050017886250932
 50
207.1683097032228886
 51
266.6629500115265046
  0
ARC
  5
B872
  8
0
 10
4350.4149924656749135
 20
188.0951018027407997
 30
0.0
 40
0.0046043883570214
 50
299.3332969639903922
 51
3.0645181262426799
  0
ARC
  5
B873
  8
0
 10
4350.4151515824378293
 20
188.0916305605339005
 30
0.0
 40
0.0066641796364956
 50
205.9353206077655045
 51
263.3039958197459214
  0
ARC
  5
B874
  8
0
 10
4350.413214363528823
 20
188.0912902147229033
 30
0.0
 40
0.0063846683509862
 50
280.4694482641194782
 51
4.5408397809869196
  0
ARC
  5
B875
  8
0
 10
4350.3903272032011955
 20
188.0865568113113966
 30
0.0
 40
0.0051826429327796
 50
289.8355110589087076
 51
338.326962327524086
  0
ARC
  5
B876
  8
0
 10
4350.3965826265848591
 20
188.1422500451161
 30
0.0
 40
0.0616564768642122
 50
257.9982419751078737
 51
262.1714487780741933
  0
ARC
  5
B877
  8
0
 10
4350.4952091104705687
 20
188.1330145081957141
 30
0.0
 40
0.0050263786745523
 50
188.7480067201435077
 51
295.9596292436464182
  0
ARC
  5
B878
  8
0
 10
4350.4878490657947623
 20
188.1168540395844104
 30
0.0
 40
0.0069509529361578
 50
301.5402977956152881
 51
354.845540887731886
  0
ARC
  5
B879
  8
0
 10
4350.4582742963930286
 20
188.1025952219333135
 30
0.0
 40
0.0053590289978215
 50
297.7177981625774237
 51
359.8247722022737776
  0
ARC
  5
B87A
  8
0
 10
4350.3253482426289338
 20
188.0758287359718111
 30
0.0
 40
0.0039
 50
179.9999999998956923
 51
275.5406557557038241
  0
LINE
  5
B87B
  8
0
 10
4350.3625192076287931
 20
188.1458083440296889
 30
0.0
 11
4350.3525939776272935
 21
188.1479442764101009
 31
0.0
  0
LINE
  5
B87C
  8
0
 10
4350.3525939776272935
 20
188.1479442764101009
 30
0.0
 11
4350.3525939776700397
 21
188.1785309767423939
 31
0.0
  0
LINE
  5
B87D
  8
0
 10
4350.3525939776700397
 20
188.1785309767423939
 30
0.0
 11
4350.3615928970957611
 21
188.1843045213302048
 31
0.0
  0
LINE
  5
B87E
  8
0
 10
4350.3525939762275812
 20
188.1785309760296911
 30
0.0
 11
4350.3342706319990612
 21
188.1690757255285007
 31
0.0
  0
LINE
  5
B87F
  8
0
 10
4350.3342706319990612
 20
188.1690757255285007
 30
0.0
 11
4350.324089700668992
 21
188.171886911889203
 31
0.0
  0
ARC
  5
B880
  8
0
 10
4350.325309995239877
 20
188.1756968785585116
 30
0.0
 40
0.0040006205592999
 50
195.1404674986451084
 51
252.2402525632921026
  0
LINE
  5
B881
  8
0
 10
4350.2801092521776809
 20
188.201434814074986
 30
0.0
 11
4350.3069207839789669
 21
188.204061529179711
 31
0.0
  0
LINE
  5
B882
  8
0
 10
4350.3069207839789669
 20
188.204061529179711
 30
0.0
 11
4350.3214482426283212
 21
188.2030682886777981
 31
0.0
  0
LINE
  5
B883
  8
0
 10
4350.3214482426283212
 20
188.1935248265309042
 30
0.0
 11
4350.3070225097671937
 21
188.1913092103918075
 31
0.0
  0
LINE
  5
B884
  8
0
 10
4350.3070225097671937
 20
188.1913092103918075
 30
0.0
 11
4350.2801092521776809
 21
188.1948329001286027
 31
0.0
  0
LINE
  5
B885
  8
0
 10
4350.2801092521776809
 20
188.1757632832263027
 30
0.0
 11
4350.3070489325282324
 21
188.1808636083297017
 31
0.0
  0
LINE
  5
B886
  8
0
 10
4350.3070489325282324
 20
188.1808636083297017
 30
0.0
 11
4350.3214482426283212
 21
188.1782282163611058
 31
0.0
  0
LINE
  5
B887
  8
0
 10
4350.2801092521776809
 20
188.1631342687090012
 30
0.0
 11
4350.3060382571338778
 21
188.1564552390607048
 31
0.0
  0
LINE
  5
B888
  8
0
 10
4350.3060382571338778
 20
188.1564552390607048
 30
0.0
 11
4350.3060382578287317
 21
188.1339720061297101
 31
0.0
  0
LINE
  5
B889
  8
0
 10
4350.3060382578287317
 20
188.1339720061297101
 30
0.0
 11
4350.2801092521776809
 21
188.1339720061297101
 31
0.0
  0
ARC
  5
B88A
  8
0
 10
4350.3089539639731811
 20
188.2011284045472905
 30
0.0
 40
0.0447682147371419
 50
266.265743743519181
 51
286.2057907658365821
  0
ARC
  5
B88B
  8
0
 10
4350.2786538257041684
 20
188.169497983255809
 30
0.0
 40
0.0065282228321748
 50
282.8857225178517183
 51
346.7096398853320807
  0
ARC
  5
B88C
  8
0
 10
4349.7476860598308122
 20
188.1735247568207114
 30
0.0
 40
0.5373495775508341
 50
359.4106086617366032
 51
0.3379486064450999
  0
LINE
  5
B88D
  8
0
 10
4350.2850340842787773
 20
188.199682184360114
 30
0.0
 11
4350.2850309197283423
 21
188.2019169878869889
 31
0.0
  0
ARC
  5
B88E
  8
0
 10
4350.2799064373057263
 20
188.199964295279301
 30
0.0
 40
0.0051354016459553
 50
272.2633982660655079
 51
356.8508975453178209
  0
LINE
  5
B88F
  8
0
 10
4350.2801092521776809
 20
188.1138694780518961
 30
0.0
 11
4350.3066821393340433
 21
188.1036621152983059
 31
0.0
  0
LINE
  5
B890
  8
0
 10
4350.3066821393340433
 20
188.1036621152983059
 30
0.0
 11
4350.3214482426283212
 21
188.1092726491465896
 31
0.0
  0
LINE
  5
B891
  8
0
 10
4350.3214482426283212
 20
188.0773606174846009
 30
0.0
 11
4350.3070636123566146
 21
188.08329976252611
 31
0.0
  0
LINE
  5
B892
  8
0
 10
4350.3070636123566146
 20
188.08329976252611
 30
0.0
 11
4350.2871556147238152
 21
188.074931615847504
 31
0.0
  0
ARC
  5
B893
  8
0
 10
4350.3148397303530146
 20
188.1006718948079879
 30
0.0
 40
0.024700454564177
 50
251.6453476923952906
 51
285.5183023230856065
  0
ARC
  5
B894
  8
0
 10
4350.2962146263271279
 20
188.1043791518069099
 30
0.0
 40
0.029237624139355
 50
269.9707302245449227
 51
291.7769303078518988
  0
ARC
  5
B895
  8
0
 10
4350.3059197515085543
 20
187.4614252134713865
 30
0.0
 40
0.6137932865270798
 50
90.9073767724134143
 51
92.4100821410923601
  0
ARC
  5
B896
  8
0
 10
4350.2801751855713519
 20
188.8589485608850111
 30
0.0
 40
0.7856547149878143
 50
269.995221383247781
 51
273.031321737907092
  0
LINE
  5
B897
  8
0
 10
4350.3022339449289575
 20
188.0870538529796931
 30
0.0
 11
4350.3020709998500024
 21
188.1054333783586969
 31
0.0
  0
LINE
  5
B898
  8
0
 10
4350.31194376962776
 20
188.0877392060297097
 30
0.0
 11
4350.31194376962776
 21
188.1056613262122994
 31
0.0
  0
ARC
  5
B899
  8
0
 10
4350.3044523110165755
 20
188.0910723263627915
 30
0.0
 40
0.0081994904280416
 50
288.5704931125155781
 51
336.0146308085589908
  0
ARC
  5
B89A
  8
0
 10
4350.3079347671991854
 20
188.0894042583423982
 30
0.0
 40
0.0061663425085377
 50
202.4059789019746916
 51
261.8783231865712082
  0
ARC
  5
B89B
  8
0
 10
4350.2801092521776809
 20
188.4591359916734064
 30
0.0
 40
0.3948022382444901
 50
263.9896510430701255
 51
276.0103489569298745
  0
LINE
  5
B89C
  8
0
 10
4345.2885116762963662
 20
184.0344884598819988
 30
0.0
 11
4347.3977014699512438
 21
184.0344884598819988
 31
0.0
  0
LINE
  5
B89D
  8
0
 10
4345.1907193403540077
 20
184.2024895018151938
 30
0.0
 11
4345.2522802405637776
 21
184.0584080508201055
 31
0.0
  0
ARC
  5
B89E
  8
0
 10
4344.0120552923463038
 20
185.9962692473280015
 30
0.0
 40
2.114293061049477
 50
304.3087539972034961
 51
314.64986452760661
  0
ARC
  5
B89F
  8
0
 10
4344.0813895495821271
 20
185.9041969596351009
 30
0.0
 40
2.000124412884531
 50
315.0904591602812275
 51
330.0925219649705014
  0
ARC
  5
B8A0
  8
0
 10
4345.2269507760856868
 20
184.2179699108770023
 30
0.0
 40
0.0394
 50
126.0192094109490029
 51
203.1353023700388007
  0
ARC
  5
B8A1
  8
0
 10
4345.2885116762963662
 20
184.0738884598819993
 30
0.0
 40
0.0394
 50
203.1353023700388007
 51
270.0
  0
ARC
  5
B8A2
  8
0
 10
4343.3361626215400975
 20
185.9408304449098921
 30
0.0
 40
2.8729237541933101
 50
331.226921947269318
 51
341.0592030720071079
  0
ARC
  5
B8A3
  8
0
 10
4344.2965046199906283
 20
185.4440561698781096
 30
0.0
 40
1.79223468814417
 50
318.1192116482471874
 51
330.3696825174209835
  0
LINE
  5
B8A4
  8
0
 10
4345.6613949267748467
 20
184.0638295502581911
 30
0.0
 11
4345.6223942213146074
 21
184.2115300449831921
 31
0.0
  0
ARC
  5
B8A5
  8
0
 10
4345.699489261488452
 20
184.0738884598819993
 30
0.0
 40
0.0394
 50
194.7914970801492984
 51
270.0
  0
ARC
  5
B8A6
  8
0
 10
4345.6604885560282128
 20
184.2215889546070002
 30
0.0
 40
0.0394
 50
138.7041856673990878
 51
194.79149708015089
  0
LINE
  5
B8A7
  8
0
 10
4345.2037813517072209
 20
184.2498374142923012
 30
0.0
 11
4347.4824317945412986
 21
184.2498374142923012
 31
0.0
  0
ARC
  5
B8A8
  8
0
 10
4344.4848416285267376
 20
185.6710864918429991
 30
0.0
 40
1.5341705523844049
 50
330.1263569701147276
 51
355.5908445564469957
  0
LINE
  5
B8A9
  8
0
 10
4346.0281063508873558
 20
185.7839771148721013
 30
0.0
 11
4346.0281063508873558
 21
186.3376184598820089
 31
0.0
  0
LINE
  5
B8AA
  8
0
 10
4346.0281063508873558
 20
186.3967034991819958
 30
0.0
 11
4346.0281063508873558
 21
186.4019034991885064
 31
0.0
  0
ARC
  5
B8AB
  8
0
 10
4338.6515823623331016
 20
186.1038609019726096
 30
0.0
 40
7.3834566289079948
 50
355.7224370536782203
 51
357.5169178446585079
  0
ARC
  5
B8AC
  8
0
 10
4343.3035090013154331
 20
185.7600423095817064
 30
0.0
 40
2.850916752418204
 50
344.7113151150127237
 51
356.0374816226234884
  0
ARC
  5
B8AD
  8
0
 10
4341.3816371336706652
 20
185.8931693464679995
 30
0.0
 40
4.777393921655074
 50
356.0374816226234884
 51
1.369132420552241
  0
LINE
  5
B8AE
  8
0
 10
4346.0478063508871855
 20
186.3573184598820092
 30
0.0
 11
4346.6384067953631529
 21
186.3573184598820092
 31
0.0
  0
LINE
  5
B8AF
  8
0
 10
4346.0478063508871855
 20
186.3770034991819955
 30
0.0
 11
4346.6384067953631529
 21
186.3770034991819955
 31
0.0
  0
LINE
  5
B8B0
  8
0
 10
4345.5470063508873864
 20
186.8830034991885043
 30
0.0
 11
4344.8760515822141315
 21
186.8830034991885043
 31
0.0
  0
LINE
  5
B8B1
  8
0
 10
4344.8366650836096596
 20
186.9234348709578057
 30
0.0
 11
4344.8402289835448755
 21
187.0595347177957137
 31
0.0
  0
LINE
  5
B8B2
  8
0
 10
4344.8521225380218311
 20
187.0867256425883909
 30
0.0
 11
4344.8881538530813486
 21
187.1218257957440869
 31
0.0
  0
LINE
  5
B8B3
  8
0
 10
4344.9156467972079554
 20
187.1330034991819957
 30
0.0
 11
4347.7705663490396546
 21
187.133003499180802
 31
0.0
  0
ARC
  5
B8B4
  8
0
 10
4345.5470063508873864
 20
186.4019034991885064
 30
0.0
 40
0.4811
 50
0.0
 51
90.0
  0
ARC
  5
B8B5
  8
0
 10
4346.0478063508871855
 20
186.3376184598820089
 30
0.0
 40
0.0197
 50
90.0
 51
180.0000000000098055
  0
ARC
  5
B8B6
  8
0
 10
4346.0478063508871855
 20
186.3967034991819958
 30
0.0
 40
0.0197
 50
179.9999999999951115
 51
270.0
  0
LINE
  5
B8B7
  8
0
 10
4346.0675157997866336
 20
186.3770034991819955
 30
0.0
 11
4346.0675157997866336
 21
186.3573184598820092
 31
0.0
  0
ARC
  5
B8B8
  8
0
 10
4344.8760515822141315
 20
186.9224034991885048
 30
0.0
 40
0.0394
 50
178.4999999912890019
 51
270.0
  0
ARC
  5
B8B9
  8
0
 10
4344.8796154821493474
 20
187.0585033460264128
 30
0.0
 40
0.0394
 50
134.2500000184801081
 51
178.4999999912971873
  0
ARC
  5
B8BA
  8
0
 10
4344.9156467972079554
 20
187.0936034991819952
 30
0.0
 40
0.0394
 50
90.0
 51
134.250000018477806
  0
LINE
  5
B8BB
  8
0
 10
4346.0746225380617034
 20
187.0867256426269023
 30
0.0
 11
4346.1106538532212653
 21
187.1218257957820015
 31
0.0
  0
LINE
  5
B8BC
  8
0
 10
4346.0559342307296902
 20
186.800053574759886
 30
0.0
 11
4346.0627289835456395
 21
187.0595347177828955
 31
0.0
  0
LINE
  5
B8BD
  8
0
 10
4346.0985515822567322
 20
186.8830034991819957
 30
0.0
 11
4346.5876615639899683
 21
186.8830034991821094
 31
0.0
  0
ARC
  5
B8BE
  8
0
 10
4346.0985515822567322
 20
186.9224034991819963
 30
0.0
 40
0.0394
 50
178.5000000098787041
 51
270.0
  0
ARC
  5
B8BF
  8
0
 10
4346.1021154821492019
 20
187.0585033460264128
 30
0.0
 40
0.0394
 50
134.2499999382287115
 51
178.5000000098754924
  0
ARC
  5
B8C0
  8
0
 10
4346.1381467973087638
 20
187.093603499181512
 30
0.0
 40
0.0394
 50
89.9999999999478888
 51
134.249999938227603
  0
ARC
  5
B8C1
  8
0
 10
4346.0054309067818394
 20
186.7962383480048061
 30
0.0
 40
0.0506472278117632
 50
317.694705061436423
 51
4.320150746386064
  0
ARC
  5
B8C2
  8
0
 10
4346.016966597470855
 20
186.784463352578598
 30
0.0
 40
0.034203294341663
 50
234.2484713553103006
 51
319.2761970199226766
  0
ARC
  5
B8C3
  8
0
 10
4346.1575911324825938
 20
187.0307946699568902
 30
0.0
 40
0.3176791471896818
 50
225.7846462709406978
 51
239.6309085562344023
  0
ARC
  5
B8C4
  8
0
 10
4345.563033593874934
 20
185.9670216309870909
 30
0.0
 40
0.9155233798913558
 50
65.9558206659484654
 51
89.6668889337031345
  0
LINE
  5
B8C5
  8
0
 10
4347.4954938058936023
 20
184.2024895018151938
 30
0.0
 11
4347.4339329056838324
 21
184.0584080508201055
 31
0.0
  0
ARC
  5
B8C6
  8
0
 10
4348.6741578539031252
 20
185.9962692473280015
 30
0.0
 40
2.114293061049477
 50
225.35013547239339
 51
235.6912460027965039
  0
ARC
  5
B8C7
  8
0
 10
4348.6048235966663924
 20
185.9041969596351009
 30
0.0
 40
2.000124412884531
 50
209.9074780350294986
 51
224.909540839718801
  0
ARC
  5
B8C8
  8
0
 10
4347.4592623701610137
 20
184.2179699108770023
 30
0.0
 40
0.0394
 50
336.8646976299610856
 51
53.9807905890510114
  0
ARC
  5
B8C9
  8
0
 10
4347.3977014699512438
 20
184.0738884598819993
 30
0.0
 40
0.0394
 50
270.0
 51
336.8646976299610856
  0
ARC
  5
B8CA
  8
0
 10
4349.3500505247093315
 20
185.9408304449098921
 30
0.0
 40
2.8729237541933101
 50
198.9407969279928068
 51
208.7730780527307957
  0
ARC
  5
B8CB
  8
0
 10
4348.3897085262578912
 20
185.4440561698781096
 30
0.0
 40
1.79223468814417
 50
209.6303174825789881
 51
221.8807883517528126
  0
LINE
  5
B8CC
  8
0
 10
4347.0248182194718538
 20
184.0638295502581911
 30
0.0
 11
4347.0638189249320931
 21
184.2115300449831921
 31
0.0
  0
ARC
  5
B8CD
  8
0
 10
4346.9867238847609769
 20
184.0738884598819993
 30
0.0
 40
0.0394
 50
270.0
 51
345.2085029198506732
  0
ARC
  5
B8CE
  8
0
 10
4347.0257245902212162
 20
184.2215889546070002
 30
0.0
 40
0.0394
 50
345.2085029198490815
 51
41.2958143326009193
  0
ARC
  5
B8CF
  8
0
 10
4348.2013715177208724
 20
185.6710864918429991
 30
0.0
 40
1.5341705523844049
 50
184.4091554435530043
 51
209.8736430298853008
  0
LINE
  5
B8D0
  8
0
 10
4346.6581067953620732
 20
185.7839771148721013
 30
0.0
 11
4346.6581067953620732
 21
186.3376184598820089
 31
0.0
  0
LINE
  5
B8D1
  8
0
 10
4346.6581067953620732
 20
186.3967034991819958
 30
0.0
 11
4346.6581067953620732
 21
186.4019034991885064
 31
0.0
  0
ARC
  5
B8D2
  8
0
 10
4354.0346307839172368
 20
186.1038609019726096
 30
0.0
 40
7.3834566289079948
 50
182.4830821553414921
 51
184.2775629463218081
  0
ARC
  5
B8D3
  8
0
 10
4349.3827041449321769
 20
185.7600423095817064
 30
0.0
 40
2.850916752418204
 50
183.9625183773763979
 51
195.2886848849873047
  0
ARC
  5
B8D4
  8
0
 10
4351.3045760125769448
 20
185.8931693464679995
 30
0.0
 40
4.777393921655074
 50
178.6308675794460896
 51
183.9625183773763979
  0
LINE
  5
B8D5
  8
0
 10
4347.1392067953620426
 20
186.8830034991885043
 30
0.0
 11
4347.8101615640352975
 21
186.8830034991885043
 31
0.0
  0
LINE
  5
B8D6
  8
0
 10
4347.8495480626388598
 20
186.9234348709578057
 30
0.0
 11
4347.8459841627027345
 21
187.0595347177957137
 31
0.0
  0
LINE
  5
B8D7
  8
0
 10
4347.8340906082257789
 20
187.0867256425883909
 30
0.0
 11
4347.7980592931671708
 21
187.1218257957440869
 31
0.0
  0
ARC
  5
B8D8
  8
0
 10
4347.1392067953620426
 20
186.4019034991885064
 30
0.0
 40
0.4811
 50
90.0
 51
180.0
  0
ARC
  5
B8D9
  8
0
 10
4346.6384067953631529
 20
186.3376184598820089
 30
0.0
 40
0.0197
 50
359.9999999999902229
 51
90.0
  0
ARC
  5
B8DA
  8
0
 10
4346.6384067953631529
 20
186.3967034991819958
 30
0.0
 40
0.0197
 50
270.0
 51
0.0000000000048853
  0
LINE
  5
B8DB
  8
0
 10
4346.6186973464618859
 20
186.3770034991819955
 30
0.0
 11
4346.6186973464618859
 21
186.3573184598820092
 31
0.0
  0
ARC
  5
B8DC
  8
0
 10
4347.8101615640352975
 20
186.9224034991885048
 30
0.0
 40
0.0394
 50
270.0
 51
1.5000000087109571
  0
ARC
  5
B8DD
  8
0
 10
4347.8065976640982626
 20
187.0585033460264128
 30
0.0
 40
0.0394
 50
1.500000008702818
 51
45.7499999815199132
  0
ARC
  5
B8DE
  8
0
 10
4347.7705663490396546
 20
187.0936034991819952
 30
0.0
 40
0.0394
 50
45.7499999815221727
 51
90.0
  0
LINE
  5
B8DF
  8
0
 10
4346.6115906081859066
 20
187.0867256426269023
 30
0.0
 11
4346.5755592930272542
 21
187.1218257957820015
 31
0.0
  0
LINE
  5
B8E0
  8
0
 10
4346.6302789155179198
 20
186.800053574759886
 30
0.0
 11
4346.6234841627037895
 21
187.0595347177828955
 31
0.0
  0
ARC
  5
B8E1
  8
0
 10
4346.5876615639899683
 20
186.9224034991819963
 30
0.0
 40
0.0394
 50
270.0
 51
1.499999990121246
  0
ARC
  5
B8E2
  8
0
 10
4346.5840976640993176
 20
187.0585033460264128
 30
0.0
 40
0.0394
 50
1.499999990124502
 51
45.750000061771253
  0
ARC
  5
B8E3
  8
0
 10
4346.5480663489388462
 20
187.093603499181512
 30
0.0
 40
0.0394
 50
45.750000061772397
 51
90.0000000000521254
  0
ARC
  5
B8E4
  8
0
 10
4346.68078223946668
 20
186.7962383480048061
 30
0.0
 40
0.0506472278117632
 50
175.6798492536138951
 51
222.3052949385647992
  0
ARC
  5
B8E5
  8
0
 10
4346.6692465487785739
 20
186.784463352578598
 30
0.0
 40
0.034203294341663
 50
220.7238029800772949
 51
305.7515286446895857
  0
ARC
  5
B8E6
  8
0
 10
4346.5286220137659257
 20
187.0307946699568902
 30
0.0
 40
0.3176791471896818
 50
300.3690914437656261
 51
314.2153537290593022
  0
ARC
  5
B8E7
  8
0
 10
4347.123179552372676
 20
185.9670216309870909
 30
0.0
 40
0.9155233798913558
 50
90.3331110662968655
 51
114.0441793340515062
  0
LINE
  5
B8E8
  8
0
 10
4347.8340906082257789
 20
187.0867256425883909
 30
0.0
 11
4344.8521225380218311
 21
187.0867256425883909
 31
0.0
  0
LINE
  5
B8E9
  8
0
 10
4346.1576671443162923
 20
186.0073184598819864
 30
0.0
 11
4346.1576671443162923
 21
186.3573184598820092
 31
0.0
  0
LINE
  5
B8EA
  8
0
 10
4346.5285460019331367
 20
186.0073184598819864
 30
0.0
 11
4346.5285460019331367
 21
186.3573184598820092
 31
0.0
  0
LINE
  5
B8EB
  8
0
 10
4355.2717068280599051
 20
184.0344884598819988
 30
0.0
 11
4353.1625170344050275
 21
184.0344884598819988
 31
0.0
  0
LINE
  5
B8EC
  8
0
 10
4355.3694991640031731
 20
184.2024895018151938
 30
0.0
 11
4355.3079382637934032
 21
184.0584080508201055
 31
0.0
  0
ARC
  5
B8ED
  8
0
 10
4356.548163212010877
 20
185.9962692473280015
 30
0.0
 40
2.114293061049477
 50
225.35013547239339
 51
235.6912460027965039
  0
ARC
  5
B8EE
  8
0
 10
4356.4788289547750537
 20
185.9041969596351009
 30
0.0
 40
2.000124412884531
 50
209.9074780350294986
 51
224.909540839718801
  0
ARC
  5
B8EF
  8
0
 10
4355.333267728269675
 20
184.2179699108770023
 30
0.0
 40
0.0394
 50
336.8646976299610856
 51
53.9807905890510114
  0
ARC
  5
B8F0
  8
0
 10
4355.2717068280599051
 20
184.0738884598819993
 30
0.0
 40
0.0394
 50
270.0
 51
336.8646976299610856
  0
ARC
  5
B8F1
  8
0
 10
4357.2240558828170833
 20
185.9408304449098921
 30
0.0
 40
2.8729237541933101
 50
198.9407969279928068
 51
208.7730780527307957
  0
ARC
  5
B8F2
  8
0
 10
4356.263713884365643
 20
185.4440561698781096
 30
0.0
 40
1.79223468814417
 50
209.6303174825789881
 51
221.8807883517528126
  0
LINE
  5
B8F3
  8
0
 10
4354.8988235775814246
 20
184.0638295502581911
 30
0.0
 11
4354.9378242830407544
 21
184.2115300449831921
 31
0.0
  0
ARC
  5
B8F4
  8
0
 10
4354.8607292428687288
 20
184.0738884598819993
 30
0.0
 40
0.0394
 50
270.0
 51
345.2085029198506732
  0
ARC
  5
B8F5
  8
0
 10
4354.8997299483280585
 20
184.2215889546070002
 30
0.0
 40
0.0394
 50
345.2085029198474899
 51
41.2958143326009193
  0
LINE
  5
B8F6
  8
0
 10
4355.3564371526490504
 20
184.2498374142923012
 30
0.0
 11
4353.0777867098158822
 21
184.2498374142923012
 31
0.0
  0
ARC
  5
B8F7
  8
0
 10
4356.0753768758304432
 20
185.6710864918429991
 30
0.0
 40
1.5341705523844049
 50
184.4091554435530043
 51
209.8736430298853008
  0
LINE
  5
B8F8
  8
0
 10
4354.532112153469825
 20
185.7839771148721013
 30
0.0
 11
4354.532112153469825
 21
186.3376184598820089
 31
0.0
  0
LINE
  5
B8F9
  8
0
 10
4354.532112153469825
 20
186.3967034991819958
 30
0.0
 11
4354.532112153469825
 21
186.4019034991885064
 31
0.0
  0
ARC
  5
B8FA
  8
0
 10
4361.9086361420240792
 20
186.1038609019726096
 30
0.0
 40
7.3834566289079948
 50
182.4830821553414921
 51
184.2775629463218081
  0
ARC
  5
B8FB
  8
0
 10
4357.2567095030408382
 20
185.7600423095817064
 30
0.0
 40
2.850916752418204
 50
183.9625183773763979
 51
195.2886848849873047
  0
ARC
  5
B8FC
  8
0
 10
4359.1785813706846966
 20
185.8931693464679995
 30
0.0
 40
4.777393921655074
 50
178.6308675794460896
 51
183.9625183773763979
  0
LINE
  5
B8FD
  8
0
 10
4354.5124121534699952
 20
186.3573184598820092
 30
0.0
 11
4353.9218117089949374
 21
186.3573184598820092
 31
0.0
  0
LINE
  5
B8FE
  8
0
 10
4354.5124121534699952
 20
186.3770034991819955
 30
0.0
 11
4353.9218117089949374
 21
186.3770034991819955
 31
0.0
  0
LINE
  5
B8FF
  8
0
 10
4355.0132121534697944
 20
186.8830034991885043
 30
0.0
 11
4355.6841669221430493
 21
186.8830034991885043
 31
0.0
  0
LINE
  5
B900
  8
0
 10
4355.7235534207466117
 20
186.9234348709578057
 30
0.0
 11
4355.7199895208113958
 21
187.0595347177957137
 31
0.0
  0
LINE
  5
B901
  8
0
 10
4355.7080959663344402
 20
187.0867256425883909
 30
0.0
 11
4355.6720646512749227
 21
187.1218257957440869
 31
0.0
  0
LINE
  5
B902
  8
0
 10
4355.6445717071483159
 20
187.1330034991819957
 30
0.0
 11
4352.7896521553157072
 21
187.133003499180802
 31
0.0
  0
ARC
  5
B903
  8
0
 10
4355.0132121534697944
 20
186.4019034991885064
 30
0.0
 40
0.4811
 50
90.0
 51
180.0
  0
ARC
  5
B904
  8
0
 10
4354.5124121534699952
 20
186.3376184598820089
 30
0.0
 40
0.0197
 50
359.9999999999902229
 51
90.0
  0
ARC
  5
B905
  8
0
 10
4354.5124121534699952
 20
186.3967034991819958
 30
0.0
 40
0.0197
 50
270.0
 51
0.0000000000048853
  0
LINE
  5
B906
  8
0
 10
4354.4927027045705472
 20
186.3770034991819955
 30
0.0
 11
4354.4927027045705472
 21
186.3573184598820092
 31
0.0
  0
ARC
  5
B907
  8
0
 10
4355.6841669221430493
 20
186.9224034991885048
 30
0.0
 40
0.0394
 50
270.0
 51
1.5000000087109571
  0
ARC
  5
B908
  8
0
 10
4355.6806030222069239
 20
187.0585033460264128
 30
0.0
 40
0.0394
 50
1.500000008702818
 51
45.7499999815199132
  0
ARC
  5
B909
  8
0
 10
4355.6445717071483159
 20
187.0936034991819952
 30
0.0
 40
0.0394
 50
45.7499999815221727
 51
90.0
  0
LINE
  5
B90A
  8
0
 10
4354.4855959662936584
 20
187.0867256426269023
 30
0.0
 11
4354.4495646511359155
 21
187.1218257957820015
 31
0.0
  0
LINE
  5
B90B
  8
0
 10
4354.5042842736256716
 20
186.800053574759886
 30
0.0
 11
4354.4974895208106318
 21
187.0595347177828955
 31
0.0
  0
LINE
  5
B90C
  8
0
 10
4354.4616669220986296
 20
186.8830034991819957
 30
0.0
 11
4353.972556940366303
 21
186.8830034991821094
 31
0.0
  0
ARC
  5
B90D
  8
0
 10
4354.4616669220986296
 20
186.9224034991819963
 30
0.0
 40
0.0394
 50
270.0
 51
1.499999990121246
  0
ARC
  5
B90E
  8
0
 10
4354.4581030222079789
 20
187.0585033460264128
 30
0.0
 40
0.0394
 50
1.499999990124502
 51
45.750000061771253
  0
ARC
  5
B90F
  8
0
 10
4354.422071707048417
 20
187.093603499181512
 30
0.0
 40
0.0394
 50
45.750000061772397
 51
90.0000000000521254
  0
ARC
  5
B910
  8
0
 10
4354.5547875975753414
 20
186.7962383480048061
 30
0.0
 40
0.0506472278117632
 50
175.6798492536138951
 51
222.3052949385636055
  0
ARC
  5
B911
  8
0
 10
4354.5432519068863257
 20
186.784463352578598
 30
0.0
 40
0.034203294341663
 50
220.7238029800772949
 51
305.7515286446895857
  0
ARC
  5
B912
  8
0
 10
4354.4026273718736775
 20
187.0307946699568902
 30
0.0
 40
0.3176791471896818
 50
300.3690914437656261
 51
314.2153537290593022
  0
ARC
  5
B913
  8
0
 10
4354.9971849104813373
 20
185.9670216309870909
 30
0.0
 40
0.9155233798913558
 50
90.3331110662968655
 51
114.0441793340515062
  0
LINE
  5
B914
  8
0
 10
4353.0647246984617595
 20
184.2024895018151938
 30
0.0
 11
4353.1262855986724389
 21
184.0584080508201055
 31
0.0
  0
ARC
  5
B915
  8
0
 10
4351.8860606504531461
 20
185.9962692473280015
 30
0.0
 40
2.114293061049477
 50
304.3087539972034961
 51
314.64986452760661
  0
ARC
  5
B916
  8
0
 10
4351.9553949076898789
 20
185.9041969596351009
 30
0.0
 40
2.000124412884531
 50
315.0904591602812275
 51
330.0925219649705014
  0
ARC
  5
B917
  8
0
 10
4353.1009561341952576
 20
184.2179699108770023
 30
0.0
 40
0.0394
 50
126.0192094109490029
 51
203.1353023700388007
  0
ARC
  5
B918
  8
0
 10
4353.1625170344050275
 20
184.0738884598819993
 30
0.0
 40
0.0394
 50
203.1353023700388007
 51
270.0
  0
ARC
  5
B919
  8
0
 10
4351.2101679796469398
 20
185.9408304449098921
 30
0.0
 40
2.8729237541933101
 50
331.226921947269318
 51
341.0592030720071079
  0
ARC
  5
B91A
  8
0
 10
4352.1705099780992896
 20
185.4440561698781096
 30
0.0
 40
1.79223468814417
 50
318.1192116482459937
 51
330.3696825174209835
  0
LINE
  5
B91B
  8
0
 10
4353.535400284885327
 20
184.0638295502581911
 30
0.0
 11
4353.4963995794241782
 21
184.2115300449831921
 31
0.0
  0
ARC
  5
B91C
  8
0
 10
4353.5734946195962038
 20
184.0738884598819993
 30
0.0
 40
0.0394
 50
194.7914970801492984
 51
270.0
  0
ARC
  5
B91D
  8
0
 10
4353.5344939141359646
 20
184.2215889546070002
 30
0.0
 40
0.0394
 50
138.7041856673990878
 51
194.79149708015089
  0
ARC
  5
B91E
  8
0
 10
4352.3588469866353989
 20
185.6710864918429991
 30
0.0
 40
1.5341705523844049
 50
330.1263569701147276
 51
355.5908445564469957
  0
LINE
  5
B91F
  8
0
 10
4353.9021117089951076
 20
185.7839771148721013
 30
0.0
 11
4353.9021117089951076
 21
186.3376184598820089
 31
0.0
  0
LINE
  5
B920
  8
0
 10
4353.9021117089951076
 20
186.3967034991819958
 30
0.0
 11
4353.9021117089951076
 21
186.4019034991885064
 31
0.0
  0
ARC
  5
B921
  8
0
 10
4346.525587720439944
 20
186.1038609019726096
 30
0.0
 40
7.3834566289079948
 50
355.7224370536782203
 51
357.5169178446585079
  0
ARC
  5
B922
  8
0
 10
4351.1775143594240944
 20
185.7600423095817064
 30
0.0
 40
2.850916752418204
 50
344.7113151150127237
 51
356.0374816226234884
  0
ARC
  5
B923
  8
0
 10
4349.255642491780236
 20
185.8931693464679995
 30
0.0
 40
4.777393921655074
 50
356.0374816226234884
 51
1.369132420552241
  0
LINE
  5
B924
  8
0
 10
4353.4210117089951382
 20
186.8830034991885043
 30
0.0
 11
4352.7500569403218833
 21
186.8830034991885043
 31
0.0
  0
LINE
  5
B925
  8
0
 10
4352.7106704417192304
 20
186.9234348709578057
 30
0.0
 11
4352.7142343416526273
 21
187.0595347177957137
 31
0.0
  0
LINE
  5
B926
  8
0
 10
4352.726127896129583
 20
187.0867256425883909
 30
0.0
 11
4352.76215921119001
 21
187.1218257957440869
 31
0.0
  0
ARC
  5
B927
  8
0
 10
4353.4210117089951382
 20
186.4019034991885064
 30
0.0
 40
0.4811
 50
0.0
 51
90.0
  0
ARC
  5
B928
  8
0
 10
4353.9218117089949374
 20
186.3376184598820089
 30
0.0
 40
0.0197
 50
90.0
 51
180.0000000000098055
  0
ARC
  5
B929
  8
0
 10
4353.9218117089949374
 20
186.3967034991819958
 30
0.0
 40
0.0197
 50
179.9999999999951115
 51
270.0
  0
LINE
  5
B92A
  8
0
 10
4353.9415211578952949
 20
186.3770034991819955
 30
0.0
 11
4353.9415211578952949
 21
186.3573184598820092
 31
0.0
  0
ARC
  5
B92B
  8
0
 10
4352.7500569403218833
 20
186.9224034991885048
 30
0.0
 40
0.0394
 50
178.4999999912890019
 51
270.0
  0
ARC
  5
B92C
  8
0
 10
4352.7536208402580087
 20
187.0585033460264128
 30
0.0
 40
0.0394
 50
134.2500000184801081
 51
178.4999999912971873
  0
ARC
  5
B92D
  8
0
 10
4352.7896521553157072
 20
187.0936034991819952
 30
0.0
 40
0.0394
 50
90.0
 51
134.250000018477806
  0
LINE
  5
B92E
  8
0
 10
4353.9486278961703647
 20
187.0867256426269023
 30
0.0
 11
4353.9846592113299266
 21
187.1218257957820015
 31
0.0
  0
LINE
  5
B92F
  8
0
 10
4353.9299395888383515
 20
186.800053574759886
 30
0.0
 11
4353.9367343416543008
 21
187.0595347177828955
 31
0.0
  0
ARC
  5
B930
  8
0
 10
4353.972556940366303
 20
186.9224034991819963
 30
0.0
 40
0.0394
 50
178.5000000098787041
 51
270.0
  0
ARC
  5
B931
  8
0
 10
4353.9761208402578632
 20
187.0585033460264128
 30
0.0
 40
0.0394
 50
134.2499999382287115
 51
178.5000000098754924
  0
ARC
  5
B932
  8
0
 10
4354.0121521554183346
 20
187.093603499181512
 30
0.0
 40
0.0394
 50
89.9999999999478888
 51
134.249999938227603
  0
ARC
  5
B933
  8
0
 10
4353.8794362648895913
 20
186.7962383480048061
 30
0.0
 40
0.0506472278117632
 50
317.6947050614351724
 51
4.320150746386064
  0
ARC
  5
B934
  8
0
 10
4353.8909719555776974
 20
186.784463352578598
 30
0.0
 40
0.034203294341663
 50
234.2484713553103006
 51
319.2761970199226766
  0
ARC
  5
B935
  8
0
 10
4354.0315964905912551
 20
187.0307946699568902
 30
0.0
 40
0.3176791471896818
 50
225.7846462709406978
 51
239.6309085562344023
  0
ARC
  5
B936
  8
0
 10
4353.4370389519826858
 20
185.9670216309870909
 30
0.0
 40
0.9155233798913558
 50
65.9558206659484654
 51
89.6668889337031345
  0
LINE
  5
B937
  8
0
 10
4352.726127896129583
 20
187.0867256425883909
 30
0.0
 11
4355.7080959663344402
 21
187.0867256425883909
 31
0.0
  0
LINE
  5
B938
  8
0
 10
4354.4025513600408885
 20
186.0073184598819864
 30
0.0
 11
4354.4025513600408885
 21
186.3573184598820092
 31
0.0
  0
LINE
  5
B939
  8
0
 10
4354.0316725024240441
 20
186.0073184598819864
 30
0.0
 11
4354.0316725024240441
 21
186.3573184598820092
 31
0.0
  0
ENDSEC
  0
EOF
