  0
SECTION
  2
HEADER
  9
$ACADVER
  1
AC1009
  9
$INSBASE
 10
844.8286790489941041
 20
36.6258929216594211
 30
0.0
  9
$EXTMIN
 10
838.2026972875773936
 20
36.6198006726051375
 30
-0.0015258207003583
  9
$EXTMAX
 10
846.0124791660906567
 20
42.3367995486695889
 30
0.0000000349246037
  9
$LIMMIN
 10
0.0
 20
0.0
  9
$LIMMAX
 10
11.6929133858000007
 20
8.2677165353999982
  9
$ORTHOMODE
 70
     0
  9
$REGENMODE
 70
     1
  9
$FILLMODE
 70
     1
  9
$QTEXTMODE
 70
     0
  9
$MIRRTEXT
 70
     0
  9
$DRAGMODE
 70
     2
  9
$LTSCALE
 40
0.6431102362
  9
$OSMODE
 70
  4095
  9
$ATTMODE
 70
     1
  9
$TEXTSIZE
 40
0.2
  9
$TRACEWID
 40
0.05
  9
$TEXTSTYLE
  7
STANDARD
  9
$CLAYER
  8
0
  9
$CELTYPE
  6
BYLAYER
  9
$CECOLOR
 62
   256
  9
$DIMSCALE
 40
1.0
  9
$DIMASZ
 40
0.1875
  9
$DIMEXO
 40
0.0625
  9
$DIMDLI
 40
0.4443307087
  9
$DIMRND
 40
0.0
  9
$DIMDLE
 40
0.0
  9
$DIMEXE
 40
0.125
  9
$DIMTP
 40
0.01
  9
$DIMTM
 40
0.01
  9
$DIMTXT
 40
1.0
  9
$DIMCEN
 40
0.1052362205
  9
$DIMTSZ
 40
0.0
  9
$DIMTOL
 70
     1
  9
$DIMLIM
 70
     0
  9
$DIMTIH
 70
     0
  9
$DIMTOH
 70
     1
  9
$DIMSE1
 70
     0
  9
$DIMSE2
 70
     0
  9
$DIMTAD
 70
     0
  9
$DIMZIN
 70
     0
  9
$DIMBLK
  1

  9
$DIMASO
 70
     1
  9
$DIMSHO
 70
     1
  9
$DIMPOST
  1
\X
  9
$DIMAPOST
  1

  9
$DIMALT
 70
     1
  9
$DIMALTD
 70
     2
  9
$DIMALTF
 40
25.3999999999999986
  9
$DIMLFAC
 40
1.0
  9
$DIMTOFL
 70
     0
  9
$DIMTVP
 40
0.0
  9
$DIMTIX
 70
     0
  9
$DIMSOXD
 70
     0
  9
$DIMSAH
 70
     0
  9
$DIMBLK1
  1

  9
$DIMBLK2
  1

  9
$DIMSTYLE
  2
STANDARD
  9
$DIMCLRD
 70
     0
  9
$DIMCLRE
 70
     0
  9
$DIMCLRT
 70
     0
  9
$DIMTFAC
 40
1.0
  9
$DIMGAP
 40
0.09
  9
$LUNITS
 70
     2
  9
$LUPREC
 70
     4
  9
$SKETCHINC
 40
0.1
  9
$FILLETRAD
 40
0.0
  9
$AUNITS
 70
     0
  9
$AUPREC
 70
     0
  9
$MENU
  1
.
  9
$ELEVATION
 40
0.0
  9
$PELEVATION
 40
0.0
  9
$THICKNESS
 40
0.0
  9
$LIMCHECK
 70
     0
  9
$BLIPMODE
 70
     0
  9
$CHAMFERA
 40
0.0
  9
$CHAMFERB
 40
0.0
  9
$SKPOLY
 70
     0
  9
$TDCREATE
 40
2458172.5207638889551163
  9
$TDUPDATE
 40
2460161.516145832836628
  9
$TDINDWG
 40
0.2240021296
  9
$TDUSRTIMER
 40
0.2240021296
  9
$USRTIMER
 70
     1
  9
$ANGBASE
 50
0.0
  9
$ANGDIR
 70
     0
  9
$PDMODE
 70
     0
  9
$PDSIZE
 40
0.3125
  9
$PLINEWID
 40
0.0
  9
$COORDS
 70
     1
  9
$SPLFRAME
 70
     0
  9
$SPLINETYPE
 70
     6
  9
$SPLINESEGS
 70
     8
  9
$ATTDIA
 70
     1
  9
$ATTREQ
 70
     1
  9
$HANDLING
 70
     1
  9
$HANDSEED
  5
1077F
  9
$SURFTAB1
 70
     6
  9
$SURFTAB2
 70
     6
  9
$SURFTYPE
 70
     6
  9
$SURFU
 70
     6
  9
$SURFV
 70
     6
  9
$UCSNAME
  2

  9
$UCSORG
 10
0.0
 20
0.0
 30
0.0
  9
$UCSXDIR
 10
1.0
 20
0.0
 30
0.0
  9
$UCSYDIR
 10
0.0
 20
1.0
 30
0.0
  9
$PUCSNAME
  2

  9
$PUCSORG
 10
0.0
 20
0.0
 30
0.0
  9
$PUCSXDIR
 10
1.0
 20
0.0
 30
0.0
  9
$PUCSYDIR
 10
0.0
 20
1.0
 30
0.0
  9
$USERI1
 70
     0
  9
$USERI2
 70
     0
  9
$USERI3
 70
     0
  9
$USERI4
 70
     0
  9
$USERI5
 70
     0
  9
$USERR1
 40
0.0
  9
$USERR2
 40
0.0
  9
$USERR3
 40
0.0
  9
$USERR4
 40
0.0
  9
$USERR5
 40
0.0
  9
$WORLDVIEW
 70
     1
  9
$SHADEDGE
 70
     3
  9
$SHADEDIF
 70
    70
  9
$TILEMODE
 70
     1
  9
$MAXACTVP
 70
    64
  9
$PLIMCHECK
 70
     0
  9
$PEXTMIN
 10
1.0000000000000000E+20
 20
1.0000000000000000E+20
 30
1.0000000000000000E+20
  9
$PEXTMAX
 10
-1.0000000000000000E+20
 20
-1.0000000000000000E+20
 30
-1.0000000000000000E+20
  9
$PLIMMIN
 10
0.0
 20
0.0
  9
$PLIMMAX
 10
12.0
 20
9.0
  9
$UNITMODE
 70
     0
  9
$VISRETAIN
 70
     1
  9
$PLINEGEN
 70
     0
  9
$PSLTSCALE
 70
     1
  0
ENDSEC
  0
SECTION
  2
TABLES
  0
TABLE
  2
VPORT
 70
     1
  0
VPORT
  2
*ACTIVE
 70
     0
 10
0.0
 20
0.0
 11
1.0
 21
1.0
 12
468.2864517522244796
 22
-2.4081480216261042
 13
0.0
 23
0.0
 14
1.0
 24
1.0
 15
0.0
 25
0.0
 16
0.0
 26
0.0
 36
25.5757211105568096
 17
373.821136474609375
 27
41.8864481322634603
 37
0.0
 40
5.7682724085852088
 41
2.8368263473053892
 42
50.0
 43
0.0
 44
0.0
 50
0.0
 51
0.0
 71
     0
 72
   100
 73
     1
 74
     1
 75
     0
 76
     0
 77
     0
 78
     0
  0
ENDTAB
  0
TABLE
  2
LTYPE
 70
     2
  0
LTYPE
  2
CONTINUOUS
 70
     0
  3
Solid line
 72
    65
 73
     0
 40
0.0
  0
LTYPE
  2
PHANTOM2
 70
     0
  3
___ _ _ ___ _ _ ___ _ _ ___ _ _
 72
    65
 73
     6
 40
1.25
 49
0.625
 49
-0.125
 49
0.125
 49
-0.125
 49
0.125
 49
-0.125
  0
ENDTAB
  0
TABLE
  2
LAYER
 70
     2
  0
LAYER
  2
0
 70
     0
 62
   255
  6
CONTINUOUS
  0
LAYER
  2
DEFPOINTS
 70
     0
 62
     7
  6
CONTINUOUS
  0
ENDTAB
  0
TABLE
  2
STYLE
 70
     1
  0
STYLE
  2
STANDARD
 70
     0
 40
0.0
 41
0.8
 50
0.0
 71
     0
 42
0.2
  3
txt
  4

  0
ENDTAB
  0
TABLE
  2
VIEW
 70
     0
  0
ENDTAB
  0
TABLE
  2
UCS
 70
     0
  0
ENDTAB
  0
TABLE
  2
APPID
 70
    10
  0
APPID
  2
ACAD
 70
     0
  0
APPID
  2
ACAD_MLEADERVER
 70
     0
  0
APPID
  2
ACAD_EXEMPT_FROM_CAD_STANDARDS
 70
     0
  0
APPID
  2
ACAD_DSTYLE_DIMJAG
 70
     0
  0
APPID
  2
ACAD_DSTYLE_DIMTALN
 70
     0
  0
APPID
  2
ACAD_NAV_VCDISPLAY
 70
     0
  0
APPID
  2
ACAECLAYERSTANDARD
 70
     0
  0
APPID
  2
ACCMTRANSPARENCY
 70
     0
  0
APPID
  2
DCO15
 70
     0
  0
APPID
  2
ACDBATTR
 70
     0
  0
ENDTAB
  0
TABLE
  2
DIMSTYLE
 70
     1
  0
DIMSTYLE
  2
STANDARD
 70
     0
  3

  4

  5

  6

  7

 40
1.0
 41
0.1875
 42
0.0625
 43
0.38
 44
0.125
 45
0.0
 46
0.0
 47
0.01
 48
0.01
140
0.15625
141
0.09
142
0.0
143
25.3999999999999986
144
1.0
145
0.0
146
1.0
147
0.09
 71
     1
 72
     0
 73
     1
 74
     1
 75
     0
 76
     0
 77
     0
 78
     4
170
     0
171
     2
172
     0
173
     0
174
     0
175
     0
176
     0
177
     0
178
     0
  0
ENDTAB
  0
ENDSEC
  0
SECTION
  2
BLOCKS
  0
BLOCK
  8
0
  2
$MODEL_SPACE
 70
     0
 10
0.0
 20
0.0
 30
0.0
  3
$MODEL_SPACE
  1

  0
ENDBLK
  5
21
  8
0
  0
BLOCK
 67
     1
  8
0
  2
$PAPER_SPACE
 70
     0
 10
0.0
 20
0.0
 30
0.0
  3
$PAPER_SPACE
  1

  0
ENDBLK
  5
1D
 67
     1
  8
0
  0
BLOCK
  8
0
  2
_FILLED
 70
     0
 10
0.0
 20
0.0
 30
0.0
  3
_FILLED
  1

  0
SOLID
  5
B17D
  8
0
  6
BYBLOCK
 62
     0
 10
0.0
 20
0.0
 30
0.0
 11
-1.0
 21
0.1666666667
 31
0.0
 12
-1.0
 22
-0.1666666667
 32
0.0
 13
-1.0
 23
-0.1666666667
 33
0.0
  0
ENDBLK
  5
B17E
  8
0
  6
BYBLOCK
 62
     0
  0
ENDSEC
  0
SECTION
  2
ENTITIES
  0
ATTDEF
  5
829
  8
DEFPOINTS
 10
844.8181953388656211
 20
36.6242477894571223
 30
0.0
 40
0.001
  1
K-EX27101T-4
  3

  2
MODELNUMBER
 70
     0
1001
ACDBATTR
1070
     0
1070
     1
  0
ATTDEF
  5
82A
  8
DEFPOINTS
 10
844.8181953388656211
 20
36.6225811227904501
 30
0.0
 40
0.001
  1
OCCASION
  3

  2
TRADENAME
 70
     0
1001
ACDBATTR
1070
     0
1070
     1
  0
ATTDEF
  5
82B
  8
DEFPOINTS
 10
844.8181953388656211
 20
36.620914456123792
 30
0.0
 40
0.001
  1
BATHROOM SINK FAUCET
  3

  2
PRODUCT
 70
     0
1001
ACDBATTR
1070
     0
1070
     1
  0
LINE
  5
101BD
  8
0
 10
843.7776846501518548
 20
36.6258929216594211
 30
0.0
 11
845.8796734478364669
 21
36.6258929216594211
 31
0.0
  0
LINE
  5
101BE
  8
0
 10
843.741416755122259
 20
36.6498981241569197
 30
0.0
 11
843.6797616214598747
 21
36.7951486164313124
 31
0.0
  0
ARC
  5
101BF
  8
0
 10
842.6638533919658585
 20
38.1352670722289417
 30
0.0
 40
1.652335017035037
 50
308.4587402588865075
 51
320.5172790163221066
  0
ARC
  5
101C0
  8
0
 10
842.8279769529799523
 20
38.0000571579639086
 30
0.0
 40
1.439689151344544
 50
320.5172790163214813
 51
335.4599571830727882
  0
ARC
  5
101C1
  8
0
 10
842.6599539768094473
 20
38.076771500816541
 30
0.0
 40
1.624396516980978
 50
335.4599571830727882
 51
347.9134581039185719
  0
ARC
  5
101C2
  8
0
 10
842.1370802941773945
 20
38.1887374506080803
 30
0.0
 40
2.1591237950418449
 50
347.9134581039185719
 51
357.3616380316877894
  0
ARC
  5
101C3
  8
0
 10
832.2689903004192047
 20
38.6434657286974712
 30
0.0
 40
12.0376853265504309
 50
357.3616380316877894
 51
359.5747617346971765
  0
ARC
  5
101C4
  8
0
 10
767.0989956257161566
 20
38.9519740018884306
 30
0.0
 40
77.2083735145897947
 50
359.7047579262082877
 51
0.0358196091646662
  0
LINE
  5
101C5
  8
0
 10
844.3073540523355405
 20
39.0002423666244411
 30
0.0
 11
844.3073540523355405
 21
40.8609322470094014
 31
0.0
  0
ARC
  5
101C6
  8
0
 10
843.7776846501518548
 20
36.6652929216593932
 30
0.0
 40
0.0394
 50
202.9999858450599959
 51
270.0
  0
ARC
  5
101C7
  8
0
 10
843.7160295164884474
 20
36.8105434139338001
 30
0.0
 40
0.0394
 50
128.4587402588281009
 51
202.9999858450763099
  0
LINE
  5
101C8
  8
0
 10
844.3563703968355867
 20
38.372976402214789
 30
0.0
 11
844.3563703968355867
 21
40.8608485938094077
 31
0.0
  0
ARC
  5
101C9
  8
0
 10
842.7624541718405453
 20
38.045186071222389
 30
0.0
 40
1.587561099345983
 50
310.6371477713037166
 51
319.7743996609527244
  0
ARC
  5
101CA
  8
0
 10
842.8695472158360644
 20
37.9546033795279527
 30
0.0
 40
1.4472965489177461
 50
319.7743996609527244
 51
328.9291118656843764
  0
ARC
  5
101CB
  8
0
 10
842.832010296045155
 20
37.9772210923648572
 30
0.0
 40
1.491120985951867
 50
328.9291118656843764
 51
339.5400888512202187
  0
ARC
  5
101CC
  8
0
 10
842.6077797515481507
 20
38.0608786825482923
 30
0.0
 40
1.7304490651255851
 50
339.5400888512202187
 51
352.0606713327475745
  0
ARC
  5
101CD
  8
0
 10
841.2856335031264052
 20
38.2452667387440783
 30
0.0
 40
3.0653908831395169
 50
352.0606713327475745
 51
358.9873968124729231
  0
ARC
  5
101CE
  8
0
 10
850.6945824665543796
 20
38.0789626257238467
 30
0.0
 40
6.3450276864250323
 50
177.3440962513238901
 51
178.9873968124728094
  0
LINE
  5
101CF
  8
0
 10
843.8378071882308404
 20
36.6518347829564917
 30
0.0
 11
843.785008958573485
 21
36.7971097750213687
 31
0.0
  0
ARC
  5
101D0
  8
0
 10
843.8748374259101865
 20
36.6652929216593932
 30
0.0
 40
0.0394
 50
199.9729901721264866
 51
270.0
  0
ARC
  5
101D1
  8
0
 10
843.8220391962540816
 20
36.8105679137242703
 30
0.0
 40
0.0394
 50
130.6371477713016134
 51
199.9729901721435965
  0
LINE
  5
101D2
  8
0
 10
845.9156196806125081
 20
36.6491613269082279
 30
0.0
 11
845.9798270595000531
 21
36.7922354260910822
 31
0.0
  0
ARC
  5
101D3
  8
0
 10
847.1897144954645
 20
38.5589779874246688
 30
0.0
 40
2.1092601142310738
 50
227.3849067133288031
 51
234.5621964215658863
  0
ARC
  5
101D4
  8
0
 10
846.7360844818739452
 20
38.0659198013323206
 30
0.0
 40
1.439270141094589
 50
211.9412337930866101
 51
227.3849067133288031
  0
ARC
  5
101D5
  8
0
 10
846.716263657536615
 20
38.0535626249731607
 30
0.0
 40
1.415912810661017
 50
199.0242752709102945
 51
211.9412337930866101
  0
ARC
  5
101D6
  8
0
 10
897.7307007442303757
 20
38.8634187726094069
 30
0.0
 40
52.4558478886578428
 50
179.881880888617701
 51
180.5809729910492933
  0
LINE
  5
101D7
  8
0
 10
845.2749643257875505
 20
38.9715599621203026
 30
0.0
 11
845.2749643257875505
 21
40.8624801500093895
 31
0.0
  0
ARC
  5
101D8
  8
0
 10
845.8796734478364669
 20
36.6652929216594217
 30
0.0
 40
0.0394
 50
270.0
 51
335.8308825956377177
  0
ARC
  5
101D9
  8
0
 10
845.9438808267242393
 20
36.8083670208422404
 30
0.0
 40
0.0394
 50
335.8308825956794976
 51
54.5621964215666111
  0
LINE
  5
101DA
  8
0
 10
844.9350545212973884
 20
40.8609343917093994
 30
0.0
 11
844.9350545212973884
 21
40.1034652208805866
 31
0.0
  0
LINE
  5
101DB
  8
0
 10
845.1552734293644562
 20
36.811348965996018
 30
0.0
 11
845.1342458182953123
 21
36.6598753542130567
 31
0.0
  0
ARC
  5
101DC
  8
0
 10
851.835539367225465
 20
39.4058370802554023
 30
0.0
 40
7.1614777440755519
 50
197.1743433525882097
 51
201.0597864462170037
  0
ARC
  5
101DD
  8
0
 10
848.0707144334409122
 20
38.105021319561871
 30
0.0
 40
3.1831209007038761
 50
187.7798620709361046
 51
194.8132648786244943
  0
ARC
  5
101DE
  8
0
 10
845.1162476691151824
 20
36.8167665334423475
 30
0.0
 40
0.0394
 50
352.0966932450778017
 51
23.4059792869405783
  0
ARC
  5
101DF
  8
0
 10
845.0952200580468343
 20
36.6652929216594217
 30
0.0
 40
0.0394
 50
270.0
 51
352.0966932450087938
  0
LINE
  5
101E0
  8
0
 10
843.6913320586744476
 20
36.8412418760697165
 30
0.0
 11
845.9656389744150147
 21
36.8412418760697165
 31
0.0
  0
LINE
  5
101E1
  8
0
 10
843.8031643257871792
 20
42.3342801500093913
 30
0.0
 11
839.7590848330390827
 21
42.3342801500093913
 31
0.0
  0
LINE
  5
101E2
  8
0
 10
843.8016540523358344
 20
41.3666322470093917
 30
0.0
 11
839.7602821047239559
 21
41.3666322470093917
 31
0.0
  0
LINE
  5
101E3
  8
0
 10
839.2792377188014825
 20
41.0171330428248098
 30
0.0
 11
839.1519340306823551
 21
40.6253325778464998
 31
0.0
  0
LINE
  5
101E4
  8
0
 10
838.2820336156147505
 20
40.8287824789827596
 30
0.0
 11
839.0570231378577546
 21
40.5769731188927665
 31
0.0
  0
LINE
  5
101E5
  8
0
 10
839.1323495949219478
 20
40.6024021726908018
 30
0.0
 11
839.087085598412159
 21
40.5793390708968502
 31
0.0
  0
LINE
  5
101E6
  8
0
 10
838.2345655925646497
 20
40.8939613270197171
 30
0.0
 11
838.2595105969375027
 21
40.8475889298001391
 31
0.0
  0
LINE
  5
101E7
  8
0
 10
838.3593198523421961
 20
41.3172913622863121
 30
0.0
 11
838.2317922540751169
 21
40.9248017725224074
 31
0.0
  0
LINE
  5
101E8
  8
0
 10
843.8016545212966548
 20
41.9943343917094012
 30
0.0
 11
839.7602078953632372
 21
41.9943343917094012
 31
0.0
  0
ARC
  5
101E9
  8
0
 10
843.8016545212966548
 20
40.8609343917093994
 30
0.0
 40
1.1333999999999991
 50
0.0
 51
90.0
  0
ARC
  5
101EA
  8
0
 10
843.8031643257871792
 20
40.8624801500093895
 30
0.0
 40
1.4717999999999991
 50
0.0
 51
90.0
  0
ARC
  5
101EB
  8
0
 10
843.8016540523358344
 20
40.8609322470094014
 30
0.0
 40
0.5057000000000001
 50
0.0
 51
90.0
  0
LINE
  5
101EC
  8
0
 10
843.8015703968357002
 20
41.4156485938094079
 30
0.0
 11
839.7602702295589552
 21
41.4156485938094079
 31
0.0
  0
ARC
  5
101ED
  8
0
 10
843.8015703968357002
 20
40.8608485938094077
 30
0.0
 40
0.5548
 50
0.0
 51
90.0
  0
LINE
  5
101EE
  8
0
 10
839.2326240737156695
 20
41.0322912204352903
 30
0.0
 11
839.10471074740326
 21
40.6386144771514566
 31
0.0
  0
LINE
  5
101EF
  8
0
 10
839.0879549207847958
 20
40.6172753374066531
 30
0.0
 11
839.0500895657105502
 21
40.5938701469862622
 31
0.0
  0
ARC
  5
101F0
  8
0
 10
839.7602702295589552
 20
40.8608485938094077
 30
0.0
 40
0.5548
 50
90.0
 51
162.0000002012432958
  0
ARC
  5
101F1
  8
0
 10
839.7602821047239559
 20
40.860832247009391
 30
0.0
 40
0.5058
 50
90.0
 51
161.9999999927887018
  0
ARC
  5
101F2
  8
0
 10
839.7590848330390827
 20
40.8624801500093895
 30
0.0
 40
1.4717999999999991
 50
90.0
 51
162.0000000017942909
  0
LINE
  5
101F3
  8
0
 10
838.6822804397241953
 20
41.2111742529196974
 30
0.0
 11
838.5517390037922496
 21
40.809409024358331
 31
0.0
  0
ARC
  5
101F4
  8
0
 10
839.7602078953632372
 20
40.8609343917093994
 30
0.0
 40
1.1333999999999991
 50
90.0
 51
162.0000000113811041
  0
ARC
  5
101F5
  8
0
 10
839.1144624039416158
 20
40.637507847429589
 30
0.0
 40
0.0394
 50
296.9999433494119216
 51
341.9999999927875933
  0
ARC
  5
101F6
  8
0
 10
839.0672391206179555
 20
40.6507897465982282
 30
0.0
 40
0.0394
 50
301.7208838608548263
 51
342.0000002012375262
  0
ARC
  5
101F7
  8
0
 10
838.2692638808175616
 20
40.9126265029452085
 30
0.0
 40
0.0394
 50
162.0000000017942909
 51
208.2770458659796873
  0
ARC
  5
101F8
  8
0
 10
838.2942088851905282
 20
40.8662541057256519
 30
0.0
 40
0.0394
 50
208.2770458659776125
 51
252.0000000040899124
  0
ARC
  5
101F9
  8
0
 10
839.0293737655438235
 20
40.6273845561778231
 30
0.0
 40
0.0394
 50
252.0000000040899124
 51
301.7208838608548263
  0
ARC
  5
101FA
  8
0
 10
839.0691984074328502
 20
40.6144447456356588
 30
0.0
 40
0.0394
 50
252.0000000040899124
 51
296.9999433494119216
  0
LINE
  5
101FB
  8
0
 10
838.5498106557924984
 20
40.797278366569202
 30
0.0
 11
838.5497802861800665
 21
40.7704567077300624
 31
0.0
  0
ARC
  5
101FC
  8
0
 10
838.5892106305363995
 20
40.7972337547873778
 30
0.0
 40
0.0394
 50
162.0000000113714975
 51
179.9351251938938958
  0
ARC
  5
101FD
  8
0
 10
838.5891802609230581
 20
40.7704120959482381
 30
0.0
 40
0.0394
 50
179.9351251938923042
 51
252.0000000040899124
  0
LINE
  5
101FE
  8
0
 10
839.1323495949219478
 20
40.6024021726908018
 30
0.0
 11
838.2345655925646497
 21
40.8939613270197171
 31
0.0
  0
LINE
  5
101FF
  8
0
 10
845.308075493246065
 20
38.4828667809787035
 30
0.0
 11
845.2324143455680314
 21
38.1077692359152991
 31
0.0
  0
ARC
  5
10200
  8
0
 10
845.5480684375261262
 20
38.8847116332913174
 30
0.0
 40
0.8618173740646543
 50
253.2740497029402036
 51
258.7089667407125262
  0
ARC
  5
10201
  8
0
 10
845.3949431166464592
 20
38.3751569630728397
 30
0.0
 40
0.3297522221932728
 50
245.3580531934750866
 51
253.2740497029402036
  0
ARC
  5
10202
  8
0
 10
845.2854774700125517
 20
38.1365249834529507
 30
0.0
 40
0.0672108930843234
 50
229.2869801383635036
 51
245.3580531934750866
  0
ARC
  5
10203
  8
0
 10
845.2596358560012959
 20
38.1064951413112283
 30
0.0
 40
0.0275929623740013
 50
198.3019605915991121
 51
229.2869801383635036
  0
ARC
  5
10204
  8
0
 10
845.2554959195194897
 20
38.1051258310644982
 30
0.0
 40
0.0232324481121649
 50
173.4666957000291063
 51
198.3019605915991121
  0
ARC
  5
10205
  8
0
 10
845.3544618480027566
 20
37.9172660944058677
 30
0.0
 40
0.6248017233517004
 50
78.5780450860545869
 51
81.7839367289272872
  0
ARC
  5
10206
  8
0
 10
845.3861858723112164
 20
38.1369792164521471
 30
0.0
 40
0.402810125047497
 50
81.7839367289272872
 51
86.8120348841519842
  0
ARC
  5
10207
  8
0
 10
845.4015154033904764
 20
38.4122052085918995
 30
0.0
 40
0.1271575515561105
 50
86.8120348841519842
 51
95.3202601807773391
  0
ARC
  5
10208
  8
0
 10
845.393382911488402
 20
38.4995350527251787
 30
0.0
 40
0.0394498603261705
 50
95.3202601807773391
 51
124.5228721561974936
  0
LINE
  5
10209
  8
0
 10
845.3178209858688206
 20
38.497455610347572
 30
0.0
 11
845.3710252878589699
 21
38.5320377933084615
 31
0.0
  0
ARC
  5
1020A
  8
0
 10
845.3313958609159044
 20
38.4778379890983402
 30
0.0
 40
0.0238564099567117
 50
124.6822095818912999
 51
167.8311039426309037
  0
LINE
  5
1020B
  8
0
 10
845.6168564119487883
 20
38.420582399228671
 30
0.0
 11
845.5411952642707547
 21
38.0454848541653021
 31
0.0
  0
ARC
  5
1020C
  8
0
 10
845.5514039022436918
 20
38.884038834730319
 30
0.0
 40
0.8618173740646541
 50
258.4827503238510076
 51
263.9176673616199764
  0
ARC
  5
1020D
  8
0
 10
845.4950276309554056
 20
38.3549688564934286
 30
0.0
 40
0.3297522221932727
 50
263.9176673616199764
 51
271.833663871114311
  0
ARC
  5
1020E
  8
0
 10
845.5034284307921553
 20
38.0925619662401402
 30
0.0
 40
0.0672108930843234
 50
271.833663871114311
 51
287.9047369262119105
  0
ARC
  5
1020F
  8
0
 10
845.515608380800586
 20
38.0548627719309422
 30
0.0
 40
0.0275929623740013
 50
287.9047369262119105
 51
318.889756472977524
  0
ARC
  5
10210
  8
0
 10
845.5188937921857359
 20
38.0519956903738716
 30
0.0
 40
0.0232324481121649
 50
318.889756472977524
 51
343.7250213645630197
  0
ARC
  5
10211
  8
0
 10
845.3548426834977363
 20
37.917189275852877
 30
0.0
 40
0.6248017233517001
 50
75.4077803356341718
 51
78.6136719781849393
  0
ARC
  5
10212
  8
0
 10
845.4107707913134391
 20
38.1320201778986174
 30
0.0
 40
0.402810125047497
 50
70.3796821804234298
 51
75.4077803356341718
  0
ARC
  5
10213
  8
0
 10
845.5033309600447637
 20
38.3916679324371728
 30
0.0
 40
0.1271575515561105
 50
61.8714568837703567
 51
70.3796821804234298
  0
ARC
  5
10214
  8
0
 10
845.5446808627348219
 20
38.4690166534891773
 30
0.0
 40
0.0394498603261705
 50
32.6688449083950232
 51
61.8714568837703567
  0
LINE
  5
10215
  8
0
 10
845.6135282903960615
 20
38.4378083150458565
 30
0.0
 11
845.5778899294474513
 21
38.4903110040970091
 31
0.0
  0
ARC
  5
10216
  8
0
 10
845.593410125573314
 20
38.4249869367976089
 30
0.0
 40
0.0238564099567117
 50
349.3606131219376039
 51
32.5095074827065602
  0
LINE
  5
10217
  8
0
 10
845.3506051666081476
 20
37.4577573915098583
 30
0.0
 11
845.4653378578112779
 21
38.0265559374235309
 31
0.0
  0
LINE
  5
10218
  8
0
 10
845.2197198422372821
 20
37.70488508974762
 30
0.0
 11
845.2917473034758586
 21
38.0619682784347617
 31
0.0
  0
ARC
  5
10219
  8
0
 10
845.3776526564388405
 20
38.5314428524126029
 30
0.0
 40
0.0050592429227345
 50
158.698776249832207
 51
247.3777443898077024
  0
ARC
  5
1021A
  8
0
 10
845.4859570109191509
 20
38.7396190300354704
 30
0.0
 40
0.2397053275902135
 50
242.6166716190103045
 51
254.5827736609695933
  0
ARC
  5
1021B
  8
0
 10
845.6089624518525625
 20
39.1856636153370914
 30
0.0
 40
0.7023997305995452
 50
254.5827736609695933
 51
264.3123648267663839
  0
ARC
  5
1021C
  8
0
 10
845.5539125977676349
 20
38.6329282495719326
 30
0.0
 40
0.1469297755143666
 50
264.3123648267663839
 51
275.916376094800512
  0
ARC
  5
1021D
  8
0
 10
845.5674342403309538
 20
38.5024467685136074
 30
0.0
 40
0.0157495494252366
 50
275.916376094800512
 51
302.0337867153917273
  0
ARC
  5
1021E
  8
0
 10
845.5743530254802636
 20
38.4912058647696611
 30
0.0
 40
0.002552227299693
 50
304.2139692493370262
 51
16.1427003165281988
  0
ARC
  5
1021F
  8
0
 10
845.322182419728847
 20
38.4879792351668968
 30
0.0
 40
0.0156862473148188
 50
203.7984025961683017
 51
240.2550967919148945
  0
ARC
  5
10220
  8
0
 10
845.4669882896731679
 20
38.7643039205307787
 30
0.0
 40
0.3276443885114784
 50
242.243588060705008
 51
256.0672167044759817
  0
ARC
  5
10221
  8
0
 10
845.6506103875743747
 20
39.3919788452338722
 30
0.0
 40
0.981439399518339
 50
254.4857526171774111
 51
264.9232309539107746
  0
ARC
  5
10222
  8
0
 10
845.5821774088753955
 20
38.6059581076420102
 30
0.0
 40
0.1924515618864061
 50
264.5091644244917006
 51
277.6986610086349856
  0
ARC
  5
10223
  8
0
 10
845.6045569509959705
 20
38.4329825857322191
 30
0.0
 40
0.0180645488349319
 50
280.8545498352693812
 51
312.0275879020895786
  0
ARC
  5
10224
  8
0
 10
842.5402487111314258
 20
38.3333915448743028
 30
0.0
 40
1.9118841949110119
 50
330.3000395303782852
 51
354.3369611117217914
  0
LINE
  5
10225
  8
0
 10
844.4564364057467856
 20
38.3755660915587669
 30
0.0
 11
844.4564364057467856
 21
38.9290229216594028
 31
0.0
  0
LINE
  5
10226
  8
0
 10
844.4564364057467856
 20
38.988107960959411
 30
0.0
 11
844.4564364057467856
 21
39.8443574492334918
 31
0.0
  0
ARC
  5
10227
  8
0
 10
837.0799124171925314
 20
38.6954498786593106
 30
0.0
 40
7.3834566289079948
 50
355.7224370536782203
 51
357.51691784465811
  0
LINE
  5
10228
  8
0
 10
844.4761364057466153
 20
38.9487229216594031
 30
0.0
 11
845.0667368502217869
 21
38.9487229216594031
 31
0.0
  0
LINE
  5
10229
  8
0
 10
844.4761364057466153
 20
38.9684079609594107
 30
0.0
 11
845.0667368502217869
 21
38.9684079609594107
 31
0.0
  0
ARC
  5
1022A
  8
0
 10
844.4761364057466153
 20
38.9290229216594028
 30
0.0
 40
0.0197
 50
90.0
 51
180.0
  0
ARC
  5
1022B
  8
0
 10
844.4761364057466153
 20
38.988107960959411
 30
0.0
 40
0.0197
 50
179.9999999999951115
 51
270.0
  0
LINE
  5
1022C
  8
0
 10
844.4958458546470865
 20
38.9684079609594107
 30
0.0
 11
844.4958458546470865
 21
38.9487229216594031
 31
0.0
  0
ARC
  5
1022D
  8
0
 10
846.7508388862361244
 20
38.3575819755616578
 30
0.0
 40
1.6644334626671591
 50
187.3472157119325914
 51
214.7714874044910971
  0
LINE
  5
1022E
  8
0
 10
845.0864368502216166
 20
38.3755660915587669
 30
0.0
 11
845.0864368502216166
 21
38.9290229216594028
 31
0.0
  0
LINE
  5
1022F
  8
0
 10
845.0864368502216166
 20
38.988107960959411
 30
0.0
 11
845.0864368502216166
 21
39.8679535514039927
 31
0.0
  0
ARC
  5
10230
  8
0
 10
852.4629608387757571
 20
38.6954498786593106
 30
0.0
 40
7.3834566289079948
 50
182.4830821553416058
 51
184.2775629463218081
  0
ARC
  5
10231
  8
0
 10
845.0667368502217869
 20
38.9290229216594028
 30
0.0
 40
0.0197
 50
0.0
 51
90.0
  0
ARC
  5
10232
  8
0
 10
845.0667368502217869
 20
38.988107960959411
 30
0.0
 40
0.0197
 50
270.0
 51
0.0000000000048853
  0
LINE
  5
10233
  8
0
 10
845.0470274013223388
 20
38.9684079609594107
 30
0.0
 11
845.0470274013223388
 21
38.9487229216594031
 31
0.0
  0
ARC
  5
10234
  8
0
 10
847.0264744621581485
 20
38.5215398453203193
 30
0.0
 40
1.984483359400367
 50
214.1213973667674964
 51
236.3434143720272971
  0
ARC
  5
10235
  8
0
 10
852.1390322074048527
 20
38.5105068703599613
 30
0.0
 40
7.2704074931306444
 50
179.3033259601070029
 51
186.6058408859221061
  0
ARC
  5
10236
  8
0
 10
844.8004239607389536
 20
40.5550138536017002
 30
0.0
 40
0.9977411099934907
 50
258.0372894377110811
 51
268.2777882919863259
  0
ARC
  5
10237
  8
0
 10
844.7498026810170586
 20
40.4782204621247104
 30
0.0
 40
0.9207282936766493
 50
271.284224683710022
 51
282.575653352137806
  0
ARC
  5
10238
  8
0
 10
844.9377986491889487
 20
39.6164992728256493
 30
0.0
 40
0.0389683103898893
 50
288.6675604334541845
 51
328.1262826530625034
  0
ARC
  5
10239
  8
0
 10
844.5408859374091435
 20
39.9212765834860193
 30
0.0
 40
0.53922162876385
 50
322.8877840567500925
 51
1.1696972083583539
  0
ARC
  5
1023A
  8
0
 10
845.0381793586783488
 20
39.9317591851014413
 30
0.0
 40
0.0418191384157096
 50
0.7191487644482361
 51
46.1516053014753282
  0
ARC
  5
1023B
  8
0
 10
844.5022532138708584
 20
39.4747255118691669
 30
0.0
 40
0.7459655789950547
 50
40.7759905167095766
 51
67.6142416246957225
  0
ARC
  5
1023C
  8
0
 10
844.759061187567454
 20
40.0661568535685433
 30
0.0
 40
0.1020348623008606
 50
74.4893116322921145
 51
83.056631488437958
  0
ARC
  5
1023D
  8
0
 10
844.7842546060154518
 20
40.0639823361985421
 30
0.0
 40
0.1042570687166955
 50
97.0846460665370756
 51
105.4106597285963005
  0
ARC
  5
1023E
  8
0
 10
845.0407925023254165
 20
39.4745039501844133
 30
0.0
 40
0.7462412235859376
 50
112.3893934170286002
 51
139.219241935154912
  0
ARC
  5
1023F
  8
0
 10
844.5046502698005497
 20
39.932191599546087
 30
0.0
 40
0.0414788810963201
 50
134.2092109803284927
 51
190.072553396582606
  0
ARC
  5
10240
  8
0
 10
845.0205348581212093
 20
39.9224772394943273
 30
0.0
 40
0.5567295930448573
 50
179.7468380360533047
 51
216.2200779267654127
  0
ARC
  5
10241
  8
0
 10
844.6011922869638511
 20
39.6147317358676787
 30
0.0
 40
0.0365836207802419
 50
215.4525825256384906
 51
258.0496347726930253
  0
ARC
  5
10242
  8
0
 10
845.0422309237975469
 20
39.4726871890453594
 30
0.0
 40
0.7010073538333454
 50
114.0568622197196049
 51
137.9350476554814975
  0
ARC
  5
10243
  8
0
 10
844.5491034224652367
 20
39.9177144626705527
 30
0.0
 40
0.0367604066515583
 50
137.9350476554814975
 51
186.0825518311567919
  0
ARC
  5
10244
  8
0
 10
845.2108560454071267
 20
39.9882315994325097
 30
0.0
 40
0.7022596181824344
 50
186.0825518311567919
 51
209.9156614204717073
  0
ARC
  5
10245
  8
0
 10
844.6340246750895631
 20
39.6563290088621727
 30
0.0
 40
0.0367569815157962
 50
209.9156614204717073
 51
258.0801180364259153
  0
ARC
  5
10246
  8
0
 10
844.7714348635145143
 20
40.3072675263457825
 30
0.0
 40
0.7020407656462372
 50
258.0801180364259153
 51
281.9201258399943981
  0
ARC
  5
10247
  8
0
 10
844.9088480173177231
 20
39.6563286714680601
 30
0.0
 40
0.0367560389107581
 50
281.9201258399943981
 51
330.0789945539169139
  0
ARC
  5
10248
  8
0
 10
844.3322279499752767
 20
39.9881812719577567
 30
0.0
 40
0.7020505981204465
 50
330.0789945539169139
 51
353.916936620399099
  0
ARC
  5
10249
  8
0
 10
844.9937613284135978
 20
39.9176815247687671
 30
0.0
 40
0.0367712393973646
 50
353.9169366204006906
 51
42.096205016858093
  0
ARC
  5
1024A
  8
0
 10
844.4993929881992472
 20
39.4710449259075133
 30
0.0
 40
0.7030176707191226
 50
42.096205016858093
 51
65.901698634076908
  0
ARC
  5
1024B
  8
0
 10
844.7714278053281305
 20
40.0571196178917077
 30
0.0
 40
0.0576602467420178
 50
74.9113908691812327
 51
105.0350878075345946
  0
ARC
  5
1024C
  8
0
 10
846.9587630776248943
 20
40.0223411493246317
 30
0.0
 40
1.878680662649898
 50
182.6490086000364954
 51
184.7138104595256038
  0
ARC
  5
1024D
  8
0
 10
845.0414569411486809
 20
39.9336333514419906
 30
0.0
 40
0.0406764938943963
 50
2.6490086000365372
 51
31.6836404385107997
  0
ARC
  5
1024E
  8
0
 10
844.6977995213736676
 20
39.7369134248857279
 30
0.0
 40
0.4366350353962811
 50
29.9646822690599386
 51
78.2995174743779785
  0
ARC
  5
1024F
  8
0
 10
844.8612162345662
 20
39.7149368127728408
 30
0.0
 40
0.4615777062889671
 50
103.1062755903845982
 51
148.5761873778010056
  0
ARC
  5
10250
  8
0
 10
844.5050460609835454
 20
39.9321695260011325
 30
0.0
 40
0.0443893029026548
 50
148.1601431449342101
 51
175.6808254977021875
  0
ARC
  5
10251
  8
0
 10
844.9365661297706538
 20
39.8995781372105114
 30
0.0
 40
0.4771383853854588
 50
175.6808254977021875
 51
220.1776092368864113
  0
ARC
  5
10252
  8
0
 10
844.5987970138438641
 20
39.6143672909945792
 30
0.0
 40
0.035060108975983
 50
220.1776092368864113
 51
241.211893747000687
  0
ARC
  5
10253
  8
0
 10
847.0801161407079007
 20
39.7602177865105872
 30
0.0
 40
2.6250285397476509
 50
176.6009996895948859
 51
178.1631919993384088
  0
ARC
  5
10254
  8
0
 10
844.9428553035985487
 20
39.6155136691370515
 30
0.0
 40
0.0366615123680958
 50
282.0647187608876152
 51
319.6806847433301186
  0
ARC
  5
10255
  8
0
 10
844.6074061249508986
 20
39.9001897328597934
 30
0.0
 40
0.4766235706322039
 50
319.6806847433301186
 51
0.0522179434012834
  0
LINE
  5
10256
  8
0
 10
844.7714278053281305
 20
40.1147798646337321
 30
0.0
 11
844.7713960030532689
 21
40.1674434047569591
 31
0.0
  0
LINE
  5
10257
  8
0
 10
844.465170112076521
 20
39.9449122411612265
 30
0.0
 11
844.5141404539325549
 21
39.9290686834100867
 31
0.0
  0
LINE
  5
10258
  8
0
 10
844.5819130556365053
 20
39.5836403777641692
 30
0.0
 11
844.6126081227821487
 21
39.6264558272871525
 31
0.0
  0
LINE
  5
10259
  8
0
 10
844.9620020878063542
 20
39.5859587624544318
 30
0.0
 11
844.9310019781022447
 21
39.6269993615891565
 31
0.0
  0
ARC
  5
1025A
  8
0
 10
838.8320292134467309
 20
41.1337674252686369
 30
0.0
 40
0.4702481270999639
 50
240.0257125342087079
 51
263.9742874739292233
  0
ARC
  5
1025B
  8
0
 10
838.7568239790833786
 20
40.8070038481978585
 30
0.0
 40
0.1383126190823738
 50
227.6467109011726109
 51
233.2116666516155021
  0
ARC
  5
1025C
  8
0
 10
838.8320292134459351
 20
41.1337674252641534
 30
0.0
 40
0.4651979286952254
 50
250.1404245770877139
 51
253.8595754229106092
  0
ARC
  5
1025D
  8
0
 10
838.7008038937527772
 20
40.8252652602464821
 30
0.0
 40
0.1383722743539519
 50
270.7883333483850947
 51
276.351150817220514
  0
ARC
  5
1025E
  8
0
 10
838.7023588150650539
 20
40.8252151570045783
 30
0.0
 40
0.1389658857866236
 50
270.8042941693399825
 51
276.4588751225879832
  0
ARC
  5
1025F
  8
0
 10
838.7724748793369827
 20
40.7914104196911467
 30
0.0
 40
0.1253096451664688
 50
237.0453157899941914
 51
239.4716441204485022
  0
ARC
  5
10260
  8
0
 10
838.8319655601781051
 20
41.1335074479824527
 30
0.0
 40
0.4665798143539992
 50
254.6967253241367075
 51
261.8161837911704879
  0
ARC
  5
10261
  8
0
 10
838.7554944643042063
 20
40.8078615681597725
 30
0.0
 40
0.1388666874950293
 50
227.5469760335878107
 51
233.2068045199814037
  0
ARC
  5
10262
  8
0
 10
838.678952189057668
 20
40.8214525329185207
 30
0.0
 40
0.1249716912315933
 50
264.5250714696485943
 51
266.9594018263388193
  0
ARC
  5
10263
  8
0
 10
838.8320292276722512
 20
41.1337674559315971
 30
0.0
 40
0.4668474071881693
 50
242.1861786633926101
 51
249.3023883740486042
  0
LINE
  5
10264
  8
0
 10
844.8691621634452531
 20
38.5989074365686804
 30
0.0
 11
844.8691621634452531
 21
38.9487229216594031
 31
0.0
  0
ENDSEC
  0
EOF
