  0
SECTION
  2
HEADER
  9
$ACADVER
  1
AC1009
  9
$INSBASE
 10
4361.9332685844447042
 20
184.1704488848889127
 30
0.0
  9
$EXTMIN
 10
4354.8444187337508993
 20
182.8250361522609069
 30
-0.0000000349181948
  9
$EXTMAX
 10
4368.7877771767316517
 20
185.5112402688044142
 30
0.0000000814935746
  9
$LIMMIN
 10
0.0
 20
0.0
  9
$LIMMAX
 10
11.6929133858000007
 20
8.2677165353999982
  9
$ORTHOMODE
 70
     0
  9
$REGENMODE
 70
     1
  9
$FILLMODE
 70
     1
  9
$QTEXTMODE
 70
     0
  9
$MIRRTEXT
 70
     0
  9
$DRAGMODE
 70
     2
  9
$LTSCALE
 40
0.6431102362
  9
$OSMODE
 70
  4095
  9
$ATTMODE
 70
     1
  9
$TEXTSIZE
 40
0.2
  9
$TRACEWID
 40
0.05
  9
$TEXTSTYLE
  7
STANDARD
  9
$CLAYER
  8
0
  9
$CELTYPE
  6
BYLAYER
  9
$CECOLOR
 62
   256
  9
$DIMSCALE
 40
1.0
  9
$DIMASZ
 40
0.1875
  9
$DIMEXO
 40
0.0625
  9
$DIMDLI
 40
0.4443307087
  9
$DIMRND
 40
0.0
  9
$DIMDLE
 40
0.0
  9
$DIMEXE
 40
0.125
  9
$DIMTP
 40
0.01
  9
$DIMTM
 40
0.01
  9
$DIMTXT
 40
2.0
  9
$DIMCEN
 40
0.1052362205
  9
$DIMTSZ
 40
0.0
  9
$DIMTOL
 70
     1
  9
$DIMLIM
 70
     0
  9
$DIMTIH
 70
     1
  9
$DIMTOH
 70
     1
  9
$DIMSE1
 70
     0
  9
$DIMSE2
 70
     0
  9
$DIMTAD
 70
     0
  9
$DIMZIN
 70
     0
  9
$DIMBLK
  1

  9
$DIMASO
 70
     1
  9
$DIMSHO
 70
     1
  9
$DIMPOST
  1
\X
  9
$DIMAPOST
  1

  9
$DIMALT
 70
     1
  9
$DIMALTD
 70
     2
  9
$DIMALTF
 40
25.3999999999999986
  9
$DIMLFAC
 40
1.0
  9
$DIMTOFL
 70
     0
  9
$DIMTVP
 40
0.0
  9
$DIMTIX
 70
     0
  9
$DIMSOXD
 70
     0
  9
$DIMSAH
 70
     0
  9
$DIMBLK1
  1

  9
$DIMBLK2
  1

  9
$DIMSTYLE
  2
STANDARD
  9
$DIMCLRD
 70
     0
  9
$DIMCLRE
 70
     0
  9
$DIMCLRT
 70
     0
  9
$DIMTFAC
 40
1.0
  9
$DIMGAP
 40
0.09
  9
$LUNITS
 70
     2
  9
$LUPREC
 70
     4
  9
$SKETCHINC
 40
0.1
  9
$FILLETRAD
 40
0.0
  9
$AUNITS
 70
     0
  9
$AUPREC
 70
     0
  9
$MENU
  1
.
  9
$ELEVATION
 40
0.0
  9
$PELEVATION
 40
0.0
  9
$THICKNESS
 40
0.0
  9
$LIMCHECK
 70
     0
  9
$BLIPMODE
 70
     0
  9
$CHAMFERA
 40
0.0
  9
$CHAMFERB
 40
0.0
  9
$SKPOLY
 70
     0
  9
$TDCREATE
 40
2458060.468368056230247
  9
$TDUPDATE
 40
2460168.5202199080958962
  9
$TDINDWG
 40
0.4340927083
  9
$TDUSRTIMER
 40
0.4340927083
  9
$USRTIMER
 70
     1
  9
$ANGBASE
 50
0.0
  9
$ANGDIR
 70
     0
  9
$PDMODE
 70
     0
  9
$PDSIZE
 40
0.3125
  9
$PLINEWID
 40
0.0
  9
$COORDS
 70
     1
  9
$SPLFRAME
 70
     0
  9
$SPLINETYPE
 70
     6
  9
$SPLINESEGS
 70
     8
  9
$ATTDIA
 70
     1
  9
$ATTREQ
 70
     1
  9
$HANDLING
 70
     1
  9
$HANDSEED
  5
B4E0
  9
$SURFTAB1
 70
     6
  9
$SURFTAB2
 70
     6
  9
$SURFTYPE
 70
     6
  9
$SURFU
 70
     6
  9
$SURFV
 70
     6
  9
$UCSNAME
  2

  9
$UCSORG
 10
0.0
 20
0.0
 30
0.0
  9
$UCSXDIR
 10
1.0
 20
0.0
 30
0.0
  9
$UCSYDIR
 10
0.0
 20
1.0
 30
0.0
  9
$PUCSNAME
  2

  9
$PUCSORG
 10
0.0
 20
0.0
 30
0.0
  9
$PUCSXDIR
 10
1.0
 20
0.0
 30
0.0
  9
$PUCSYDIR
 10
0.0
 20
1.0
 30
0.0
  9
$USERI1
 70
     0
  9
$USERI2
 70
     0
  9
$USERI3
 70
     0
  9
$USERI4
 70
     0
  9
$USERI5
 70
     0
  9
$USERR1
 40
0.0
  9
$USERR2
 40
0.0
  9
$USERR3
 40
0.0
  9
$USERR4
 40
0.0
  9
$USERR5
 40
0.0
  9
$WORLDVIEW
 70
     1
  9
$SHADEDGE
 70
     3
  9
$SHADEDIF
 70
    70
  9
$TILEMODE
 70
     1
  9
$MAXACTVP
 70
    64
  9
$PLIMCHECK
 70
     0
  9
$PEXTMIN
 10
1.0000000000000000E+20
 20
1.0000000000000000E+20
 30
1.0000000000000000E+20
  9
$PEXTMAX
 10
-1.0000000000000000E+20
 20
-1.0000000000000000E+20
 30
-1.0000000000000000E+20
  9
$PLIMMIN
 10
0.0
 20
0.0
  9
$PLIMMAX
 10
12.0
 20
9.0
  9
$UNITMODE
 70
     0
  9
$VISRETAIN
 70
     1
  9
$PLINEGEN
 70
     0
  9
$PSLTSCALE
 70
     1
  0
ENDSEC
  0
SECTION
  2
TABLES
  0
TABLE
  2
VPORT
 70
     1
  0
VPORT
  2
*ACTIVE
 70
     0
 10
0.0
 20
0.0
 11
1.0
 21
1.0
 12
558.2720305724295713
 22
58.1728760137827479
 13
0.0
 23
0.0
 14
1.0
 24
1.0
 15
0.0
 25
0.0
 16
0.0
 26
0.0
 36
17.1152628219792007
 17
3803.5440673828129547
 27
125.9952621967499056
 37
0.0
 40
5.597888415962208
 41
2.498684210526315
 42
50.0
 43
0.0
 44
0.0
 50
0.0
 51
0.0
 71
     0
 72
   100
 73
     1
 74
     1
 75
     0
 76
     0
 77
     0
 78
     0
  0
ENDTAB
  0
TABLE
  2
LTYPE
 70
     2
  0
LTYPE
  2
CONTINUOUS
 70
     0
  3
Solid line
 72
    65
 73
     0
 40
0.0
  0
LTYPE
  2
PHANTOM2
 70
     0
  3
___ _ _ ___ _ _ ___ _ _ ___ _ _
 72
    65
 73
     6
 40
1.25
 49
0.625
 49
-0.125
 49
0.125
 49
-0.125
 49
0.125
 49
-0.125
  0
ENDTAB
  0
TABLE
  2
LAYER
 70
     2
  0
LAYER
  2
0
 70
     0
 62
   255
  6
CONTINUOUS
  0
LAYER
  2
DEFPOINTS
 70
     0
 62
     7
  6
CONTINUOUS
  0
ENDTAB
  0
TABLE
  2
STYLE
 70
     1
  0
STYLE
  2
STANDARD
 70
     0
 40
0.0
 41
0.8
 50
0.0
 71
     0
 42
0.2
  3
txt
  4

  0
ENDTAB
  0
TABLE
  2
VIEW
 70
     0
  0
ENDTAB
  0
TABLE
  2
UCS
 70
     0
  0
ENDTAB
  0
TABLE
  2
APPID
 70
    10
  0
APPID
  2
ACAD
 70
     0
  0
APPID
  2
ACAD_MLEADERVER
 70
     0
  0
APPID
  2
ACAD_EXEMPT_FROM_CAD_STANDARDS
 70
     0
  0
APPID
  2
ACAD_NAV_VCDISPLAY
 70
     0
  0
APPID
  2
ACAECLAYERSTANDARD
 70
     0
  0
APPID
  2
ACCMTRANSPARENCY
 70
     0
  0
APPID
  2
ACAD_DSTYLE_DIMJAG
 70
     0
  0
APPID
  2
ACAD_DSTYLE_DIMTALN
 70
     0
  0
APPID
  2
ACDBATTR
 70
     0
  0
APPID
  2
ACADANNOTATIVE
 70
     0
  0
ENDTAB
  0
TABLE
  2
DIMSTYLE
 70
     2
  0
DIMSTYLE
  2
STANDARD
 70
     0
  3

  4

  5

  6

  7

 40
1.0
 41
0.1875
 42
0.0625
 43
0.38
 44
0.125
 45
0.0
 46
0.0
 47
0.01
 48
0.01
140
0.15625
141
0.09
142
0.0
143
25.3999999999999986
144
1.0
145
0.0
146
1.0
147
0.09
 71
     1
 72
     0
 73
     1
 74
     1
 75
     0
 76
     0
 77
     0
 78
     4
170
     0
171
     2
172
     0
173
     0
174
     0
175
     0
176
     0
177
     0
178
     0
  0
DIMSTYLE
  2
ANNOTATIVE
 70
     0
  3

  4

  5

  6

  7

 40
0.0
 41
0.18
 42
0.0625
 43
0.38
 44
0.18
 45
0.0
 46
0.0
 47
0.0
 48
0.0
140
0.18
141
0.09
142
0.0
143
25.3999999999999986
144
1.0
145
0.0
146
1.0
147
0.09
 71
     0
 72
     0
 73
     1
 74
     1
 75
     0
 76
     0
 77
     0
 78
     0
170
     0
171
     2
172
     0
173
     0
174
     0
175
     0
176
     0
177
     0
178
     0
  0
ENDTAB
  0
ENDSEC
  0
SECTION
  2
BLOCKS
  0
BLOCK
  8
0
  2
$MODEL_SPACE
 70
     0
 10
0.0
 20
0.0
 30
0.0
  3
$MODEL_SPACE
  1

  0
ENDBLK
  5
21
  8
0
  0
BLOCK
 67
     1
  8
0
  2
$PAPER_SPACE
 70
     0
 10
0.0
 20
0.0
 30
0.0
  3
$PAPER_SPACE
  1

  0
ENDBLK
  5
1D
 67
     1
  8
0
  0
ENDSEC
  0
SECTION
  2
ENTITIES
  0
ATTDEF
  5
3930
  8
DEFPOINTS
 10
4361.9337477535927974
 20
184.1695313470995075
 30
0.0
 40
0.001
  1
K-EX27103T-4
  3

  2
MODELNUMBER
 70
     0
1001
ACDBATTR
1070
     0
1070
     1
  0
ATTDEF
  5
3931
  8
DEFPOINTS
 10
4361.9337477535927974
 20
184.1678646804328991
 30
0.0
 40
0.001
  1
OCCASIONS
  3

  2
TRADENAME
 70
     0
1001
ACDBATTR
1070
     0
1070
     1
  0
ATTDEF
  5
3932
  8
DEFPOINTS
 10
4361.9337477535927974
 20
184.1661980137662056
 30
0.0
 40
0.001
  1
BATHROOM SINK FAUCET
  3

  2
PRODUCT
 70
     0
1001
ACDBATTR
1070
     0
1070
     1
  0
LINE
  5
B233
  8
0
 10
4361.9332685844447042
 20
183.122067006042812
 30
0.0
 11
4361.9332685844447042
 21
185.5095763173951013
 31
0.0
  0
LINE
  5
B234
  8
0
 10
4361.422100564237553
 20
183.0678257100229018
 30
0.0
 11
4361.422100564237553
 21
184.2840693444680937
 31
0.0
  0
ARC
  5
B235
  8
0
 10
4361.937864177454685
 20
185.6116671508216029
 30
0.0
 40
2.7803494964308748
 50
264.3323295821766123
 51
269.9052967248518939
  0
ARC
  5
B236
  8
0
 10
4361.6693682786162753
 20
182.9058991639134035
 30
0.0
 40
0.0612926019498163
 50
248.1225788311303972
 51
264.3009102340607228
  0
ARC
  5
B237
  8
0
 10
4361.82456183598606
 20
183.2923953015510961
 30
0.0
 40
0.4777830636152669
 50
228.5696717752051939
 51
248.1225788311303972
  0
ARC
  5
B238
  8
0
 10
4361.7208397794383927
 20
183.202905378899203
 30
0.0
 40
0.3425558688766686
 50
217.5186990135314034
 51
231.6739360224067923
  0
ARC
  5
B239
  8
0
 10
4361.534305635441342
 20
183.0673368949991016
 30
0.0
 40
0.1122061359456796
 50
179.7503957691359062
 51
220.6229632607210931
  0
ARC
  5
B23A
  8
0
 10
4361.9349317281212279
 20
183.1207420356024045
 30
0.0
 40
0.0786692997117867
 50
91.2113774149724463
 51
101.7519170515762994
  0
ARC
  5
B23B
  8
0
 10
4362.0395629937311242
 20
181.5193229258179031
 30
0.0
 40
1.682770405987672
 50
94.1116203750489859
 51
111.1963972408448029
  0
ARC
  5
B23C
  8
0
 10
4361.4338865030313173
 20
183.0755873848054023
 30
0.0
 40
0.012957193114392
 50
102.2805633850908009
 51
155.4509410758786885
  0
ARC
  5
B23D
  8
0
 10
4362.0816525652471682
 20
181.3691552964210985
 30
0.0
 40
1.760142436432361
 50
95.1952145421201266
 51
110.1130952455730068
  0
ARC
  5
B23E
  8
0
 10
4361.4804516912017789
 20
183.0108511586360862
 30
0.0
 40
0.0118267341165267
 50
110.1130952455730068
 51
156.8103400665893901
  0
ARC
  5
B23F
  8
0
 10
4361.5843405120776879
 20
183.0203559655662104
 30
0.0
 40
0.1148623745144471
 50
182.4188648930166039
 51
228.7178568422087892
  0
ARC
  5
B240
  8
0
 10
4361.9324746610327566
 20
183.9390337549959042
 30
0.0
 40
1.0854590619283451
 50
263.7465589016214835
 51
270.041907121570091
  0
ARC
  5
B241
  8
0
 10
4361.8971001263444123
 20
183.6162103422346945
 30
0.0
 40
0.760703286719807
 50
253.4786915792749937
 51
263.7465589016214835
  0
ARC
  5
B242
  8
0
 10
4361.7512268486343601
 20
183.1244221106138923
 30
0.0
 40
0.2477367401400032
 50
234.1376439524105137
 51
253.4786915792749937
  0
ARC
  5
B243
  8
0
 10
4361.6402990027336273
 20
182.9709691431287126
 30
0.0
 40
0.0583883833311338
 50
203.4696419696522014
 51
234.1376439524105137
  0
ARC
  5
B244
  8
0
 10
4361.6194193687351799
 20
182.9619035714713107
 30
0.0
 40
0.0356256131699036
 50
141.1919086941269939
 51
203.4696419696522014
  0
ARC
  5
B245
  8
0
 10
4361.7074407377231182
 20
182.8809899759991993
 30
0.0
 40
0.1551265505374323
 50
108.7409761319410961
 51
138.277353961874411
  0
ARC
  5
B246
  8
0
 10
4361.8760669105613488
 20
182.4227425089706003
 30
0.0
 40
0.6433766083609119
 50
95.0946739331978392
 51
109.8502463425687949
  0
ARC
  5
B247
  8
0
 10
4361.9313721758080646
 20
181.999040230078208
 30
0.0
 40
1.0704586024487901
 50
90.9002796995013966
 51
96.0293223045393347
  0
ARC
  5
B248
  8
0
 10
4361.9332563355656021
 20
181.9418517295572997
 30
0.0
 40
1.127670078185921
 50
89.9993776467969155
 51
90.9503453672276407
  0
ARC
  5
B249
  8
0
 10
4361.9552030590348295
 20
184.0639392760558906
 30
0.0
 40
1.1435986591938681
 50
265.3120127015097864
 51
268.9009869167448983
  0
ARC
  5
B24A
  8
0
 10
4361.9134544569878926
 20
183.5086675802810134
 30
0.0
 40
0.5867846371742949
 50
252.9820172291123015
 51
264.9435839446039722
  0
ARC
  5
B24B
  8
0
 10
4361.7901359476627476
 20
183.1057632313340946
 30
0.0
 40
0.1654304285299065
 50
232.8093172912957129
 51
252.9820172291123015
  0
ARC
  5
B24C
  8
0
 10
4361.7245264900057009
 20
183.0192967691332058
 30
0.0
 40
0.056889883019705
 50
201.5033162944679077
 51
232.8093172912957129
  0
ARC
  5
B24D
  8
0
 10
4361.7001574458736286
 20
183.0096959179861074
 30
0.0
 40
0.0306977724768323
 50
157.4896340273643887
 51
201.5033162944679077
  0
ARC
  5
B24E
  8
0
 10
4361.7304388952979934
 20
182.9887837257157912
 30
0.0
 40
0.0671244012084944
 50
134.6245137661560989
 51
150.8805767825404871
  0
ARC
  5
B24F
  8
0
 10
4361.9957658632583843
 20
184.4723930367406126
 30
0.0
 40
1.549189285361948
 50
264.7883655165863956
 51
267.6879505069543939
  0
ARC
  5
B250
  8
0
 10
4361.9440443573530501
 20
183.6386587092329137
 30
0.0
 40
0.7146142287187424
 50
255.658541545597302
 51
262.8457479710644975
  0
ARC
  5
B251
  8
0
 10
4361.8097488904913916
 20
183.1133848952015057
 30
0.0
 40
0.1724446499642292
 50
236.0024337416008962
 51
255.658541545597302
  0
ARC
  5
B252
  8
0
 10
4361.7419810702758696
 20
183.0129057638511085
 30
0.0
 40
0.0512483905598695
 50
205.4899958442161108
 51
236.0024337416008962
  0
ARC
  5
B253
  8
0
 10
4361.7209326815363966
 20
182.9994507768282119
 30
0.0
 40
0.0266379231876389
 50
137.4570216800923106
 51
198.8351037022999037
  0
ARC
  5
B254
  8
0
 10
4361.7937334417192687
 20
182.9218931603971896
 30
0.0
 40
0.1329514248401596
 50
104.0546445599518961
 51
134.0425343967648075
  0
ARC
  5
B255
  8
0
 10
4361.8888532713690438
 20
182.6381746582914047
 30
0.0
 40
0.4319091090108033
 50
100.6928973744263942
 51
107.1566379285472976
  0
ARC
  5
B256
  8
0
 10
4361.8272710723504133
 20
182.8226040025535042
 30
0.0
 40
0.2429520371782617
 50
107.1652309136443932
 51
119.7214701943082957
  0
ARC
  5
B257
  8
0
 10
4361.7374053829817058
 20
182.9800182374247015
 30
0.0
 40
0.0616923244300898
 50
119.7214701943082957
 51
149.4921477715122933
  0
ARC
  5
B258
  8
0
 10
4361.7045691335742958
 20
182.9993663285274863
 30
0.0
 40
0.0235797555773683
 50
149.4921477715122933
 51
213.155130544753689
  0
ARC
  5
B259
  8
0
 10
4361.7420373586810456
 20
183.0238429626147934
 30
0.0
 40
0.0683343476201967
 50
213.155130544753689
 51
239.715651159570001
  0
ARC
  5
B25A
  8
0
 10
4361.8127091341602863
 20
183.144859087477613
 30
0.0
 40
0.208474999560379
 50
239.715651159570001
 51
251.9203986106629998
  0
ARC
  5
B25B
  8
0
 10
4362.1630906527789193
 20
184.2181465175927997
 30
0.0
 40
1.337506937209981
 50
251.9203986106629998
 51
252.9243076638963998
  0
ARC
  5
B25C
  8
0
 10
4361.7998480604410361
 20
183.2714550630539918
 30
0.0
 40
0.3211271515808505
 50
246.4138596951696059
 51
252.3616869920211059
  0
ARC
  5
B25D
  8
0
 10
4361.673067227966385
 20
182.9810737564866088
 30
0.0
 40
0.0042759519823821
 50
173.6491570158918023
 51
246.4138596951696059
  0
ARC
  5
B25E
  8
0
 10
4360.1113885533841312
 20
183.0286707175417007
 30
0.0
 40
1.5581417279611509
 50
358.2668993533595767
 51
0.1248339714094775
  0
ARC
  5
B25F
  8
0
 10
4361.6727982494248863
 20
182.9808439162223976
 30
0.0
 40
0.003960703200842
 50
248.6500498863140081
 51
282.4929811239900914
  0
ARC
  5
B260
  8
0
 10
4361.8847794122029882
 20
182.0241040457661938
 30
0.0
 40
0.9759817405648927
 50
101.8637855090205022
 51
102.4929811239900062
  0
LINE
  5
B261
  8
0
 10
4361.6694515139206487
 20
183.0130037007164105
 30
0.0
 11
4361.6510410422315545
 21
183.0221594474606945
 31
0.0
  0
LINE
  5
B262
  8
0
 10
4361.6512021765947793
 20
183.0255633861546016
 30
0.0
 11
4361.6512021765947793
 21
183.0237257081647897
 31
0.0
  0
ARC
  5
B263
  8
0
 10
4361.6451006122515537
 20
183.0235620082482058
 30
0.0
 40
0.0061037599157694
 50
272.6834989890846828
 51
1.536829630635038
  0
LINE
  5
B264
  8
0
 10
4361.8919295939958829
 20
182.9431030197573875
 30
0.0
 11
4361.8919295939958829
 21
183.068771926484601
 31
0.0
  0
LINE
  5
B265
  8
0
 10
4361.8574508870951831
 20
183.0669434385347074
 30
0.0
 11
4361.8574508870951831
 21
183.0563663381153958
 31
0.0
  0
LINE
  5
B266
  8
0
 10
4361.8476083673958783
 20
183.0662165247721873
 30
0.0
 11
4361.8476083673958783
 21
183.056719891715403
 31
0.0
  0
LINE
  5
B267
  8
0
 10
4361.8024816736751745
 20
183.0605223347293986
 30
0.0
 11
4361.8237196207956003
 21
183.0466159731153937
 31
0.0
  0
LINE
  5
B268
  8
0
 10
4361.8237196207956003
 20
183.0466159731153937
 30
0.0
 11
4361.8517849395284429
 21
183.0515788051158097
 31
0.0
  0
LINE
  5
B269
  8
0
 10
4361.8247121437952956
 20
183.0267965701152946
 30
0.0
 11
4361.8508586290481617
 21
183.0130826278906966
 31
0.0
  0
LINE
  5
B26A
  8
0
 10
4361.8247121437952956
 20
183.0267965701152946
 30
0.0
 11
4361.7985656585042307
 21
183.0251916552552132
 31
0.0
  0
LINE
  5
B26B
  8
0
 10
4361.7985656585042307
 20
183.0251916552552132
 30
0.0
 11
4361.7704341273956743
 21
183.0429282036153893
 31
0.0
  0
LINE
  5
B26C
  8
0
 10
4361.7704341273956743
 20
183.0429282036153893
 30
0.0
 11
4361.7428000122081357
 21
183.0447014138873953
 31
0.0
  0
LINE
  5
B26D
  8
0
 10
4361.8508586290481617
 20
183.0130826278906966
 30
0.0
 11
4361.8508586289790401
 21
182.9978245615264996
 31
0.0
  0
LINE
  5
B26E
  8
0
 10
4361.8508586289790401
 20
182.9978245615264996
 30
0.0
 11
4361.8247121438398608
 21
182.9961138064099941
 31
0.0
  0
LINE
  5
B26F
  8
0
 10
4361.8247121438398608
 20
182.9961138064099941
 30
0.0
 11
4361.7975731355172684
 21
183.0092330447589859
 31
0.0
  0
LINE
  5
B270
  8
0
 10
4361.7975731355172684
 20
183.0092330447589859
 30
0.0
 11
4361.7714266503553517
 21
183.0106659588161051
 31
0.0
  0
LINE
  5
B271
  8
0
 10
4361.7714266503553517
 20
183.0106659588161051
 30
0.0
 11
4361.7434689616457035
 21
183.0284016632153907
 31
0.0
  0
LINE
  5
B272
  8
0
 10
4361.7434689616457035
 20
183.0284016632153907
 30
0.0
 11
4361.7203156979985579
 21
183.0327350129346939
 31
0.0
  0
LINE
  5
B273
  8
0
 10
4361.850858628995411
 20
182.9978245615153867
 30
0.0
 11
4361.8607838589960011
 21
182.9930338743153868
 31
0.0
  0
LINE
  5
B274
  8
0
 10
4361.8607838589960011
 20
182.9930338743153868
 30
0.0
 11
4361.8607838589960011
 21
182.9727384442153948
 31
0.0
  0
LINE
  5
B275
  8
0
 10
4361.8607838589960011
 20
182.9727384442153948
 30
0.0
 11
4361.850858628995411
 21
182.971923213915403
 31
0.0
  0
LINE
  5
B276
  8
0
 10
4361.850858628995411
 20
182.971923213915403
 30
0.0
 11
4361.8247121437952956
 21
182.9824324923754943
 31
0.0
  0
LINE
  5
B277
  8
0
 10
4361.8247121437952956
 20
182.9824324923754943
 30
0.0
 11
4361.7985656585406105
 21
182.9836914773885042
 31
0.0
  0
LINE
  5
B278
  8
0
 10
4361.7985656585406105
 20
182.9836914773885042
 30
0.0
 11
4361.7704341273074533
 21
182.9979767053690978
 31
0.0
  0
LINE
  5
B279
  8
0
 10
4361.7704341273074533
 20
182.9979767053690978
 30
0.0
 11
4361.743101287826903
 21
183.0029283800238034
 31
0.0
  0
LINE
  5
B27A
  8
0
 10
4361.743101287826903
 20
183.0029283800238034
 30
0.0
 11
4361.7161561117945894
 21
183.0207571443154109
 31
0.0
  0
LINE
  5
B27B
  8
0
 10
4361.7161561117945894
 20
183.0207571443154109
 30
0.0
 11
4361.707648594060629
 21
183.0232118673102093
 31
0.0
  0
LINE
  5
B27C
  8
0
 10
4361.850858628995411
 20
182.971923213915403
 30
0.0
 11
4361.8507821595985661
 21
182.9625941890419085
 31
0.0
  0
LINE
  5
B27D
  8
0
 10
4361.8507821595985661
 20
182.9625941890419085
 30
0.0
 11
4361.8245884928619489
 21
182.9633913755598087
 31
0.0
  0
LINE
  5
B27E
  8
0
 10
4361.8245884928619489
 20
182.9633913755598087
 30
0.0
 11
4361.7975787304449113
 21
182.9741120027653949
 31
0.0
  0
LINE
  5
B27F
  8
0
 10
4361.7975787304449113
 20
182.9741120027653949
 30
0.0
 11
4361.7703888735568398
 21
182.9789485703429079
 31
0.0
  0
LINE
  5
B280
  8
0
 10
4361.7703888735568398
 20
182.9789485703429079
 30
0.0
 11
4361.7433099983991269
 21
182.9934544623700958
 31
0.0
  0
LINE
  5
B281
  8
0
 10
4361.7433099983991269
 20
182.9934544623700958
 30
0.0
 11
4361.7159065328378347
 21
183.0016997667910914
 31
0.0
  0
LINE
  5
B282
  8
0
 10
4361.7159065328378347
 20
183.0016997667910914
 30
0.0
 11
4361.7058659018948674
 21
183.008382853465406
 31
0.0
  0
LINE
  5
B283
  8
0
 10
4361.7058659018948674
 20
183.008382853465406
 30
0.0
 11
4361.6965490779875836
 21
183.0101754600295862
 31
0.0
  0
LINE
  5
B284
  8
0
 10
4361.8507821595985661
 20
182.9625941890419085
 30
0.0
 11
4361.8607838589987296
 21
182.9591589511830989
 31
0.0
  0
LINE
  5
B285
  8
0
 10
4361.8607838589987296
 20
182.9591589511830989
 30
0.0
 11
4361.8607838589960011
 21
182.9485140898154043
 31
0.0
  0
LINE
  5
B286
  8
0
 10
4361.8607838589960011
 20
182.9485140898154043
 30
0.0
 11
4361.8518511515667342
 21
182.9491358523501106
 31
0.0
  0
LINE
  5
B287
  8
0
 10
4361.8518511515667342
 20
182.9491358523501106
 30
0.0
 11
4361.8247121437952956
 21
182.9566703076154113
 31
0.0
  0
LINE
  5
B288
  8
0
 10
4361.8247121437952956
 20
182.9566703076154113
 30
0.0
 11
4361.7973920461972739
 21
182.9611330541362122
 31
0.0
  0
LINE
  5
B289
  8
0
 10
4361.7973920461972739
 20
182.9611330541362122
 30
0.0
 11
4361.7704893701948095
 21
182.9722478530154035
 31
0.0
  0
LINE
  5
B28A
  8
0
 10
4361.7704893701948095
 20
182.9722478530154035
 30
0.0
 11
4361.7431133410200346
 21
182.980507712633198
 31
0.0
  0
LINE
  5
B28B
  8
0
 10
4361.7431133410200346
 20
182.980507712633198
 30
0.0
 11
4361.7159684904845562
 21
182.9957695613406941
 31
0.0
  0
LINE
  5
B28C
  8
0
 10
4361.7159684904845562
 20
182.9957695613406941
 30
0.0
 11
4361.6994542172833462
 21
182.9935137502722
 31
0.0
  0
ARC
  5
B28D
  8
0
 10
4361.9332681787091133
 20
183.4094549269198922
 30
0.0
 40
0.472440959640737
 50
261.174529127294079
 51
264.4593442445581104
  0
ARC
  5
B28E
  8
0
 10
4361.8613878949081482
 20
182.9464979334011048
 30
0.0
 40
0.0039370076324422
 50
219.6468490347816953
 51
261.174529127294079
  0
ARC
  5
B28F
  8
0
 10
4361.9369368981133448
 20
183.6706967805546924
 30
0.0
 40
0.7309470419247752
 50
259.779333233624584
 51
263.8284899795485217
  0
ARC
  5
B290
  8
0
 10
4361.8272891916303706
 20
183.1641085635249055
 30
0.0
 40
0.2137026854635209
 50
234.7209689827157035
 51
264.6161201412336936
  0
ARC
  5
B291
  8
0
 10
4361.8451148847443619
 20
183.1553965879705004
 30
0.0
 40
0.2177684164121449
 50
226.8394954136346939
 51
229.561454339852304
  0
ARC
  5
B292
  8
0
 10
4361.9279269485550685
 20
183.6096658509889892
 30
0.0
 40
0.6768455050172522
 50
260.7935264110956268
 51
266.9513426288456799
  0
ARC
  5
B293
  8
0
 10
4361.8801160428438379
 20
183.3146835836232071
 30
0.0
 40
0.3780137450500269
 50
246.3010797659921991
 51
260.7935264110956268
  0
ARC
  5
B294
  8
0
 10
4361.7574225172338629
 20
183.0351656184778051
 30
0.0
 40
0.0727532103164054
 50
215.702065818121298
 51
246.3010797659921991
  0
ARC
  5
B295
  8
0
 10
4361.7155460769026831
 20
183.0050720539489078
 30
0.0
 40
0.0211852078259917
 50
186.4239193304842956
 51
215.702065818121298
  0
LINE
  5
B296
  8
0
 10
4361.8518511515667342
 20
182.9491358523501106
 30
0.0
 11
4361.8518176803945607
 21
182.9455082110725925
 31
0.0
  0
LINE
  5
B297
  8
0
 10
4361.8518176803945607
 20
182.9455082110725925
 30
0.0
 11
4361.8247121437952956
 21
182.9500344973153858
 31
0.0
  0
LINE
  5
B298
  8
0
 10
4361.8247121437952956
 20
182.9500344973153858
 30
0.0
 11
4361.7977196755946352
 21
182.9578791648017102
 31
0.0
  0
LINE
  5
B299
  8
0
 10
4361.7977196755946352
 20
182.9578791648017102
 30
0.0
 11
4361.7704341273392856
 21
182.9661661309160081
 31
0.0
  0
LINE
  5
B29A
  8
0
 10
4361.7704341273392856
 20
182.9661661309160081
 30
0.0
 11
4361.7432951198907176
 21
182.9775474944950986
 31
0.0
  0
LINE
  5
B29B
  8
0
 10
4361.7432951198907176
 20
182.9775474944950986
 30
0.0
 11
4361.7346968908268536
 21
182.9812284726068867
 31
0.0
  0
LINE
  5
B29C
  8
0
 10
4361.7346968908268536
 20
182.9812284726068867
 30
0.0
 11
4361.7218927404001079
 21
182.9782042175772006
 31
0.0
  0
LINE
  5
B29D
  8
0
 10
4361.8305380372949003
 20
183.0320654919154038
 30
0.0
 11
4361.8305380372949003
 21
183.0478216838332912
 31
0.0
  0
LINE
  5
B29E
  8
0
 10
4361.8207238835948374
 20
183.0320681423154099
 30
0.0
 11
4361.8206856641063496
 21
183.0486025727904007
 31
0.0
  0
LINE
  5
B29F
  8
0
 10
4361.7767123375951996
 20
183.0479770824154002
 30
0.0
 11
4361.7767123375951996
 21
183.0552716367257062
 31
0.0
  0
LINE
  5
B2A0
  8
0
 10
4361.7668782314985947
 20
183.0484548130617952
 30
0.0
 11
4361.7668674887081579
 21
183.052499346519312
 31
0.0
  0
LINE
  5
B2A1
  8
0
 10
4361.7497994877949168
 20
183.0332138895153946
 30
0.0
 11
4361.7497994877949168
 21
183.0442522754972003
 31
0.0
  0
LINE
  5
B2A2
  8
0
 10
4361.739948657336754
 20
183.0342925746710137
 30
0.0
 11
4361.7399604910060589
 21
183.0434848999962014
 31
0.0
  0
LINE
  5
B2A3
  8
0
 10
4361.7228866379946339
 20
183.025372698604599
 30
0.0
 11
4361.7228866379946339
 21
183.0322538374821022
 31
0.0
  0
LINE
  5
B2A4
  8
0
 10
4361.7130876480377992
 20
183.0253619176469897
 30
0.0
 11
4361.7130312806739312
 21
183.0275494075839902
 31
0.0
  0
LINE
  5
B2A5
  8
0
 10
4361.7497670337452291
 20
182.9970031541654123
 30
0.0
 11
4361.7498088947004362
 21
183.001713215862992
 31
0.0
  0
LINE
  5
B2A6
  8
0
 10
4361.7399954051534223
 20
182.9975547073796065
 30
0.0
 11
4361.7399478209463268
 21
183.0050149285640941
 31
0.0
  0
LINE
  5
B2A7
  8
0
 10
4361.8035977787030788
 20
182.9781866238079999
 30
0.0
 11
4361.8036334745820568
 21
182.9834474558927013
 31
0.0
  0
LINE
  5
B2A8
  8
0
 10
4361.7937826677953126
 20
182.97916512961541
 30
0.0
 11
4361.7937826677953126
 21
182.9861202862817038
 31
0.0
  0
LINE
  5
B2A9
  8
0
 10
4361.8305234313311303
 20
182.9606205577732112
 30
0.0
 11
4361.8305481770494225
 21
182.9632099966054
 31
0.0
  0
LINE
  5
B2AA
  8
0
 10
4361.8206955175955954
 20
182.9613610324153967
 30
0.0
 11
4361.8206955175955954
 21
182.964936562663496
 31
0.0
  0
LINE
  5
B2AB
  8
0
 10
4361.8574508870951831
 20
182.9527082172153882
 30
0.0
 11
4361.8574508870951831
 21
182.9603037117690008
 31
0.0
  0
LINE
  5
B2AC
  8
0
 10
4361.7767123375951996
 20
182.9764394140900947
 30
0.0
 11
4361.7767123375951996
 21
182.9778237442259012
 31
0.0
  0
LINE
  5
B2AD
  8
0
 10
4361.7668698178958948
 20
182.9771086987063029
 30
0.0
 11
4361.7668698178958948
 21
182.9808336944909968
 31
0.0
  0
LINE
  5
B2AE
  8
0
 10
4361.713051235515195
 20
182.9996284522813994
 30
0.0
 11
4361.7130432711219328
 21
183.003605565970588
 31
0.0
  0
ARC
  5
B2AF
  8
0
 10
4361.8253911928895832
 20
183.0319010714385968
 30
0.0
 40
0.0051494700145701
 50
262.4224634185511036
 51
1.8297418586266541
  0
ARC
  5
B2B0
  8
0
 10
4361.8253251784990425
 20
183.0314048325903968
 30
0.0
 40
0.004648859493229
 50
171.7969137284611918
 51
262.4224634185511036
  0
ARC
  5
B2B1
  8
0
 10
4361.853731005251575
 20
183.0574268192262082
 30
0.0
 40
0.0061633141115219
 50
186.5862786029528877
 51
251.5939103835260937
  0
ARC
  5
B2B2
  8
0
 10
4361.8499318695048714
 20
183.0595184087954124
 30
0.0
 40
0.0081529856556783
 50
283.1374156562101234
 51
337.2559304307404773
  0
ARC
  5
B2B3
  8
0
 10
4361.7707118516136688
 20
183.0490107301363025
 30
0.0
 40
0.006088863573657
 50
267.3857275548152757
 51
350.2261133582106822
  0
ARC
  5
B2B4
  8
0
 10
4361.7716624082013368
 20
183.0476257569210929
 30
0.0
 40
0.0048554794610461
 50
170.1687748295184974
 51
255.3467885979077039
  0
ARC
  5
B2B5
  8
0
 10
4361.7459725963108212
 20
183.0338950823989137
 30
0.0
 40
0.006037039081241
 50
176.2247855454963883
 51
245.4987968791172079
  0
ARC
  5
B2B6
  8
0
 10
4361.7444395963166244
 20
183.0336948293906119
 30
0.0
 40
0.0053814254454
 50
259.6088291140595175
 51
354.8726151703442042
  0
ARC
  5
B2B7
  8
0
 10
4361.7183824852809266
 20
183.0255654700233094
 30
0.0
 40
0.0052987484383589
 50
182.2015694088547946
 51
245.1546988399730083
  0
ARC
  5
B2B8
  8
0
 10
4361.7168516702968191
 20
183.0269579569703922
 30
0.0
 40
0.0062397018527744
 50
263.5997634694155067
 51
345.2821098395123158
  0
ARC
  5
B2B9
  8
0
 10
4361.7459540399122488
 20
182.9989817396057958
 30
0.0
 40
0.006127132213444
 50
193.4680896670809886
 51
244.4353014263058981
  0
ARC
  5
B2BA
  8
0
 10
4361.7452662055293331
 20
182.9975438456449979
 30
0.0
 40
0.0045331889334166
 50
244.4353014263058981
 51
353.1497963167744842
  0
ARC
  5
B2BB
  8
0
 10
4361.7740693790556179
 20
182.9786916945068072
 30
0.0
 40
0.007371536923065
 50
192.4005284868084118
 51
240.9447373776303039
  0
ARC
  5
B2BC
  8
0
 10
4361.7716214173497065
 20
182.9772823880811075
 30
0.0
 40
0.0051602397317965
 50
257.3274509515067052
 51
350.598054422441578
  0
ARC
  5
B2BD
  8
0
 10
4361.8021857185140107
 20
182.9815253346982047
 30
0.0
 40
0.0087282202886387
 50
195.6887136539286871
 51
238.1412662739730024
  0
ARC
  5
B2BE
  8
0
 10
4361.7978247312776148
 20
182.9802316021464037
 30
0.0
 40
0.0061245418598751
 50
267.6980152217955151
 51
340.4944000243742721
  0
ARC
  5
B2BF
  8
0
 10
4361.8263513886586225
 20
182.9621390416704116
 30
0.0
 40
0.0057091309222015
 50
187.8323274711206068
 51
253.3139764399809906
  0
ARC
  5
B2C0
  8
0
 10
4361.8260121955599971
 20
182.9610074493816114
 30
0.0
 40
0.0045277956328397
 50
253.3139764399263925
 51
355.098206197390823
  0
ARC
  5
B2C1
  8
0
 10
4361.8660734757795581
 20
182.9561390006068109
 30
0.0
 40
0.009280049046659
 50
201.6967795328071986
 51
235.2498581933926971
  0
LINE
  5
B2C2
  8
0
 10
4361.8305082044453229
 20
182.986946178965411
 30
0.0
 11
4361.8305550508666784
 21
182.9964961057148116
 31
0.0
  0
LINE
  5
B2C3
  8
0
 10
4361.8206859379479283
 20
182.9879308495343082
 30
0.0
 11
4361.8206995998289131
 21
182.9980535059243891
 31
0.0
  0
LINE
  5
B2C4
  8
0
 10
4361.7766574885954469
 20
183.0021387029154027
 30
0.0
 11
4361.7767319414997473
 21
183.0103752112754023
 31
0.0
  0
LINE
  5
B2C5
  8
0
 10
4361.7668698178958948
 20
183.0032436619154055
 30
0.0
 11
4361.7668698178958948
 21
183.0135567068433886
 31
0.0
  0
ARC
  5
B2C6
  8
0
 10
4361.8289406569329003
 20
182.989752132705803
 30
0.0
 40
0.0084532513222992
 50
192.4421385842813095
 51
239.9852265464332959
  0
ARC
  5
B2C7
  8
0
 10
4361.823871622866136
 20
182.9894900389049042
 30
0.0
 40
0.0071074213641122
 50
276.7916707709687785
 51
339.0277335227935964
  0
ARC
  5
B2C8
  8
0
 10
4361.7692630545270731
 20
183.0064616295576059
 30
0.0
 40
0.0085653575489501
 50
277.8582063769450201
 51
329.6886324389059837
  0
ARC
  5
B2C9
  8
0
 10
4361.7751069374971848
 20
183.0049784543745943
 30
0.0
 40
0.0084178170686149
 50
191.8930673954149029
 51
236.281743085680688
  0
LINE
  5
B2CA
  8
0
 10
4361.803625187394573
 20
183.0141857697153966
 30
0.0
 11
4361.803625187394573
 21
183.0255022175740862
 31
0.0
  0
LINE
  5
B2CB
  8
0
 10
4361.7937826677953126
 20
183.0153933652962905
 30
0.0
 11
4361.7937826677953126
 21
183.0282072659476
 31
0.0
  0
ARC
  5
B2CC
  8
0
 10
4361.8043863795783182
 20
183.0176715632931064
 30
0.0
 40
0.0108456853026587
 50
192.1256163102256949
 51
231.0826585750116067
  0
ARC
  5
B2CD
  8
0
 10
4361.796507231510077
 20
183.01670959855349
 30
0.0
 40
0.0075521525405184
 50
278.1137663689286228
 51
340.4769115954750873
  0
ARC
  5
B2CE
  8
0
 10
4361.7180490615201052
 20
183.0003745798265982
 30
0.0
 40
0.0050532139366088
 50
188.4910001872293037
 51
245.686302767631588
  0
LINE
  5
B2CF
  8
0
 10
4361.7684351532798246
 20
182.9670044464147054
 30
0.0
 11
4361.7526109644250027
 21
182.9651254296603042
 31
0.0
  0
LINE
  5
B2D0
  8
0
 10
4361.7497445362960207
 20
182.969853116215404
 30
0.0
 11
4361.7497445362960207
 21
182.9748427841952889
 31
0.0
  0
LINE
  5
B2D1
  8
0
 10
4361.7186059266960001
 20
182.983503842915411
 30
0.0
 11
4361.7186059266960001
 21
182.9942866962067001
 31
0.0
  0
ARC
  5
B2D2
  8
0
 10
4361.7989090223545645
 20
182.9624422033689939
 30
0.0
 40
0.0050017886250932
 50
273.3370499884737228
 51
332.831690296778504
  0
ARC
  5
B2D3
  8
0
 10
4361.7983853709492905
 20
182.9623760865264046
 30
0.0
 40
0.0046043883570214
 50
176.9354818737573112
 51
240.666703036008812
  0
ARC
  5
B2D4
  8
0
 10
4361.7982262541863747
 20
182.9589048443195907
 30
0.0
 40
0.0066641796364956
 50
276.6960041802540786
 51
334.0646793922213078
  0
ARC
  5
B2D5
  8
0
 10
4361.8001634730953811
 20
182.9585644985085082
 30
0.0
 40
0.0063846683509862
 50
175.4591602190162973
 51
259.5305517358801808
  0
ARC
  5
B2D6
  8
0
 10
4361.8230506334230085
 20
182.9538310950970867
 30
0.0
 40
0.0051826429327796
 50
201.6730376724788982
 51
250.1644889410929125
  0
ARC
  5
B2D7
  8
0
 10
4361.816795210039345
 20
183.0095243289017048
 30
0.0
 40
0.0616564768642122
 50
277.8285512219262046
 51
282.0017580248930926
  0
ARC
  5
B2D8
  8
0
 10
4361.7181687261518164
 20
183.0002887919812906
 30
0.0
 40
0.0050263786745523
 50
244.0403707563492901
 51
351.2519932798501259
  0
ARC
  5
B2D9
  8
0
 10
4361.7255287708276228
 20
182.9841283233701006
 30
0.0
 40
0.0069509529361578
 50
185.1544591122712973
 51
238.4597022043803918
  0
ARC
  5
B2DA
  8
0
 10
4361.7551035402311754
 20
182.9698695057190037
 30
0.0
 40
0.0053590289978215
 50
180.175227797726194
 51
242.2822018374247932
  0
ARC
  5
B2DB
  8
0
 10
4361.8880295939952703
 20
182.9431030197573875
 30
0.0
 40
0.0039
 50
264.4593442442964033
 51
0.0000000001042204
  0
LINE
  5
B2DC
  8
0
 10
4361.850858628995411
 20
183.0130826278154075
 30
0.0
 11
4361.8607838589960011
 21
183.0152185601957058
 31
0.0
  0
LINE
  5
B2DD
  8
0
 10
4361.8607838589960011
 20
183.0152185601957058
 30
0.0
 11
4361.8607838589532548
 21
183.0458052605281125
 31
0.0
  0
LINE
  5
B2DE
  8
0
 10
4361.8607838589532548
 20
183.0458052605281125
 30
0.0
 11
4361.8517849395284429
 21
183.0515788051158097
 31
0.0
  0
LINE
  5
B2DF
  8
0
 10
4361.8607838603957134
 20
183.045805259815296
 30
0.0
 11
4361.8791072046242334
 21
183.0363500093141909
 31
0.0
  0
LINE
  5
B2E0
  8
0
 10
4361.8791072046242334
 20
183.0363500093141909
 30
0.0
 11
4361.8892881359543026
 21
183.0391611956748079
 31
0.0
  0
ARC
  5
B2E1
  8
0
 10
4361.888067841384327
 20
183.0429711623442017
 30
0.0
 40
0.0040006205592999
 50
287.7597474367079258
 51
344.8595325013454271
  0
LINE
  5
B2E2
  8
0
 10
4361.9332685844447042
 20
183.0687090978607046
 30
0.0
 11
4361.9252622787953442
 21
183.069493472440314
 31
0.0
  0
LINE
  5
B2E3
  8
0
 10
4361.8919295939958829
 20
183.0607991103165091
 30
0.0
 11
4361.9063553268570104
 21
183.0585834941774976
 31
0.0
  0
LINE
  5
B2E4
  8
0
 10
4361.9063553268570104
 20
183.0585834941774976
 30
0.0
 11
4361.9332685844447042
 21
183.0621071839142928
 31
0.0
  0
LINE
  5
B2E5
  8
0
 10
4361.9332685844447042
 20
183.0430375670119076
 30
0.0
 11
4361.9063289040959717
 21
183.0481378921153919
 31
0.0
  0
LINE
  5
B2E6
  8
0
 10
4361.9063289040959717
 20
183.0481378921153919
 30
0.0
 11
4361.8919295939958829
 21
183.0455025001467959
 31
0.0
  0
LINE
  5
B2E7
  8
0
 10
4361.9332685844447042
 20
183.0304083510202986
 30
0.0
 11
4361.9073395794912358
 21
183.023729522846395
 31
0.0
  0
LINE
  5
B2E8
  8
0
 10
4361.9073395794912358
 20
183.023729522846395
 30
0.0
 11
4361.9073395787945628
 21
183.0012462899154002
 31
0.0
  0
LINE
  5
B2E9
  8
0
 10
4361.9073395787945628
 20
183.0012462899154002
 30
0.0
 11
4361.9591975900948455
 21
183.0012462899154002
 31
0.0
  0
ARC
  5
B2EA
  8
0
 10
4361.9044238726501135
 20
183.0684026883330091
 30
0.0
 40
0.0447682147371419
 50
253.7942092341629916
 51
273.734256256480819
  0
ARC
  5
B2EB
  8
0
 10
4361.9347240109200357
 20
183.0367722670414992
 30
0.0
 40
0.0065282228321748
 50
193.2903601146599897
 51
257.1180073744843071
  0
ARC
  5
B2EC
  8
0
 10
4362.4656917767933919
 20
183.0407990406062879
 30
0.0
 40
0.5373495775508341
 50
179.66205139355489
 51
180.5893913382616915
  0
LINE
  5
B2ED
  8
0
 10
4361.9283437523436078
 20
183.0669564681458041
 30
0.0
 11
4361.9283469168958618
 21
183.0691912716727074
 31
0.0
  0
ARC
  5
B2EE
  8
0
 10
4361.9334713993175683
 20
183.0672385790649059
 30
0.0
 40
0.0051354016459553
 50
183.1491024546789106
 51
267.7366017339343784
  0
LINE
  5
B2EF
  8
0
 10
4361.9332685844447042
 20
182.9811437618375862
 30
0.0
 11
4361.9066956972901608
 21
182.9709363990839108
 31
0.0
  0
LINE
  5
B2F0
  8
0
 10
4361.9066956972901608
 20
182.9709363990839108
 30
0.0
 11
4361.8919295939958829
 21
182.9765469329323082
 31
0.0
  0
LINE
  5
B2F1
  8
0
 10
4361.8919295939958829
 20
182.944634901270291
 30
0.0
 11
4361.90631422426668
 21
182.9505740463116865
 31
0.0
  0
LINE
  5
B2F2
  8
0
 10
4361.90631422426668
 20
182.9505740463116865
 30
0.0
 11
4361.9261835284132758
 21
182.9422221640903956
 31
0.0
  0
ARC
  5
B2F3
  8
0
 10
4361.8985381062711895
 20
182.9679461785935928
 30
0.0
 40
0.024700454564177
 50
254.4816976769151893
 51
288.3546523076057042
  0
ARC
  5
B2F4
  8
0
 10
4361.9171632102961667
 20
182.9716534355926001
 30
0.0
 40
0.029237624139355
 50
248.2230696921444064
 51
270.0292697754550773
  0
ARC
  5
B2F5
  8
0
 10
4361.9252231615728306
 20
183.1219367003228058
 30
0.0
 40
0.1797010585362102
 50
267.4340745093115856
 51
272.5660556279095772
  0
ARC
  5
B2F6
  8
0
 10
4361.9332026510519427
 20
183.7262228446707013
 30
0.0
 40
0.7856547149878143
 50
266.9686782620927943
 51
270.0048083529213159
  0
LINE
  5
B2F7
  8
0
 10
4361.9111438916952466
 20
182.9543281367654117
 30
0.0
 11
4361.9113068367742017
 21
182.9727076621443871
 31
0.0
  0
LINE
  5
B2F8
  8
0
 10
4361.901434066996444
 20
182.9550134898153999
 30
0.0
 11
4361.901434066996444
 21
182.9729356099979896
 31
0.0
  0
ARC
  5
B2F9
  8
0
 10
4361.9089255256058095
 20
182.9583466101483964
 30
0.0
 40
0.0081994904280416
 50
203.9853691914574085
 51
251.4295068874822903
  0
ARC
  5
B2FA
  8
0
 10
4361.9054430694241091
 20
182.9566785421280883
 30
0.0
 40
0.0061663425085377
 50
278.1216768134290191
 51
337.5940210980223242
  0
LINE
  5
B2FB
  8
0
 10
4361.6453863827919122
 20
183.0174649417151898
 30
0.0
 11
4361.6323540798903196
 21
183.0167332649567129
 31
0.0
  0
ARC
  5
B2FC
  8
0
 10
4361.4635850160502741
 20
184.2818743804999997
 30
0.0
 40
0.0415424795720828
 50
145.9728267518669043
 51
176.9712746640875025
  0
ARC
  5
B2FD
  8
0
 10
4362.1685409615547542
 20
183.8058889919853982
 30
0.0
 40
0.8921451924654938
 50
106.0241602560383996
 51
145.9728267518669043
  0
ARC
  5
B2FE
  8
0
 10
4361.9337641837018964
 20
184.6233517910305864
 30
0.0
 40
0.0416361900196745
 50
90.6820128438659339
 51
106.0241602560383996
  0
ARC
  5
B2FF
  8
0
 10
4362.7908261612610659
 20
182.9493579727605947
 30
0.0
 40
2.701831654290038
 50
108.753899861478402
 51
143.2489472768583028
  0
ARC
  5
B300
  8
0
 10
4361.9332685844447042
 20
185.4750763173950929
 30
0.0
 40
0.0345
 50
71.2461001385216122
 51
108.753899861478402
  0
ARC
  5
B301
  8
0
 10
4360.6533250446409511
 20
184.5455669356356907
 30
0.0
 40
0.0340996443772498
 50
143.2489472768583028
 51
180.7623838731074954
  0
ARC
  5
B302
  8
0
 10
4363.3227070875063873
 20
184.5810881197893991
 30
0.0
 40
2.7037180150970719
 50
180.7623838731057901
 51
215.349569082024999
  0
ARC
  5
B303
  8
0
 10
4361.132347018908149
 20
183.0273800340843877
 30
0.0
 40
0.0182597589163823
 50
215.349569082024999
 51
252.9132243144779011
  0
ARC
  5
B304
  8
0
 10
4361.9787950977379296
 20
185.7810638402347081
 30
0.0
 40
2.8991014509240931
 50
252.9132243144779011
 51
261.0724392448017852
  0
LINE
  5
B305
  8
0
 10
4361.4241957347530843
 20
184.2950752186505099
 30
0.0
 11
4360.6208933138450448
 21
184.5561010983570895
 31
0.0
  0
LINE
  5
B306
  8
0
 10
4361.1216481078463403
 20
183.0125830040524875
 30
0.0
 11
4361.422100564237553
 21
183.4256848659478862
 31
0.0
  0
LINE
  5
B307
  8
0
 10
4362.4444366046518553
 20
183.0678257100229018
 30
0.0
 11
4362.4444366046518553
 21
184.2840693444680937
 31
0.0
  0
ARC
  5
B308
  8
0
 10
4361.9286729914356329
 20
185.6116671508258094
 30
0.0
 40
2.780349496435087
 50
270.094703275356494
 51
275.6676704178233877
  0
ARC
  5
B309
  8
0
 10
4362.197168890274952
 20
182.9058991639134035
 30
0.0
 40
0.0612926019498163
 50
275.6990897659392772
 51
291.8774211688696028
  0
ARC
  5
B30A
  8
0
 10
4362.0419753329042578
 20
183.2923953015510961
 30
0.0
 40
0.4777830636152669
 50
291.8774211688696028
 51
311.4303282247947777
  0
ARC
  5
B30B
  8
0
 10
4362.1456973894528346
 20
183.202905378899203
 30
0.0
 40
0.3425558688766686
 50
308.3260639775932077
 51
322.4813009864686251
  0
ARC
  5
B30C
  8
0
 10
4362.3322315334489758
 20
183.0673368949991016
 30
0.0
 40
0.1122061359456796
 50
319.3770367392788785
 51
0.2496042308640437
  0
ARC
  5
B30D
  8
0
 10
4361.9316054407709089
 20
183.1207420356024045
 30
0.0
 40
0.0786692997117957
 50
78.2480829484237148
 51
88.7886225850275537
  0
ARC
  5
B30E
  8
0
 10
4361.8269741751601032
 20
181.5193229258179031
 30
0.0
 40
1.682770405987672
 50
68.8036027591552113
 51
85.8883796249510283
  0
ARC
  5
B30F
  8
0
 10
4362.4326506658590006
 20
183.0755873848054023
 30
0.0
 40
0.012957193114392
 50
24.5490589241213399
 51
77.7194366149092133
  0
ARC
  5
B310
  8
0
 10
4361.7848846036449686
 20
181.3691552964210985
 30
0.0
 40
1.760142436432361
 50
69.8869047544270217
 51
84.8047854578798592
  0
ARC
  5
B311
  8
0
 10
4362.3860854776876295
 20
183.0108511586360862
 30
0.0
 40
0.0118267341165267
 50
23.1896599334105602
 51
69.8869047544270217
  0
ARC
  5
B312
  8
0
 10
4362.28219665681263
 20
183.0203559655662104
 30
0.0
 40
0.1148623745144471
 50
311.2821431577910971
 51
357.5811351069834245
  0
ARC
  5
B313
  8
0
 10
4361.9340625078593803
 20
183.9390337549959042
 30
0.0
 40
1.0854590619283451
 50
269.9580928784300227
 51
276.2534410983785165
  0
ARC
  5
B314
  8
0
 10
4361.9694370425477246
 20
183.6162103422346945
 30
0.0
 40
0.760703286719807
 50
276.2534410983785165
 51
286.52130842072512
  0
ARC
  5
B315
  8
0
 10
4362.1153103202550483
 20
183.1244221106138923
 30
0.0
 40
0.2477367401400032
 50
286.52130842072512
 51
305.8623560475895147
  0
ARC
  5
B316
  8
0
 10
4362.2262381661566906
 20
182.9709691431287126
 30
0.0
 40
0.0583883833311338
 50
305.8623560475895147
 51
336.530358030347827
  0
ARC
  5
B317
  8
0
 10
4362.2471178001560475
 20
182.9619035714713107
 30
0.0
 40
0.0356256131699036
 50
336.530358030347827
 51
38.8080913058729422
  0
ARC
  5
B318
  8
0
 10
4362.1590964311681091
 20
182.8809899759991993
 30
0.0
 40
0.1551265505374323
 50
41.7226460381255393
 51
71.2590238680589039
  0
ARC
  5
B319
  8
0
 10
4361.9904702583289691
 20
182.4227425089706003
 30
0.0
 40
0.6433766083609119
 50
70.1497536574312051
 51
84.905326066802175
  0
ARC
  5
B31A
  8
0
 10
4361.9351649930831627
 20
181.999040230078208
 30
0.0
 40
1.0704586024487901
 50
83.9706776954606653
 51
89.0997203004985892
  0
ARC
  5
B31B
  8
0
 10
4361.9332808333247158
 20
181.9418517295572997
 30
0.0
 40
1.127670078185921
 50
89.0496546327723451
 51
90.0006223532030702
  0
ARC
  5
B31C
  8
0
 10
4361.9113341098563978
 20
184.0639392760558906
 30
0.0
 40
1.1435986591938681
 50
271.099013083254988
 51
274.6879872984902136
  0
ARC
  5
B31D
  8
0
 10
4361.9530827119033347
 20
183.5086675802810134
 30
0.0
 40
0.5867846371742949
 50
275.0564160553960278
 51
287.0179827708877269
  0
ARC
  5
B31E
  8
0
 10
4362.0764012212266607
 20
183.1057632313340946
 30
0.0
 40
0.1654304285299065
 50
287.0179827708877269
 51
307.1906827087041734
  0
ARC
  5
B31F
  8
0
 10
4362.1420106788837074
 20
183.0192967691332058
 30
0.0
 40
0.056889883019705
 50
307.1906827087041734
 51
338.496683705532007
  0
ARC
  5
B320
  8
0
 10
4362.1663797230166892
 20
183.0096959179861074
 30
0.0
 40
0.0306977724768323
 50
338.496683705532007
 51
22.5103659726356184
  0
ARC
  5
B321
  8
0
 10
4362.1360982735941434
 20
182.9887837257157912
 30
0.0
 40
0.0671244012084944
 50
29.1194232174594987
 51
45.3754862338438514
  0
ARC
  5
B322
  8
0
 10
4361.8707713056337525
 20
184.4723930367406126
 30
0.0
 40
1.549189285361948
 50
272.3120494930456061
 51
275.2116344834136044
  0
ARC
  5
B323
  8
0
 10
4361.9224928115372677
 20
183.6386587092329137
 30
0.0
 40
0.7146142287187424
 50
277.1542520289355025
 51
284.341458454402698
  0
ARC
  5
B324
  8
0
 10
4362.0567882783998357
 20
183.1133848952015057
 30
0.0
 40
0.1724446499642292
 50
284.341458454402698
 51
303.9975662583992175
  0
ARC
  5
B325
  8
0
 10
4362.1245560986144483
 20
183.0129057638511085
 30
0.0
 40
0.0512483905598695
 50
303.9975662583992175
 51
334.5100041557839177
  0
ARC
  5
B326
  8
0
 10
4362.1456044873548308
 20
182.9994507768282119
 30
0.0
 40
0.0266379231876389
 50
341.1648962976984762
 51
42.5429783199076894
  0
ARC
  5
B327
  8
0
 10
4362.0728037271719586
 20
182.9218931603971896
 30
0.0
 40
0.1329514248401596
 50
45.957465603235228
 51
75.9453554400480328
  0
ARC
  5
B328
  8
0
 10
4361.9776838975221835
 20
182.6381746582914047
 30
0.0
 40
0.4319091090108033
 50
72.8433620714526739
 51
79.3071026255735347
  0
ARC
  5
B329
  8
0
 10
4362.0392660965399045
 20
182.8226040025535042
 30
0.0
 40
0.2429520371782617
 50
60.2785298056917114
 51
72.8347690863555641
  0
ARC
  5
B32A
  8
0
 10
4362.1291317859077026
 20
182.9800182374247015
 30
0.0
 40
0.0616923244300898
 50
30.5078522284876783
 51
60.2785298056917114
  0
ARC
  5
B32B
  8
0
 10
4362.1619680353169315
 20
182.9993663285274863
 30
0.0
 40
0.0235797555773683
 50
326.8448694552462825
 51
30.5078522284876783
  0
ARC
  5
B32C
  8
0
 10
4362.1244998102092723
 20
183.0238429626147934
 30
0.0
 40
0.0683343476201967
 50
300.2843488404291747
 51
326.8448694552462825
  0
ARC
  5
B32D
  8
0
 10
4362.0538280347300315
 20
183.144859087477613
 30
0.0
 40
0.208474999560379
 50
288.0796013893369718
 51
300.2843488404291747
  0
ARC
  5
B32E
  8
0
 10
4361.703446516112308
 20
184.2181465175927997
 30
0.0
 40
1.337506937209981
 50
287.0756923361034865
 51
288.0796013893369718
  0
ARC
  5
B32F
  8
0
 10
4362.0666891084492818
 20
183.2714550630539918
 30
0.0
 40
0.3211271515808505
 50
287.6383130079789225
 51
293.5861403048303941
  0
ARC
  5
B330
  8
0
 10
4362.1934699409248424
 20
182.9810737564866088
 30
0.0
 40
0.0042759519823821
 50
293.5861403048303941
 51
6.3508429841082492
  0
ARC
  5
B331
  8
0
 10
4363.7551486155052771
 20
183.0286707175417007
 30
0.0
 40
1.5581417279611509
 50
179.8751660285905132
 51
181.7331006466403096
  0
ARC
  5
B332
  8
0
 10
4362.193738919466341
 20
182.9808439162223976
 30
0.0
 40
0.003960703200842
 50
257.5070188760100223
 51
291.3499501136860772
  0
ARC
  5
B333
  8
0
 10
4361.9817577566873297
 20
182.0241040457661938
 30
0.0
 40
0.9759817405648927
 50
77.5070188760099796
 51
78.1362144909795262
  0
LINE
  5
B334
  8
0
 10
4362.1970856549687596
 20
183.0130037007164105
 30
0.0
 11
4362.2154961266587634
 21
183.0221594474606945
 31
0.0
  0
LINE
  5
B335
  8
0
 10
4362.215334992294629
 20
183.0255633861546016
 30
0.0
 11
4362.215334992294629
 21
183.0237257081647897
 31
0.0
  0
ARC
  5
B336
  8
0
 10
4362.2214365566396737
 20
183.0235620082482058
 30
0.0
 40
0.0061037599157694
 50
178.4631703693650024
 51
267.3165010109153172
  0
LINE
  5
B337
  8
0
 10
4361.9746075748962539
 20
182.9431030197573875
 30
0.0
 11
4361.9746075748962539
 21
183.068771926484601
 31
0.0
  0
LINE
  5
B338
  8
0
 10
4362.0090862817960442
 20
183.0669434385347074
 30
0.0
 11
4362.0090862817960442
 21
183.0563663381153958
 31
0.0
  0
LINE
  5
B339
  8
0
 10
4362.0189288014962585
 20
183.0662165247721873
 30
0.0
 11
4362.0189288014962585
 21
183.056719891715403
 31
0.0
  0
LINE
  5
B33A
  8
0
 10
4362.0640554952160528
 20
183.0605223347293986
 30
0.0
 11
4362.042817548095627
 21
183.0466159731153937
 31
0.0
  0
LINE
  5
B33B
  8
0
 10
4362.042817548095627
 20
183.0466159731153937
 30
0.0
 11
4362.0147522293618749
 21
183.0515788051158097
 31
0.0
  0
LINE
  5
B33C
  8
0
 10
4362.0418250250950223
 20
183.0267965701152946
 30
0.0
 11
4362.0156785398430657
 21
183.0130826278906966
 31
0.0
  0
LINE
  5
B33D
  8
0
 10
4362.0418250250950223
 20
183.0267965701152946
 30
0.0
 11
4362.0679715103869967
 21
183.0251916552552132
 31
0.0
  0
LINE
  5
B33E
  8
0
 10
4362.0679715103869967
 20
183.0251916552552132
 30
0.0
 11
4362.0961030414946435
 21
183.0429282036153893
 31
0.0
  0
LINE
  5
B33F
  8
0
 10
4362.0961030414946435
 20
183.0429282036153893
 30
0.0
 11
4362.1237371566812726
 21
183.0447014138873953
 31
0.0
  0
LINE
  5
B340
  8
0
 10
4362.0156785398430657
 20
183.0130826278906966
 30
0.0
 11
4362.0156785399121873
 21
182.9978245615264996
 31
0.0
  0
LINE
  5
B341
  8
0
 10
4362.0156785399121873
 20
182.9978245615264996
 30
0.0
 11
4362.0418250250513665
 21
182.9961138064099941
 31
0.0
  0
LINE
  5
B342
  8
0
 10
4362.0418250250513665
 20
182.9961138064099941
 30
0.0
 11
4362.068964033373959
 21
183.0092330447589859
 31
0.0
  0
LINE
  5
B343
  8
0
 10
4362.068964033373959
 20
183.0092330447589859
 30
0.0
 11
4362.0951105185367851
 21
183.0106659588161051
 31
0.0
  0
LINE
  5
B344
  8
0
 10
4362.0951105185367851
 20
183.0106659588161051
 30
0.0
 11
4362.1230682072446143
 21
183.0284016632153907
 31
0.0
  0
LINE
  5
B345
  8
0
 10
4362.1230682072446143
 20
183.0284016632153907
 30
0.0
 11
4362.1462214708926695
 21
183.0327350129346939
 31
0.0
  0
LINE
  5
B346
  8
0
 10
4362.0156785398958164
 20
182.9978245615153867
 30
0.0
 11
4362.0057533098952263
 21
182.9930338743153868
 31
0.0
  0
LINE
  5
B347
  8
0
 10
4362.0057533098952263
 20
182.9930338743153868
 30
0.0
 11
4362.0057533098952263
 21
182.9727384442153948
 31
0.0
  0
LINE
  5
B348
  8
0
 10
4362.0057533098952263
 20
182.9727384442153948
 30
0.0
 11
4362.0156785398958164
 21
182.971923213915403
 31
0.0
  0
LINE
  5
B349
  8
0
 10
4362.0156785398958164
 20
182.971923213915403
 30
0.0
 11
4362.0418250250941128
 21
182.9824324923754943
 31
0.0
  0
LINE
  5
B34A
  8
0
 10
4362.0418250250941128
 20
182.9824324923754943
 30
0.0
 11
4362.0679715103497074
 21
182.9836914773885042
 31
0.0
  0
LINE
  5
B34B
  8
0
 10
4362.0679715103497074
 20
182.9836914773885042
 30
0.0
 11
4362.096103041583774
 21
182.9979767053690978
 31
0.0
  0
LINE
  5
B34C
  8
0
 10
4362.096103041583774
 20
182.9979767053690978
 30
0.0
 11
4362.1234358810643243
 21
183.0029283800238034
 31
0.0
  0
LINE
  5
B34D
  8
0
 10
4362.1234358810643243
 20
183.0029283800238034
 30
0.0
 11
4362.150381057094819
 21
183.0207571443154109
 31
0.0
  0
LINE
  5
B34E
  8
0
 10
4362.150381057094819
 20
183.0207571443154109
 30
0.0
 11
4362.1588885748305984
 21
183.0232118673102093
 31
0.0
  0
LINE
  5
B34F
  8
0
 10
4362.0156785398958164
 20
182.971923213915403
 30
0.0
 11
4362.0157550092908423
 21
182.9625941890419085
 31
0.0
  0
LINE
  5
B350
  8
0
 10
4362.0157550092908423
 20
182.9625941890419085
 30
0.0
 11
4362.0419486760283689
 21
182.9633913755598087
 31
0.0
  0
LINE
  5
B351
  8
0
 10
4362.0419486760283689
 20
182.9633913755598087
 30
0.0
 11
4362.0689584384454065
 21
182.9741120027653949
 31
0.0
  0
LINE
  5
B352
  8
0
 10
4362.0689584384454065
 20
182.9741120027653949
 30
0.0
 11
4362.096148295335297
 21
182.9789485703429079
 31
0.0
  0
LINE
  5
B353
  8
0
 10
4362.096148295335297
 20
182.9789485703429079
 30
0.0
 11
4362.1232271704911909
 21
182.9934544623700958
 31
0.0
  0
LINE
  5
B354
  8
0
 10
4362.1232271704911909
 20
182.9934544623700958
 30
0.0
 11
4362.1506306360543022
 21
183.0016997667910914
 31
0.0
  0
LINE
  5
B355
  8
0
 10
4362.1506306360543022
 20
183.0016997667910914
 30
0.0
 11
4362.1606712669963599
 21
183.008382853465406
 31
0.0
  0
LINE
  5
B356
  8
0
 10
4362.1606712669963599
 20
183.008382853465406
 30
0.0
 11
4362.1699880909027343
 21
183.0101754600295862
 31
0.0
  0
LINE
  5
B357
  8
0
 10
4362.0157550092908423
 20
182.9625941890419085
 30
0.0
 11
4362.0057533098915883
 21
182.9591589511830989
 31
0.0
  0
LINE
  5
B358
  8
0
 10
4362.0057533098915883
 20
182.9591589511830989
 30
0.0
 11
4362.0057533098952263
 21
182.9485140898154043
 31
0.0
  0
LINE
  5
B359
  8
0
 10
4362.0057533098952263
 20
182.9485140898154043
 30
0.0
 11
4362.0146860173235837
 21
182.9491358523501106
 31
0.0
  0
LINE
  5
B35A
  8
0
 10
4362.0146860173235837
 20
182.9491358523501106
 30
0.0
 11
4362.0418250250950223
 21
182.9566703076154113
 31
0.0
  0
LINE
  5
B35B
  8
0
 10
4362.0418250250950223
 20
182.9566703076154113
 30
0.0
 11
4362.0691451226939535
 21
182.9611330541362122
 31
0.0
  0
LINE
  5
B35C
  8
0
 10
4362.0691451226939535
 20
182.9611330541362122
 30
0.0
 11
4362.0960477986945989
 21
182.9722478530154035
 31
0.0
  0
LINE
  5
B35D
  8
0
 10
4362.0960477986945989
 20
182.9722478530154035
 30
0.0
 11
4362.1234238278702833
 21
182.980507712633198
 31
0.0
  0
LINE
  5
B35E
  8
0
 10
4362.1234238278702833
 20
182.980507712633198
 30
0.0
 11
4362.1505686784066711
 21
182.9957695613406941
 31
0.0
  0
LINE
  5
B35F
  8
0
 10
4362.1505686784066711
 20
182.9957695613406941
 30
0.0
 11
4362.1670829516069716
 21
182.9935137502722
 31
0.0
  0
ARC
  5
B360
  8
0
 10
4361.9332689901802951
 20
183.4094549269198922
 30
0.0
 40
0.472440959640737
 50
275.5406557554418896
 51
278.825470872705921
  0
ARC
  5
B361
  8
0
 10
4362.0051492739830792
 20
182.9464979334011048
 30
0.0
 40
0.0039370076324422
 50
278.825470872705921
 51
320.3531509652182763
  0
ARC
  5
B362
  8
0
 10
4361.929600270776973
 20
183.6706967805546924
 30
0.0
 40
0.7309470419247752
 50
276.1715100204514783
 51
280.2206667663753024
  0
ARC
  5
B363
  8
0
 10
4362.0392479772608567
 20
183.1641085635249055
 30
0.0
 40
0.2137026854635209
 50
275.3838798587663064
 51
305.2790310172841828
  0
ARC
  5
B364
  8
0
 10
4362.0214222841459559
 20
183.1553965879705004
 30
0.0
 40
0.2177684164121449
 50
310.4385456601476108
 51
313.1605045863652776
  0
ARC
  5
B365
  8
0
 10
4361.9386102203361588
 20
183.6096658509889892
 30
0.0
 40
0.6768455050172522
 50
273.0486573711543201
 51
279.2064735889043732
  0
ARC
  5
B366
  8
0
 10
4361.9864211260455704
 20
183.3146835836232071
 30
0.0
 40
0.3780137450500269
 50
279.2064735889043732
 51
293.6989202340078009
  0
ARC
  5
B367
  8
0
 10
4362.1091146516582739
 20
183.0351656184778051
 30
0.0
 40
0.0727532103164054
 50
293.6989202340078009
 51
324.2979341818772809
  0
ARC
  5
B368
  8
0
 10
4362.1509910919876347
 20
183.0050720539489078
 30
0.0
 40
0.0211852078259917
 50
324.297934181878702
 51
353.5760806695157044
  0
LINE
  5
B369
  8
0
 10
4362.0146860173235837
 20
182.9491358523501106
 30
0.0
 11
4362.0147194884948476
 21
182.9455082110725925
 31
0.0
  0
LINE
  5
B36A
  8
0
 10
4362.0147194884948476
 20
182.9455082110725925
 30
0.0
 11
4362.0418250250950223
 21
182.9500344973153858
 31
0.0
  0
LINE
  5
B36B
  8
0
 10
4362.0418250250950223
 20
182.9500344973153858
 30
0.0
 11
4362.0688174932956827
 21
182.9578791648017102
 31
0.0
  0
LINE
  5
B36C
  8
0
 10
4362.0688174932956827
 20
182.9578791648017102
 30
0.0
 11
4362.0961030415519417
 21
182.9661661309160081
 31
0.0
  0
LINE
  5
B36D
  8
0
 10
4362.0961030415519417
 20
182.9661661309160081
 30
0.0
 11
4362.1232420489986907
 21
182.9775474944950986
 31
0.0
  0
LINE
  5
B36E
  8
0
 10
4362.1232420489986907
 20
182.9775474944950986
 30
0.0
 11
4362.1318402780625547
 21
182.9812284726068867
 31
0.0
  0
LINE
  5
B36F
  8
0
 10
4362.1318402780625547
 20
182.9812284726068867
 30
0.0
 11
4362.1446444284911195
 21
182.9782042175772006
 31
0.0
  0
LINE
  5
B370
  8
0
 10
4362.0359991315954176
 20
183.0320654919154038
 30
0.0
 11
4362.0359991315954176
 21
183.0478216838332912
 31
0.0
  0
LINE
  5
B371
  8
0
 10
4362.045813285294571
 20
183.0320681423154099
 30
0.0
 11
4362.0458515047848778
 21
183.0486025727904007
 31
0.0
  0
LINE
  5
B372
  8
0
 10
4362.0898248312960277
 20
183.0479770824154002
 30
0.0
 11
4362.0898248312960277
 21
183.0552716367257062
 31
0.0
  0
LINE
  5
B373
  8
0
 10
4362.0996589373908137
 20
183.0484548130617952
 30
0.0
 11
4362.0996696801830694
 21
183.052499346519312
 31
0.0
  0
LINE
  5
B374
  8
0
 10
4362.1167376810954011
 20
183.0332138895153946
 30
0.0
 11
4362.1167376810954011
 21
183.0442522754972003
 31
0.0
  0
LINE
  5
B375
  8
0
 10
4362.1265885115526544
 20
183.0342925746710137
 30
0.0
 11
4362.126576677884259
 21
183.0434848999962014
 31
0.0
  0
LINE
  5
B376
  8
0
 10
4362.1436505308947744
 20
183.025372698604599
 30
0.0
 11
4362.1436505308947744
 21
183.0322538374821022
 31
0.0
  0
LINE
  5
B377
  8
0
 10
4362.1534495208534281
 20
183.0253619176469897
 30
0.0
 11
4362.1535058882172962
 21
183.0275494075839902
 31
0.0
  0
LINE
  5
B378
  8
0
 10
4362.1167701351459982
 20
182.9970031541654123
 30
0.0
 11
4362.1167282741898816
 21
183.001713215862992
 31
0.0
  0
LINE
  5
B379
  8
0
 10
4362.126541763737805
 20
182.9975547073796065
 30
0.0
 11
4362.1265893479449005
 21
183.0050149285640941
 31
0.0
  0
LINE
  5
B37A
  8
0
 10
4362.062939390187239
 20
182.9781866238079999
 30
0.0
 11
4362.0629036943091705
 21
182.9834474558927013
 31
0.0
  0
LINE
  5
B37B
  8
0
 10
4362.0727545010950053
 20
182.97916512961541
 30
0.0
 11
4362.0727545010950053
 21
182.9861202862817038
 31
0.0
  0
LINE
  5
B37C
  8
0
 10
4362.0360137375600971
 20
182.9606205577732112
 30
0.0
 11
4362.0359889918408953
 21
182.9632099966054
 31
0.0
  0
LINE
  5
B37D
  8
0
 10
4362.0458416512956319
 20
182.9613610324153967
 30
0.0
 11
4362.0458416512956319
 21
182.964936562663496
 31
0.0
  0
LINE
  5
B37E
  8
0
 10
4362.0090862817960442
 20
182.9527082172153882
 30
0.0
 11
4362.0090862817960442
 21
182.9603037117690008
 31
0.0
  0
LINE
  5
B37F
  8
0
 10
4362.0898248312960277
 20
182.9764394140900947
 30
0.0
 11
4362.0898248312960277
 21
182.9778237442259012
 31
0.0
  0
LINE
  5
B380
  8
0
 10
4362.0996673509953325
 20
182.9771086987063029
 30
0.0
 11
4362.0996673509953325
 21
182.9808336944909968
 31
0.0
  0
LINE
  5
B381
  8
0
 10
4362.1534859333760323
 20
182.9996284522813994
 30
0.0
 11
4362.1534938977683851
 21
183.003605565970588
 31
0.0
  0
ARC
  5
B382
  8
0
 10
4362.0411459760007347
 20
183.0319010714385968
 30
0.0
 40
0.0051494700145701
 50
178.1702581413732958
 51
277.5775365814488964
  0
ARC
  5
B383
  8
0
 10
4362.0412119903912753
 20
183.0314048325903968
 30
0.0
 40
0.004648859493229
 50
277.5775365814488964
 51
8.2030862715403803
  0
ARC
  5
B384
  8
0
 10
4362.0128061636378334
 20
183.0574268192262082
 30
0.0
 40
0.0061633141115219
 50
288.4060896164739916
 51
353.4137213970470839
  0
ARC
  5
B385
  8
0
 10
4362.0166052993872654
 20
183.0595184087954124
 30
0.0
 40
0.0081529856556783
 50
202.7440695692579027
 51
256.8625843437898766
  0
ARC
  5
B386
  8
0
 10
4362.0958253172757395
 20
183.0490107301363025
 30
0.0
 40
0.006088863573657
 50
189.7738866417892041
 51
272.6142724451847243
  0
ARC
  5
B387
  8
0
 10
4362.0948747606908
 20
183.0476257569210929
 30
0.0
 40
0.0048554794610461
 50
284.6532114020923245
 51
9.831225170481467
  0
ARC
  5
B388
  8
0
 10
4362.1205645725785871
 20
183.0338950823989137
 30
0.0
 40
0.006037039081241
 50
294.5012031208826784
 51
3.7752144545035482
  0
ARC
  5
B389
  8
0
 10
4362.1220975725736935
 20
183.0336948293906119
 30
0.0
 40
0.0053814254454
 50
185.1273848296557958
 51
280.3911708859404257
  0
ARC
  5
B38A
  8
0
 10
4362.1481546836093912
 20
183.0255654700233094
 30
0.0
 40
0.0052987484383589
 50
294.8453011600270202
 51
357.798430591145177
  0
ARC
  5
B38B
  8
0
 10
4362.1496854985944083
 20
183.0269579569703922
 30
0.0
 40
0.0062397018527744
 50
194.7178901604877126
 51
276.4002365305844933
  0
ARC
  5
B38C
  8
0
 10
4362.1205831289789785
 20
182.9989817396057958
 30
0.0
 40
0.006127132213444
 50
295.5646985736942156
 51
346.5319103329189829
  0
ARC
  5
B38D
  8
0
 10
4362.1212709633618942
 20
182.9975438456449979
 30
0.0
 40
0.0045331889334166
 50
186.8502036832254021
 51
295.5646985736942156
  0
ARC
  5
B38E
  8
0
 10
4362.0924677898337904
 20
182.9786916945068072
 30
0.0
 40
0.007371536923065
 50
299.0552626223696961
 51
347.5994715131915882
  0
ARC
  5
B38F
  8
0
 10
4362.0949157515397019
 20
182.9772823880811075
 30
0.0
 40
0.0051602397317965
 50
189.4019455775583083
 51
282.6725490484932948
  0
ARC
  5
B390
  8
0
 10
4362.0643514503772167
 20
182.9815253346982047
 30
0.0
 40
0.0087282202886387
 50
301.858733726027026
 51
344.3112863460711992
  0
ARC
  5
B391
  8
0
 10
4362.0687124376136126
 20
182.9802316021464037
 30
0.0
 40
0.0061245418598751
 50
199.5055999756256995
 51
272.3019847782044849
  0
ARC
  5
B392
  8
0
 10
4362.0401857802326049
 20
182.9621390416704116
 30
0.0
 40
0.0057091309222015
 50
286.6860235600190094
 51
352.1676725288778016
  0
ARC
  5
B393
  8
0
 10
4362.0405249733303208
 20
182.9610074493816114
 30
0.0
 40
0.0045277956328397
 50
184.9017938026092054
 51
286.6860235600735791
  0
ARC
  5
B394
  8
0
 10
4362.0004636931098503
 20
182.9561390006068109
 30
0.0
 40
0.009280049046659
 50
304.7501418066071892
 51
338.3032204671928866
  0
LINE
  5
B395
  8
0
 10
4362.0360289644449949
 20
182.986946178965411
 30
0.0
 11
4362.03598211802273
 21
182.9964961057148116
 31
0.0
  0
LINE
  5
B396
  8
0
 10
4362.0458512309423895
 20
182.9879308495343082
 30
0.0
 11
4362.0458375690623143
 21
182.9980535059243891
 31
0.0
  0
LINE
  5
B397
  8
0
 10
4362.0898796802957804
 20
183.0021387029154027
 30
0.0
 11
4362.0898052273905705
 21
183.0103752112754023
 31
0.0
  0
LINE
  5
B398
  8
0
 10
4362.0996673509953325
 20
183.0032436619154055
 30
0.0
 11
4362.0996673509953325
 21
183.0135567068433886
 31
0.0
  0
ARC
  5
B399
  8
0
 10
4362.0375965119574175
 20
182.989752132705803
 30
0.0
 40
0.0084532513222992
 50
300.0147734535667041
 51
347.5578614157186053
  0
ARC
  5
B39A
  8
0
 10
4362.0426655460250913
 20
182.9894900389049042
 30
0.0
 40
0.0071074213641122
 50
200.9722664772064036
 51
263.2083292290312215
  0
ARC
  5
B39B
  8
0
 10
4362.0972741143641542
 20
183.0064616295576059
 30
0.0
 40
0.0085653575489501
 50
210.3113675610939879
 51
262.1417936230549799
  0
ARC
  5
B39C
  8
0
 10
4362.0914302313940425
 20
183.0049784543745943
 30
0.0
 40
0.0084178170686149
 50
303.7182569143192268
 51
348.1069326045849834
  0
LINE
  5
B39D
  8
0
 10
4362.0629119814948353
 20
183.0141857697153966
 30
0.0
 11
4362.0629119814948353
 21
183.0255022175740862
 31
0.0
  0
LINE
  5
B39E
  8
0
 10
4362.0727545010950053
 20
183.0153933652962905
 30
0.0
 11
4362.0727545010950053
 21
183.0282072659476
 31
0.0
  0
ARC
  5
B39F
  8
0
 10
4362.0621507893119997
 20
183.0176715632931064
 30
0.0
 40
0.0108456853026587
 50
308.9173414249884217
 51
347.8743836897742199
  0
ARC
  5
B3A0
  8
0
 10
4362.0700299373811504
 20
183.01670959855349
 30
0.0
 40
0.0075521525405184
 50
199.5230884045232926
 51
261.8862336310713772
  0
ARC
  5
B3A1
  8
0
 10
4362.1484881073711222
 20
183.0003745798265982
 30
0.0
 40
0.0050532139366088
 50
294.3136972323683835
 51
351.508999812768991
  0
LINE
  5
B3A2
  8
0
 10
4362.0981020156114027
 20
182.9670044464147054
 30
0.0
 11
4362.1139262044662246
 21
182.9651254296603042
 31
0.0
  0
LINE
  5
B3A3
  8
0
 10
4362.1167926325952067
 20
182.969853116215404
 30
0.0
 11
4362.1167926325952067
 21
182.9748427841952889
 31
0.0
  0
LINE
  5
B3A4
  8
0
 10
4362.1479312421952272
 20
182.983503842915411
 30
0.0
 11
4362.1479312421952272
 21
182.9942866962067001
 31
0.0
  0
ARC
  5
B3A5
  8
0
 10
4362.0676281465357533
 20
182.9624422033689939
 30
0.0
 40
0.0050017886250932
 50
207.168309703221496
 51
266.6629500115262772
  0
ARC
  5
B3A6
  8
0
 10
4362.0681517979419368
 20
182.9623760865264046
 30
0.0
 40
0.0046043883570214
 50
299.333296963991188
 51
3.0645181262426799
  0
ARC
  5
B3A7
  8
0
 10
4362.0683109147057621
 20
182.9589048443195907
 30
0.0
 40
0.0066641796364956
 50
205.9353206077786922
 51
263.3039958197459214
  0
ARC
  5
B3A8
  8
0
 10
4362.0663736957949368
 20
182.9585644985085082
 30
0.0
 40
0.0063846683509862
 50
280.4694482641198192
 51
4.5408397809836734
  0
ARC
  5
B3A9
  8
0
 10
4362.0434865354682188
 20
182.9538310950970867
 30
0.0
 40
0.0051826429327796
 50
289.835511058907116
 51
338.3269623275210733
  0
ARC
  5
B3AA
  8
0
 10
4362.0497419588509729
 20
183.0095243289017048
 30
0.0
 40
0.0616564768642122
 50
257.9982419751069074
 51
262.1714487780737954
  0
ARC
  5
B3AB
  8
0
 10
4362.148368442737592
 20
183.0002887919812906
 30
0.0
 40
0.0050263786745523
 50
188.7480067201499025
 51
295.9596292436506815
  0
ARC
  5
B3AC
  8
0
 10
4362.1410083980626951
 20
182.9841283233701006
 30
0.0
 40
0.0069509529361578
 50
301.5402977956194945
 51
354.8455408877287027
  0
ARC
  5
B3AD
  8
0
 10
4362.1114336286600519
 20
182.9698695057190037
 30
0.0
 40
0.0053590289978215
 50
297.7177981625752068
 51
359.8247722022737776
  0
ARC
  5
B3AE
  8
0
 10
4361.9785075748950476
 20
182.9431030197573875
 30
0.0
 40
0.0039
 50
179.9999999998956923
 51
275.5406557557037104
  0
LINE
  5
B3AF
  8
0
 10
4362.0156785398958164
 20
183.0130826278154075
 30
0.0
 11
4362.0057533098952263
 21
183.0152185601957058
 31
0.0
  0
LINE
  5
B3B0
  8
0
 10
4362.0057533098952263
 20
183.0152185601957058
 30
0.0
 11
4362.005753309937063
 21
183.0458052605281125
 31
0.0
  0
LINE
  5
B3B1
  8
0
 10
4362.005753309937063
 20
183.0458052605281125
 30
0.0
 11
4362.0147522293618749
 21
183.0515788051158097
 31
0.0
  0
LINE
  5
B3B2
  8
0
 10
4362.0057533084946044
 20
183.045805259815296
 30
0.0
 11
4361.9874299642660844
 21
183.0363500093141909
 31
0.0
  0
LINE
  5
B3B3
  8
0
 10
4361.9874299642660844
 20
183.0363500093141909
 30
0.0
 11
4361.9772490329360153
 21
183.0391611956748079
 31
0.0
  0
ARC
  5
B3B4
  8
0
 10
4361.9784693275069003
 20
183.0429711623442017
 30
0.0
 40
0.0040006205592999
 50
195.1404674986544876
 51
252.2402525632921026
  0
LINE
  5
B3B5
  8
0
 10
4361.9332685844447042
 20
183.0687090978607046
 30
0.0
 11
4361.9412748900958832
 21
183.069493472440314
 31
0.0
  0
LINE
  5
B3B6
  8
0
 10
4361.9746075748962539
 20
183.0607991103165091
 30
0.0
 11
4361.960181842034217
 21
183.0585834941774976
 31
0.0
  0
LINE
  5
B3B7
  8
0
 10
4361.960181842034217
 20
183.0585834941774976
 30
0.0
 11
4361.9332685844447042
 21
183.0621071839142928
 31
0.0
  0
LINE
  5
B3B8
  8
0
 10
4361.9332685844447042
 20
183.0430375670119076
 30
0.0
 11
4361.9602082647952557
 21
183.0481378921153919
 31
0.0
  0
LINE
  5
B3B9
  8
0
 10
4361.9602082647952557
 20
183.0481378921153919
 30
0.0
 11
4361.9746075748962539
 21
183.0455025001467959
 31
0.0
  0
LINE
  5
B3BA
  8
0
 10
4361.9332685844447042
 20
183.0304083510202986
 30
0.0
 11
4361.9591975894009011
 21
183.023729522846395
 31
0.0
  0
LINE
  5
B3BB
  8
0
 10
4361.9591975894009011
 20
183.023729522846395
 30
0.0
 11
4361.9591975900948455
 21
183.0012462899154002
 31
0.0
  0
ARC
  5
B3BC
  8
0
 10
4361.9621132962402044
 20
183.0684026883330091
 30
0.0
 40
0.0447682147371419
 50
266.265743743519181
 51
286.2057907658376052
  0
ARC
  5
B3BD
  8
0
 10
4361.9318131579711917
 20
183.0367722670414992
 30
0.0
 40
0.0065282228321748
 50
282.8819926255156929
 51
346.7096398853399819
  0
ARC
  5
B3BE
  8
0
 10
4361.4008453920987449
 20
183.0407990406062879
 30
0.0
 40
0.5373495775508341
 50
359.4106086617366032
 51
0.3379486064450999
  0
LINE
  5
B3BF
  8
0
 10
4361.9381934165467101
 20
183.0669564681458041
 30
0.0
 11
4361.9381902519953655
 21
183.0691912716727074
 31
0.0
  0
ARC
  5
B3C0
  8
0
 10
4361.9330657695718401
 20
183.0672385790649059
 30
0.0
 40
0.0051354016459553
 50
272.2633982660656216
 51
356.8508975453211178
  0
LINE
  5
B3C1
  8
0
 10
4361.9332685844447042
 20
182.9811437618375862
 30
0.0
 11
4361.9598414716010666
 21
182.9709363990839108
 31
0.0
  0
LINE
  5
B3C2
  8
0
 10
4361.9598414716010666
 20
182.9709363990839108
 30
0.0
 11
4361.9746075748962539
 21
182.9765469329323082
 31
0.0
  0
LINE
  5
B3C3
  8
0
 10
4361.9746075748962539
 20
182.944634901270291
 30
0.0
 11
4361.9602229446227284
 21
182.9505740463116865
 31
0.0
  0
LINE
  5
B3C4
  8
0
 10
4361.9602229446227284
 20
182.9505740463116865
 30
0.0
 11
4361.9403536404779516
 21
182.9422221640903956
 31
0.0
  0
ARC
  5
B3C5
  8
0
 10
4361.9679990626200379
 20
182.9679461785935928
 30
0.0
 40
0.024700454564177
 50
251.6453476923942958
 51
285.5183023230848107
  0
ARC
  5
B3C6
  8
0
 10
4361.9493739585932417
 20
182.9716534355926001
 30
0.0
 40
0.029237624139355
 50
269.9707302245449227
 51
291.7769303078555936
  0
ARC
  5
B3C7
  8
0
 10
4361.9413140073165778
 20
183.1219367003228058
 30
0.0
 40
0.1797010585362102
 50
267.4339443720904228
 51
272.5659254906883007
  0
ARC
  5
B3C8
  8
0
 10
4361.9333345178383752
 20
183.7262228446707013
 30
0.0
 40
0.7856547149878143
 50
269.9951916470786841
 51
273.031321737907092
  0
LINE
  5
B3C9
  8
0
 10
4361.9553932771950713
 20
182.9543281367654117
 30
0.0
 11
4361.9552303321161162
 21
182.9727076621443871
 31
0.0
  0
LINE
  5
B3CA
  8
0
 10
4361.9651031018956928
 20
182.9550134898153999
 30
0.0
 11
4361.9651031018956928
 21
182.9729356099979896
 31
0.0
  0
ARC
  5
B3CB
  8
0
 10
4361.9576116432835988
 20
182.9583466101483964
 30
0.0
 40
0.0081994904280416
 50
288.5704931125176245
 51
336.0146308085426199
  0
ARC
  5
B3CC
  8
0
 10
4361.9610940994652992
 20
182.9566785421280883
 30
0.0
 40
0.0061663425085377
 50
202.4059789019777043
 51
261.8783231865709809
  0
LINE
  5
B3CD
  8
0
 10
4362.2211507860984057
 20
183.0174649417151898
 30
0.0
 11
4362.2341830890018173
 21
183.0167332649567129
 31
0.0
  0
ARC
  5
B3CE
  8
0
 10
4362.4029521528409532
 20
184.2818743804999997
 30
0.0
 40
0.0415424795720828
 50
3.0287253359125468
 51
34.0271732481330389
  0
ARC
  5
B3CF
  8
0
 10
4361.6979962073355637
 20
183.8058889919853982
 30
0.0
 40
0.8921451924654938
 50
34.0271732481330389
 51
73.9758397439615294
  0
ARC
  5
B3D0
  8
0
 10
4361.9327729851884214
 20
184.6233517910305864
 30
0.0
 40
0.0416361900196745
 50
73.9758397439615294
 51
89.3179871561340519
  0
ARC
  5
B3D1
  8
0
 10
4361.075711007629252
 20
182.9493579727605947
 30
0.0
 40
2.701831654290038
 50
36.7510527231416972
 51
71.2461001385216122
  0
ARC
  5
B3D2
  8
0
 10
4363.2132121242493668
 20
184.5455669356356907
 30
0.0
 40
0.0340996443772498
 50
359.2376161268925898
 51
36.7510527231416972
  0
ARC
  5
B3D3
  8
0
 10
4360.54383008138484
 20
184.5810881197893991
 30
0.0
 40
2.7037180150970719
 50
324.6504309179749725
 51
359.2376161268925898
  0
ARC
  5
B3D4
  8
0
 10
4362.7341901499830783
 20
183.0273800340843877
 30
0.0
 40
0.0182597589163823
 50
287.0867756854678987
 51
324.6504309179749725
  0
ARC
  5
B3D5
  8
0
 10
4361.8877420711532977
 20
185.7810638402347081
 30
0.0
 40
2.8991014509240931
 50
278.9275607551981011
 51
287.0867756854678987
  0
LINE
  5
B3D6
  8
0
 10
4362.4423414341381431
 20
184.2950752186505099
 30
0.0
 11
4363.2456438550452731
 21
184.5561010983570895
 31
0.0
  0
LINE
  5
B3D7
  8
0
 10
4362.7448890610448871
 20
183.0125830040524875
 30
0.0
 11
4362.4444366046518553
 21
183.4256848659478862
 31
0.0
  0
ARC
  5
B3D8
  8
0
 10
4361.9332685844447042
 20
183.3975527989186958
 30
0.0
 40
0.4656132836554807
 50
264.9063470193148078
 51
275.0936529806850785
  0
LINE
  5
B3D9
  8
0
 10
4361.9222727208452852
 20
183.122067006042812
 30
0.0
 11
4361.9442644480450326
 21
183.122067006042812
 31
0.0
  0
ARC
  5
B3DA
  8
0
 10
4364.6463067828917701
 20
184.5257809268948961
 30
0.0
 40
2.3801346646578332
 50
357.9876087475042823
 51
359.0778141821131157
  0
ARC
  5
B3DB
  8
0
 10
4364.6463067828917701
 20
184.5257809268948961
 30
0.0
 40
2.3801346646578332
 50
324.9211592250434251
 51
342.692243180493108
  0
ARC
  5
B3DC
  8
0
 10
4367.5023715829138382
 20
184.4798080832707114
 30
0.0
 40
0.4763001139220539
 50
178.7340670197212091
 51
179.0778141821130873
  0
ARC
  5
B3DD
  8
0
 10
4366.9093451545077187
 20
184.4840681753074136
 30
0.0
 40
0.1170102903300273
 50
3.0681166267089162
 51
6.5345877684965066
  0
ARC
  5
B3DE
  8
0
 10
4366.982925528504893
 20
184.4891916188173866
 30
0.0
 40
0.0434491272128629
 50
10.8686373755003505
 51
39.0037761495983588
  0
ARC
  5
B3DF
  8
0
 10
4365.1145887753818897
 20
183.0876649492300032
 30
0.0
 40
2.3790051110645392
 50
36.9141420959906981
 51
71.4747106688149785
  0
ARC
  5
B3E0
  8
0
 10
4365.8704538780211806
 20
185.4197869456639864
 30
0.0
 40
2.3845369673104879
 50
252.9548118285117084
 51
287.0451881714882916
  0
ARC
  5
B3E1
  8
0
 10
4366.5601284264303104
 20
183.1787824461972889
 30
0.0
 40
0.0398870855190967
 50
283.4754559636276099
 51
328.4472923165797056
  0
ARC
  5
B3E2
  8
0
 10
4367.094600973150591
 20
184.5257809268948961
 30
0.0
 40
2.3801346646578332
 50
180.9221858178835873
 51
215.0788407749539886
  0
ARC
  5
B3E3
  8
0
 10
4364.2385361731276134
 20
184.4798080832709104
 30
0.0
 40
0.4763001139220539
 50
0.9221858178836093
 51
1.2659329802739441
  0
ARC
  5
B3E4
  8
0
 10
4364.831562601533733
 20
184.4840681753074989
 30
0.0
 40
0.1170102903300273
 50
173.4654122314985898
 51
176.9318833732895087
  0
ARC
  5
B3E5
  8
0
 10
4364.7579822275383776
 20
184.4891916188175003
 30
0.0
 40
0.0434491272128629
 50
140.9962238503358947
 51
169.1313626244979957
  0
ARC
  5
B3E6
  8
0
 10
4366.6263189806595619
 20
183.0876649492300032
 30
0.0
 40
2.3790051110645392
 50
108.5252893311849931
 51
143.0858579040080087
  0
ARC
  5
B3E7
  8
0
 10
4365.1807793296129603
 20
183.1787824461974026
 30
0.0
 40
0.0398870855190967
 50
211.552707683356914
 51
256.5245440363723901
  0
LINE
  5
B3E8
  8
0
 10
4366.5814802946715645
 20
183.1450926032972859
 30
0.0
 11
4366.0944565357649481
 21
183.8156224740559992
 31
0.0
  0
LINE
  5
B3E9
  8
0
 10
4365.1552212993710782
 20
183.1481631253973887
 30
0.0
 11
4365.6862994698612965
 21
183.8749518074480136
 31
0.0
  0
LINE
  5
B3EA
  8
0
 10
4366.8399433945169221
 20
184.4426151478818952
 30
0.0
 11
4367.0242380078698261
 21
184.5026491707563991
 31
0.0
  0
LINE
  5
B3EB
  8
0
 10
4365.5720082728248599
 20
184.2249302554527901
 30
0.0
 11
4364.7166733503709111
 21
184.5032090275973928
 31
0.0
  0
LINE
  5
B3EC
  8
0
 10
4368.7834658870451676
 20
183.8990544038921939
 30
0.0
 11
4368.7834658870451676
 21
184.361540272973798
 31
0.0
  0
LINE
  5
B3ED
  8
0
 10
4368.7078404547328319
 20
184.4384342160595907
 30
0.0
 11
4365.8114998911087241
 21
184.4449171227940099
 31
0.0
  0
LINE
  5
B3EE
  8
0
 10
4368.7723942057264139
 20
184.388923960832102
 30
0.0
 11
4368.7361505245771696
 21
184.4264179081440034
 31
0.0
  0
LINE
  5
B3EF
  8
0
 10
4368.7723947146669161
 20
183.8716712425407991
 30
0.0
 11
4368.736141943804796
 21
183.8341664970753015
 31
0.0
  0
LINE
  5
B3F0
  8
0
 10
4368.70783226376534
 20
183.8221496630795002
 30
0.0
 11
4365.8118678990840635
 21
183.8149166783192072
 31
0.0
  0
ARC
  5
B3F1
  8
0
 10
4368.7440658870445986
 20
183.8990544038921939
 30
0.0
 40
0.0394
 50
315.9724564537776246
 51
0.0000000000032569
  0
ARC
  5
B3F2
  8
0
 10
4368.7078131161842975
 20
183.8615496584266964
 30
0.0
 40
0.0394
 50
270.0278445570273789
 51
315.972456453776374
  0
ARC
  5
B3F3
  8
0
 10
4368.7440658870445986
 20
184.361540272973798
 30
0.0
 40
0.0394
 50
359.9999999999984084
 51
44.02860842932769
  0
ARC
  5
B3F4
  8
0
 10
4368.7078222058962638
 20
184.399034220285813
 30
0.0
 40
0.0394
 50
44.0286084293265176
 51
89.9734624015788569
  0
LINE
  5
B3F5
  8
0
 10
4365.5552756075076104
 20
184.1302973384331096
 30
0.0
 11
4368.7834658870451676
 21
184.130297338432996
 31
0.0
  0
ARC
  5
B3F6
  8
0
 10
4365.8891142706870596
 20
184.1200649043572923
 30
0.0
 40
0.3339954426941032
 50
103.4373243699456992
 51
178.2443861121911937
  0
ARC
  5
B3F7
  8
0
 10
4365.8906915199213472
 20
184.1411187222203978
 30
0.0
 40
0.3355904299100845
 50
181.8478688994505035
 51
256.4154260010107009
  0
LINE
  5
B3F8
  8
0
 10
4365.8702748747791702
 20
184.4447855661869085
 30
0.0
 11
4365.8702742246323396
 21
185.3433381625640948
 31
0.0
  0
LINE
  5
B3F9
  8
0
 10
4368.7361505245771696
 20
184.4264179081440034
 30
0.0
 11
4368.736141943804796
 21
183.8341664970753015
 31
0.0
  0
ARC
  5
B3FA
  8
0
 10
4359.2202303859985477
 20
184.5257809268948961
 30
0.0
 40
2.3801346646578332
 50
180.922185817886799
 51
182.0123912524956893
  0
ARC
  5
B3FB
  8
0
 10
4359.2202303859985477
 20
184.5257809268948961
 30
0.0
 40
2.3801346646578332
 50
197.3077568195068068
 51
215.0788407749566034
  0
ARC
  5
B3FC
  8
0
 10
4356.3641655859773891
 20
184.4798080832707114
 30
0.0
 40
0.4763001139220539
 50
0.9221858178868659
 51
1.2659329802788291
  0
ARC
  5
B3FD
  8
0
 10
4356.9571920143825992
 20
184.4840681753074136
 30
0.0
 40
0.1170102903300273
 50
173.4654122315035067
 51
176.9318833732926919
  0
ARC
  5
B3FE
  8
0
 10
4356.8836116403872438
 20
184.4891916188173866
 30
0.0
 40
0.0434491272128629
 50
140.9962238504016057
 51
169.1313626244995874
  0
ARC
  5
B3FF
  8
0
 10
4358.7519483935102471
 20
183.0876649492300032
 30
0.0
 40
2.3790051110645392
 50
108.5252893311849931
 51
143.0858579040092877
  0
ARC
  5
B400
  8
0
 10
4357.9960832908700468
 20
185.4197869456639864
 30
0.0
 40
2.3845369673104879
 50
252.9548118285117084
 51
287.0451881714882916
  0
ARC
  5
B401
  8
0
 10
4357.3064087424618265
 20
183.1787824461972889
 30
0.0
 40
0.0398870855190967
 50
211.5527076834202944
 51
256.5245440363723901
  0
ARC
  5
B402
  8
0
 10
4356.7719361957397268
 20
184.5257809268948961
 30
0.0
 40
2.3801346646578332
 50
324.921159225045983
 51
359.0778141821164127
  0
ARC
  5
B403
  8
0
 10
4359.6280009957627044
 20
184.4798080832709104
 30
0.0
 40
0.4763001139220539
 50
178.7340670197260124
 51
179.0778141821164127
  0
ARC
  5
B404
  8
0
 10
4359.0349745673556754
 20
184.4840681753074989
 30
0.0
 40
0.1170102903300273
 50
3.0681166267105411
 51
6.5345877685013587
  0
ARC
  5
B405
  8
0
 10
4359.1085549413528497
 20
184.4891916188175003
 30
0.0
 40
0.0434491272128629
 50
10.8686373755019492
 51
39.0037761496640627
  0
ARC
  5
B406
  8
0
 10
4357.2402181882307559
 20
183.0876649492300032
 30
0.0
 40
2.3790051110645392
 50
36.9141420959919984
 51
71.4747106688149785
  0
ARC
  5
B407
  8
0
 10
4358.6857578392773576
 20
183.1787824461974026
 30
0.0
 40
0.0398870855190967
 50
283.4754559636276099
 51
328.4472923166429723
  0
LINE
  5
B408
  8
0
 10
4357.2850568742196629
 20
183.1450926032972859
 30
0.0
 11
4357.7720806331262793
 21
183.8156224740559992
 31
0.0
  0
LINE
  5
B409
  8
0
 10
4358.7113158695201491
 20
183.1481631253973887
 30
0.0
 11
4358.1802376990299308
 21
183.8749518074480136
 31
0.0
  0
LINE
  5
B40A
  8
0
 10
4357.0265937743733957
 20
184.4426151478818952
 30
0.0
 11
4356.8422991610195822
 21
184.5026491707563991
 31
0.0
  0
LINE
  5
B40B
  8
0
 10
4358.2945288960663675
 20
184.2249302554527901
 30
0.0
 11
4359.1498638185194068
 21
184.5032090275973928
 31
0.0
  0
LINE
  5
B40C
  8
0
 10
4355.0830712818451502
 20
183.8990544038921939
 30
0.0
 11
4355.0830712818451502
 21
184.361540272973798
 31
0.0
  0
LINE
  5
B40D
  8
0
 10
4355.1586967141583955
 20
184.4384342160595907
 30
0.0
 11
4358.0550372777806842
 21
184.4449171227940099
 31
0.0
  0
LINE
  5
B40E
  8
0
 10
4355.0941429631648134
 20
184.388923960832102
 30
0.0
 11
4355.1303866443140578
 21
184.4264179081440034
 31
0.0
  0
LINE
  5
B40F
  8
0
 10
4355.0941424542243112
 20
183.8716712425407991
 30
0.0
 11
4355.1303952250846123
 21
183.8341664970753015
 31
0.0
  0
LINE
  5
B410
  8
0
 10
4355.1587049051277063
 20
183.8221496630795002
 30
0.0
 11
4358.0546692698071638
 21
183.8149166783192072
 31
0.0
  0
ARC
  5
B411
  8
0
 10
4355.1224712818457192
 20
183.8990544038921939
 30
0.0
 40
0.0394
 50
179.9999999999967031
 51
224.0275435462224038
  0
ARC
  5
B412
  8
0
 10
4355.1587240527060203
 20
183.8615496584266964
 30
0.0
 40
0.0394
 50
224.0275435462235976
 51
269.9721554429726211
  0
ARC
  5
B413
  8
0
 10
4355.1224712818457192
 20
184.361540272973798
 30
0.0
 40
0.0394
 50
135.9713915706722958
 51
180.0000000000015916
  0
ARC
  5
B414
  8
0
 10
4355.1587149629949636
 20
184.399034220285813
 30
0.0
 40
0.0394
 50
90.0265375984211573
 51
135.9713915706734895
  0
LINE
  5
B415
  8
0
 10
4358.3112615613827074
 20
184.1302973384331096
 30
0.0
 11
4355.0830712818451502
 21
184.130297338432996
 31
0.0
  0
ARC
  5
B416
  8
0
 10
4357.9774228982041677
 20
184.1200649043572923
 30
0.0
 40
0.3339954426941032
 50
1.755613887808815
 51
76.5626756300542866
  0
ARC
  5
B417
  8
0
 10
4357.9758456489698801
 20
184.1411187222203978
 30
0.0
 40
0.3355904299100845
 50
283.5845739989894128
 51
358.1521311005495249
  0
LINE
  5
B418
  8
0
 10
4357.9962622941102381
 20
184.4447855661869085
 30
0.0
 11
4357.9962629442588877
 21
185.3433381625640948
 31
0.0
  0
LINE
  5
B419
  8
0
 10
4355.1303866443140578
 20
184.4264179081440034
 30
0.0
 11
4355.1303952250846123
 21
183.8341664970753015
 31
0.0
  0
ENDSEC
  0
EOF
