  0
SECTION
  2
HEADER
  9
$ACADVER
  1
AC1009
  9
$INSBASE
 10
4323.2680188257927512
 20
183.433009535503686
 30
0.0
  9
$EXTMIN
 10
4318.2093158350162412
 20
182.247912703909293
 30
-0.0015258207003583
  9
$EXTMAX
 10
4328.4462598868212808
 20
184.9428439136177929
 30
0.0000000349246037
  9
$LIMMIN
 10
0.0
 20
0.0
  9
$LIMMAX
 10
11.6929133858000007
 20
8.2677165353999982
  9
$ORTHOMODE
 70
     0
  9
$REGENMODE
 70
     1
  9
$FILLMODE
 70
     1
  9
$QTEXTMODE
 70
     0
  9
$MIRRTEXT
 70
     0
  9
$DRAGMODE
 70
     2
  9
$LTSCALE
 40
0.6431102362
  9
$OSMODE
 70
  3999
  9
$ATTMODE
 70
     1
  9
$TEXTSIZE
 40
0.2
  9
$TRACEWID
 40
0.05
  9
$TEXTSTYLE
  7
STANDARD
  9
$CLAYER
  8
0
  9
$CELTYPE
  6
BYLAYER
  9
$CECOLOR
 62
   256
  9
$DIMSCALE
 40
1.0
  9
$DIMASZ
 40
0.1875
  9
$DIMEXO
 40
0.0625
  9
$DIMDLI
 40
0.4443307087
  9
$DIMRND
 40
0.0
  9
$DIMDLE
 40
0.0
  9
$DIMEXE
 40
0.125
  9
$DIMTP
 40
0.01
  9
$DIMTM
 40
0.01
  9
$DIMTXT
 40
2.0
  9
$DIMCEN
 40
0.1052362205
  9
$DIMTSZ
 40
0.0
  9
$DIMTOL
 70
     1
  9
$DIMLIM
 70
     0
  9
$DIMTIH
 70
     1
  9
$DIMTOH
 70
     1
  9
$DIMSE1
 70
     0
  9
$DIMSE2
 70
     0
  9
$DIMTAD
 70
     0
  9
$DIMZIN
 70
     0
  9
$DIMBLK
  1

  9
$DIMASO
 70
     1
  9
$DIMSHO
 70
     1
  9
$DIMPOST
  1
\X
  9
$DIMAPOST
  1

  9
$DIMALT
 70
     1
  9
$DIMALTD
 70
     2
  9
$DIMALTF
 40
25.3999999999999986
  9
$DIMLFAC
 40
1.0
  9
$DIMTOFL
 70
     0
  9
$DIMTVP
 40
0.0
  9
$DIMTIX
 70
     0
  9
$DIMSOXD
 70
     0
  9
$DIMSAH
 70
     0
  9
$DIMBLK1
  1

  9
$DIMBLK2
  1

  9
$DIMSTYLE
  2
STANDARD
  9
$DIMCLRD
 70
     0
  9
$DIMCLRE
 70
     0
  9
$DIMCLRT
 70
     0
  9
$DIMTFAC
 40
1.0
  9
$DIMGAP
 40
0.09
  9
$LUNITS
 70
     2
  9
$LUPREC
 70
     4
  9
$SKETCHINC
 40
0.1
  9
$FILLETRAD
 40
0.0
  9
$AUNITS
 70
     0
  9
$AUPREC
 70
     0
  9
$MENU
  1
.
  9
$ELEVATION
 40
0.0
  9
$PELEVATION
 40
0.0
  9
$THICKNESS
 40
0.0
  9
$LIMCHECK
 70
     0
  9
$BLIPMODE
 70
     0
  9
$CHAMFERA
 40
0.0
  9
$CHAMFERB
 40
0.0
  9
$SKPOLY
 70
     0
  9
$TDCREATE
 40
2458060.468368056230247
  9
$TDUPDATE
 40
2460157.6569212968461215
  9
$TDINDWG
 40
0.4278195602
  9
$TDUSRTIMER
 40
0.4278195602
  9
$USRTIMER
 70
     1
  9
$ANGBASE
 50
0.0
  9
$ANGDIR
 70
     0
  9
$PDMODE
 70
     0
  9
$PDSIZE
 40
0.3125
  9
$PLINEWID
 40
0.0
  9
$COORDS
 70
     1
  9
$SPLFRAME
 70
     0
  9
$SPLINETYPE
 70
     6
  9
$SPLINESEGS
 70
     8
  9
$ATTDIA
 70
     1
  9
$ATTREQ
 70
     1
  9
$HANDLING
 70
     1
  9
$HANDSEED
  5
ACCB
  9
$SURFTAB1
 70
     6
  9
$SURFTAB2
 70
     6
  9
$SURFTYPE
 70
     6
  9
$SURFU
 70
     6
  9
$SURFV
 70
     6
  9
$UCSNAME
  2

  9
$UCSORG
 10
0.0
 20
0.0
 30
0.0
  9
$UCSXDIR
 10
1.0
 20
0.0
 30
0.0
  9
$UCSYDIR
 10
0.0
 20
1.0
 30
0.0
  9
$PUCSNAME
  2

  9
$PUCSORG
 10
0.0
 20
0.0
 30
0.0
  9
$PUCSXDIR
 10
1.0
 20
0.0
 30
0.0
  9
$PUCSYDIR
 10
0.0
 20
1.0
 30
0.0
  9
$USERI1
 70
     0
  9
$USERI2
 70
     0
  9
$USERI3
 70
     0
  9
$USERI4
 70
     0
  9
$USERI5
 70
     0
  9
$USERR1
 40
0.0
  9
$USERR2
 40
0.0
  9
$USERR3
 40
0.0
  9
$USERR4
 40
0.0
  9
$USERR5
 40
0.0
  9
$WORLDVIEW
 70
     1
  9
$SHADEDGE
 70
     3
  9
$SHADEDIF
 70
    70
  9
$TILEMODE
 70
     1
  9
$MAXACTVP
 70
    64
  9
$PLIMCHECK
 70
     0
  9
$PEXTMIN
 10
1.0000000000000000E+20
 20
1.0000000000000000E+20
 30
1.0000000000000000E+20
  9
$PEXTMAX
 10
-1.0000000000000000E+20
 20
-1.0000000000000000E+20
 30
-1.0000000000000000E+20
  9
$PLIMMIN
 10
0.0
 20
0.0
  9
$PLIMMAX
 10
12.0
 20
9.0
  9
$UNITMODE
 70
     0
  9
$VISRETAIN
 70
     1
  9
$PLINEGEN
 70
     0
  9
$PSLTSCALE
 70
     1
  0
ENDSEC
  0
SECTION
  2
TABLES
  0
TABLE
  2
VPORT
 70
     1
  0
VPORT
  2
*ACTIVE
 70
     0
 10
0.0
 20
0.0
 11
1.0
 21
1.0
 12
519.783720478106261
 22
57.6001161120136231
 13
0.0
 23
0.0
 14
1.0
 24
1.0
 15
0.0
 25
0.0
 16
0.0
 26
0.0
 36
17.1152628219792007
 17
3803.5440673828129547
 27
125.9952621967499056
 37
0.0
 40
4.3848986873813516
 41
2.3419117647058818
 42
50.0
 43
0.0
 44
0.0
 50
0.0
 51
0.0
 71
     0
 72
   100
 73
     1
 74
     1
 75
     0
 76
     0
 77
     0
 78
     0
  0
ENDTAB
  0
TABLE
  2
LTYPE
 70
     2
  0
LTYPE
  2
CONTINUOUS
 70
     0
  3
Solid line
 72
    65
 73
     0
 40
0.0
  0
LTYPE
  2
PHANTOM2
 70
     0
  3
___ _ _ ___ _ _ ___ _ _ ___ _ _
 72
    65
 73
     6
 40
1.25
 49
0.625
 49
-0.125
 49
0.125
 49
-0.125
 49
0.125
 49
-0.125
  0
ENDTAB
  0
TABLE
  2
LAYER
 70
     2
  0
LAYER
  2
0
 70
     0
 62
   255
  6
CONTINUOUS
  0
LAYER
  2
DEFPOINTS
 70
     0
 62
     7
  6
CONTINUOUS
  0
ENDTAB
  0
TABLE
  2
STYLE
 70
     1
  0
STYLE
  2
STANDARD
 70
     0
 40
0.0
 41
0.8
 50
0.0
 71
     0
 42
0.2
  3
txt
  4

  0
ENDTAB
  0
TABLE
  2
VIEW
 70
     0
  0
ENDTAB
  0
TABLE
  2
UCS
 70
     0
  0
ENDTAB
  0
TABLE
  2
APPID
 70
     9
  0
APPID
  2
ACAD
 70
     0
  0
APPID
  2
ACAD_MLEADERVER
 70
     0
  0
APPID
  2
ACAD_EXEMPT_FROM_CAD_STANDARDS
 70
     0
  0
APPID
  2
ACAD_NAV_VCDISPLAY
 70
     0
  0
APPID
  2
ACAECLAYERSTANDARD
 70
     0
  0
APPID
  2
ACCMTRANSPARENCY
 70
     0
  0
APPID
  2
ACAD_DSTYLE_DIMJAG
 70
     0
  0
APPID
  2
ACAD_DSTYLE_DIMTALN
 70
     0
  0
APPID
  2
ACDBATTR
 70
     0
  0
ENDTAB
  0
TABLE
  2
DIMSTYLE
 70
     1
  0
DIMSTYLE
  2
STANDARD
 70
     0
  3

  4

  5

  6

  7

 40
1.0
 41
0.1875
 42
0.0625
 43
0.38
 44
0.125
 45
0.0
 46
0.0
 47
0.01
 48
0.01
140
0.15625
141
0.09
142
0.0
143
25.3999999999999986
144
1.0
145
0.0
146
1.0
147
0.09
 71
     1
 72
     0
 73
     1
 74
     1
 75
     0
 76
     0
 77
     0
 78
     4
170
     0
171
     2
172
     0
173
     0
174
     0
175
     0
176
     0
177
     0
178
     0
  0
ENDTAB
  0
ENDSEC
  0
SECTION
  2
BLOCKS
  0
BLOCK
  8
0
  2
$MODEL_SPACE
 70
     0
 10
0.0
 20
0.0
 30
0.0
  3
$MODEL_SPACE
  1

  0
ENDBLK
  5
21
  8
0
  0
BLOCK
 67
     1
  8
0
  2
$PAPER_SPACE
 70
     0
 10
0.0
 20
0.0
 30
0.0
  3
$PAPER_SPACE
  1

  0
ENDBLK
  5
1D
 67
     1
  8
0
  0
ENDSEC
  0
SECTION
  2
ENTITIES
  0
ATTDEF
  5
3930
  8
DEFPOINTS
 10
4323.2641025955008445
 20
183.4381884571060937
 30
0.0
 40
0.001
  1
K-EX27103T-9
  3

  2
MODELNUMBER
 70
     0
1001
ACDBATTR
1070
     0
1070
     1
  0
ATTDEF
  5
3931
  8
DEFPOINTS
 10
4323.2641025955008445
 20
183.4365217904394001
 30
0.0
 40
0.001
  1
OCCASION
  3

  2
TRADENAME
 70
     0
1001
ACDBATTR
1070
     0
1070
     1
  0
ATTDEF
  5
3932
  8
DEFPOINTS
 10
4323.2641025955008445
 20
183.4348551237727918
 30
0.0
 40
0.001
  1
BATHROOM SINK FAUCET
  3

  2
PRODUCT
 70
     0
1001
ACDBATTR
1070
     0
1070
     1
  0
LINE
  5
A793
  8
0
 10
4323.2680188257927512
 20
182.5496903362299861
 30
0.0
 11
4323.2680188257927512
 21
184.9371996475823039
 31
0.0
  0
LINE
  5
A794
  8
0
 10
4322.7568508055856
 20
182.4954490402101044
 30
0.0
 11
4322.7568508055856
 21
183.7116926746552963
 31
0.0
  0
ARC
  5
A795
  8
0
 10
4323.272614418802732
 20
185.0392904810086918
 30
0.0
 40
2.7803494964308748
 50
264.3323295821766123
 51
269.9052967248518939
  0
ARC
  5
A796
  8
0
 10
4323.0041185199643223
 20
182.3335224941004071
 30
0.0
 40
0.0612926019498163
 50
248.1225788311334099
 51
264.3009102340607228
  0
ARC
  5
A797
  8
0
 10
4323.1593120773350165
 20
182.7200186317382133
 30
0.0
 40
0.4777830636152669
 50
228.569671775210594
 51
248.1225788311334099
  0
ARC
  5
A798
  8
0
 10
4323.0555900207846207
 20
182.6305287090862919
 30
0.0
 40
0.3425558688766686
 50
217.5186990135235874
 51
231.6739360224057975
  0
ARC
  5
A799
  8
0
 10
4322.869055876789389
 20
182.4949602251861904
 30
0.0
 40
0.1122061359456796
 50
179.7503957691359062
 51
220.6229632607112023
  0
ARC
  5
A79A
  8
0
 10
4323.2696819694665464
 20
182.5483653657894934
 30
0.0
 40
0.0786692997117867
 50
91.2113774149724463
 51
101.751917051576001
  0
ARC
  5
A79B
  8
0
 10
4323.3743132350791711
 20
180.9469462560051056
 30
0.0
 40
1.682770405987672
 50
94.1116203750488438
 51
111.1963972408411934
  0
ARC
  5
A79C
  8
0
 10
4322.7686367443775453
 20
182.5032107149924059
 30
0.0
 40
0.012957193114392
 50
102.2805633850910993
 51
155.4509410758697072
  0
ARC
  5
A79D
  8
0
 10
4323.4164028065933962
 20
180.796778626608301
 30
0.0
 40
1.760142436432361
 50
95.1952145421201266
 51
110.1130952455723957
  0
ARC
  5
A79E
  8
0
 10
4322.8152019325498259
 20
182.4384744888232888
 30
0.0
 40
0.0118267341165267
 50
110.1130952455723957
 51
156.8103400666028904
  0
ARC
  5
A79F
  8
0
 10
4322.9190907534257349
 20
182.4479792957532993
 30
0.0
 40
0.1148623745144471
 50
182.4188648930166039
 51
228.7178568422023943
  0
ARC
  5
A7A0
  8
0
 10
4323.267224902379894
 20
183.3666570851829931
 30
0.0
 40
1.0854590619283451
 50
263.7465589016214835
 51
270.041907121570091
  0
ARC
  5
A7A1
  8
0
 10
4323.2318503676906403
 20
183.0438336724218118
 30
0.0
 40
0.760703286719807
 50
253.4786915792763011
 51
263.7465589016214835
  0
ARC
  5
A7A2
  8
0
 10
4323.0859770899833165
 20
182.5520454408010096
 30
0.0
 40
0.2477367401400032
 50
234.1376439524123896
 51
253.4786915792763011
  0
ARC
  5
A7A3
  8
0
 10
4322.9750492440825838
 20
182.3985924733158015
 30
0.0
 40
0.0583883833311338
 50
203.4696419696373084
 51
234.1376439524123896
  0
ARC
  5
A7A4
  8
0
 10
4322.9541696100832269
 20
182.3895269016583995
 30
0.0
 40
0.0356256131699036
 50
141.191908694123299
 51
203.4696419696373084
  0
ARC
  5
A7A5
  8
0
 10
4323.0421909790702557
 20
182.3086133061862881
 30
0.0
 40
0.1551265505374323
 50
108.7409761319404993
 51
138.2773539618889913
  0
ARC
  5
A7A6
  8
0
 10
4323.2108171519093958
 20
181.8503658391576892
 30
0.0
 40
0.6433766083609119
 50
95.0946739331979813
 51
109.8502463425671039
  0
ARC
  5
A7A7
  8
0
 10
4323.2661224171561116
 20
181.4266635602652968
 30
0.0
 40
1.0704586024487901
 50
90.9002796995013966
 51
96.0293223045393347
  0
ARC
  5
A7A8
  8
0
 10
4323.268006576913649
 20
181.3694750597445022
 30
0.0
 40
1.127670078185921
 50
89.9993776467969155
 51
90.9503453672276407
  0
ARC
  5
A7A9
  8
0
 10
4323.2899533003828765
 20
183.4915626062430078
 30
0.0
 40
1.1435986591938681
 50
265.3120127015096159
 51
268.9009869167448983
  0
ARC
  5
A7AA
  8
0
 10
4323.2482046983359396
 20
182.9362909104681023
 30
0.0
 40
0.5867846371742949
 50
252.9820172291109088
 51
264.9435839446043133
  0
ARC
  5
A7AB
  8
0
 10
4323.1248861890107946
 20
182.5333865615212119
 30
0.0
 40
0.1654304285299065
 50
232.8093172912938087
 51
252.9820172291109088
  0
ARC
  5
A7AC
  8
0
 10
4323.0592767313537479
 20
182.4469200993202946
 30
0.0
 40
0.056889883019705
 50
201.503316294478509
 51
232.8093172912938087
  0
ARC
  5
A7AD
  8
0
 10
4323.0349076872216756
 20
182.4373192481731962
 30
0.0
 40
0.0306977724768323
 50
157.4896340273508031
 51
201.503316294478509
  0
ARC
  5
A7AE
  8
0
 10
4323.0651891366460404
 20
182.4164070559029085
 30
0.0
 40
0.0671244012084944
 50
134.6245137661663875
 51
150.8805767825533053
  0
ARC
  5
A7AF
  8
0
 10
4323.3305161046037028
 20
183.9000163669277867
 30
0.0
 40
1.549189285361948
 50
264.7883655165863956
 51
267.6879505069543939
  0
ARC
  5
A7B0
  8
0
 10
4323.2787945987020066
 20
183.0662820394200025
 30
0.0
 40
0.7146142287187424
 50
255.658541545597302
 51
262.8457479710647249
  0
ARC
  5
A7B1
  8
0
 10
4323.1444991318394386
 20
182.5410082253885946
 30
0.0
 40
0.1724446499642292
 50
236.002433741592597
 51
255.658541545597302
  0
ARC
  5
A7B2
  8
0
 10
4323.0767313116239166
 20
182.4405290940383111
 30
0.0
 40
0.0512483905598695
 50
205.4899958442204877
 51
236.0024337415916875
  0
ARC
  5
A7B3
  8
0
 10
4323.0556829228844435
 20
182.4270741070153008
 30
0.0
 40
0.0266379231876389
 50
137.4570216801054983
 51
198.8351037022983974
  0
ARC
  5
A7B4
  8
0
 10
4323.1284836830673157
 20
182.3495164905843922
 30
0.0
 40
0.1329514248401596
 50
104.0546445599518961
 51
134.0425343967748972
  0
ARC
  5
A7B5
  8
0
 10
4323.2236035127161813
 20
182.0657979884784936
 30
0.0
 40
0.4319091090108033
 50
100.6928973744267068
 51
107.1566379285483066
  0
ARC
  5
A7B6
  8
0
 10
4323.1620213136975508
 20
182.2502273327405931
 30
0.0
 40
0.2429520371782617
 50
107.165230913643498
 51
119.7214701943050983
  0
ARC
  5
A7B7
  8
0
 10
4323.0721556243306622
 20
182.4076415676117904
 30
0.0
 40
0.0616923244300898
 50
119.7214701943050983
 51
149.4921477715109006
  0
ARC
  5
A7B8
  8
0
 10
4323.0393193749223428
 20
182.4269896587146036
 30
0.0
 40
0.0235797555773683
 50
149.4921477715095079
 51
213.1551305447632103
  0
ARC
  5
A7B9
  8
0
 10
4323.0767876000290926
 20
182.4514662928019106
 30
0.0
 40
0.0683343476201967
 50
213.1551305447632103
 51
239.7156511595765949
  0
ARC
  5
A7BA
  8
0
 10
4323.1474593755074238
 20
182.5724824176647019
 30
0.0
 40
0.208474999560379
 50
239.7156511595765949
 51
251.9203986106610103
  0
ARC
  5
A7BB
  8
0
 10
4323.4978408941269663
 20
183.6457698477798886
 30
0.0
 40
1.337506937209981
 50
251.9203986106610103
 51
252.9243076638940124
  0
ARC
  5
A7BC
  8
0
 10
4323.1345983017890831
 20
182.6990783932411091
 30
0.0
 40
0.3211271515808505
 50
246.4138596951734996
 51
252.3616869920205943
  0
ARC
  5
A7BD
  8
0
 10
4323.0078174693144319
 20
182.4086970866736976
 30
0.0
 40
0.0042759519823821
 50
173.6491570158918023
 51
246.4138596951734996
  0
ARC
  5
A7BE
  8
0
 10
4321.4461387947321782
 20
182.4562940477287896
 30
0.0
 40
1.5581417279611509
 50
358.2668993533595767
 51
0.1248339714094775
  0
ARC
  5
A7BF
  8
0
 10
4323.0075484907729333
 20
182.4084672464094865
 30
0.0
 40
0.003960703200842
 50
248.6500498863132975
 51
282.4929811239903756
  0
ARC
  5
A7C0
  8
0
 10
4323.2195296535519446
 20
181.4517273759533111
 30
0.0
 40
0.9759817405648927
 50
101.8637855090194932
 51
102.4929811239903046
  0
LINE
  5
A7C1
  8
0
 10
4323.0042017552696052
 20
182.4406270309036131
 30
0.0
 11
4322.9857912835796014
 21
182.4497827776478118
 31
0.0
  0
LINE
  5
A7C2
  8
0
 10
4322.9859524179428263
 20
182.4531867163418042
 30
0.0
 11
4322.9859524179428263
 21
182.451349038351907
 31
0.0
  0
ARC
  5
A7C3
  8
0
 10
4322.9798508535996007
 20
182.4511853384352946
 30
0.0
 40
0.0061037599157694
 50
272.6834989890846828
 51
1.536829630635038
  0
LINE
  5
A7C4
  8
0
 10
4323.2266798353421109
 20
182.3707263499445901
 30
0.0
 11
4323.2266798353439299
 21
182.4963952566716898
 31
0.0
  0
LINE
  5
A7C5
  8
0
 10
4323.1922011284432301
 20
182.4945667687217963
 30
0.0
 11
4323.1922011284432301
 21
182.4839896683025131
 31
0.0
  0
LINE
  5
A7C6
  8
0
 10
4323.1823586087421063
 20
182.4938398549593046
 30
0.0
 11
4323.1823586087421063
 21
182.4843432219024919
 31
0.0
  0
LINE
  5
A7C7
  8
0
 10
4323.1372319150232215
 20
182.4881456649164875
 30
0.0
 11
4323.1584698621436473
 21
182.474239303302511
 31
0.0
  0
LINE
  5
A7C8
  8
0
 10
4323.1584698621436473
 20
182.474239303302511
 30
0.0
 11
4323.1865351808755804
 21
182.4792021353030123
 31
0.0
  0
LINE
  5
A7C9
  8
0
 10
4323.1594623851433425
 20
182.4544199003024971
 30
0.0
 11
4323.1856088703962087
 21
182.4407059580778139
 31
0.0
  0
LINE
  5
A7CA
  8
0
 10
4323.1594623851433425
 20
182.4544199003024971
 30
0.0
 11
4323.1333158998513682
 21
182.452814985442302
 31
0.0
  0
LINE
  5
A7CB
  8
0
 10
4323.1333158998513682
 20
182.452814985442302
 30
0.0
 11
4323.1051843687437213
 21
182.4705515338025066
 31
0.0
  0
LINE
  5
A7CC
  8
0
 10
4323.1051843687437213
 20
182.4705515338025066
 30
0.0
 11
4323.0775502535561827
 21
182.4723247440745126
 31
0.0
  0
LINE
  5
A7CD
  8
0
 10
4323.1856088703962087
 20
182.4407059580778139
 30
0.0
 11
4323.1856088703270871
 21
182.4254478917135884
 31
0.0
  0
LINE
  5
A7CE
  8
0
 10
4323.1856088703270871
 20
182.4254478917135884
 30
0.0
 11
4323.1594623851879078
 21
182.4237371365971967
 31
0.0
  0
LINE
  5
A7CF
  8
0
 10
4323.1594623851879078
 20
182.4237371365971967
 30
0.0
 11
4323.1323233768653154
 21
182.4368563749461032
 31
0.0
  0
LINE
  5
A7D0
  8
0
 10
4323.1323233768653154
 20
182.4368563749461032
 30
0.0
 11
4323.1061768917006702
 21
182.4382892890033077
 31
0.0
  0
LINE
  5
A7D1
  8
0
 10
4323.1061768917006702
 20
182.4382892890033077
 30
0.0
 11
4323.0782192029937505
 21
182.456024993402508
 31
0.0
  0
LINE
  5
A7D2
  8
0
 10
4323.0782192029937505
 20
182.456024993402508
 30
0.0
 11
4323.0550659393456954
 21
182.4603583431218112
 31
0.0
  0
LINE
  5
A7D3
  8
0
 10
4323.1856088703425485
 20
182.425447891702504
 30
0.0
 11
4323.1955341003431386
 21
182.4206572045025041
 31
0.0
  0
LINE
  5
A7D4
  8
0
 10
4323.1955341003431386
 20
182.4206572045025041
 30
0.0
 11
4323.1955341003431386
 21
182.4003617744025121
 31
0.0
  0
LINE
  5
A7D5
  8
0
 10
4323.1955341003431386
 20
182.4003617744025121
 30
0.0
 11
4323.1856088703425485
 21
182.3995465441024919
 31
0.0
  0
LINE
  5
A7D6
  8
0
 10
4323.1856088703425485
 20
182.3995465441024919
 30
0.0
 11
4323.159462385144252
 21
182.4100558225626116
 31
0.0
  0
LINE
  5
A7D7
  8
0
 10
4323.159462385144252
 20
182.4100558225626116
 30
0.0
 11
4323.1333158998886574
 21
182.411314807575593
 31
0.0
  0
LINE
  5
A7D8
  8
0
 10
4323.1333158998886574
 20
182.411314807575593
 30
0.0
 11
4323.1051843686564098
 21
182.4256000355561866
 31
0.0
  0
LINE
  5
A7D9
  8
0
 10
4323.1051843686564098
 20
182.4256000355561866
 30
0.0
 11
4323.07785152917495
 21
182.4305517102108922
 31
0.0
  0
LINE
  5
A7DA
  8
0
 10
4323.07785152917495
 20
182.4305517102108922
 30
0.0
 11
4323.0509063531426364
 21
182.4483804745024997
 31
0.0
  0
LINE
  5
A7DB
  8
0
 10
4323.0509063531426364
 20
182.4483804745024997
 30
0.0
 11
4323.042398835408676
 21
182.4508351974972982
 31
0.0
  0
LINE
  5
A7DC
  8
0
 10
4323.1856088703425485
 20
182.3995465441024919
 30
0.0
 11
4323.1855324009466131
 21
182.3902175192291111
 31
0.0
  0
LINE
  5
A7DD
  8
0
 10
4323.1855324009466131
 20
182.3902175192291111
 30
0.0
 11
4323.1593387342099959
 21
182.3910147057468976
 31
0.0
  0
LINE
  5
A7DE
  8
0
 10
4323.1593387342099959
 20
182.3910147057468976
 30
0.0
 11
4323.1323289717938678
 21
182.4017353329525122
 31
0.0
  0
LINE
  5
A7DF
  8
0
 10
4323.1323289717938678
 20
182.4017353329525122
 30
0.0
 11
4323.1051391149048868
 21
182.4065719005299968
 31
0.0
  0
LINE
  5
A7E0
  8
0
 10
4323.1051391149048868
 20
182.4065719005299968
 30
0.0
 11
4323.0780602397471739
 21
182.4210777925572131
 31
0.0
  0
LINE
  5
A7E1
  8
0
 10
4323.0780602397471739
 20
182.4210777925572131
 30
0.0
 11
4323.0506567741840627
 21
182.4293230969782087
 31
0.0
  0
LINE
  5
A7E2
  8
0
 10
4323.0506567741840627
 20
182.4293230969782087
 30
0.0
 11
4323.0406161432438239
 21
182.4360061836524949
 31
0.0
  0
LINE
  5
A7E3
  8
0
 10
4323.0406161432438239
 20
182.4360061836524949
 30
0.0
 11
4323.0312993193356306
 21
182.4377987902167035
 31
0.0
  0
LINE
  5
A7E4
  8
0
 10
4323.1855324009466131
 20
182.3902175192291111
 30
0.0
 11
4323.1955341003467765
 21
182.3867822813701878
 31
0.0
  0
LINE
  5
A7E5
  8
0
 10
4323.1955341003467765
 20
182.3867822813701878
 30
0.0
 11
4323.1955341003431386
 21
182.3761374200024932
 31
0.0
  0
LINE
  5
A7E6
  8
0
 10
4323.1955341003431386
 20
182.3761374200024932
 30
0.0
 11
4323.1866013929147812
 21
182.3767591825371994
 31
0.0
  0
LINE
  5
A7E7
  8
0
 10
4323.1866013929147812
 20
182.3767591825371994
 30
0.0
 11
4323.1594623851433425
 21
182.3842936378025001
 31
0.0
  0
LINE
  5
A7E8
  8
0
 10
4323.1594623851433425
 20
182.3842936378025001
 30
0.0
 11
4323.1321422875453209
 21
182.3887563843233011
 31
0.0
  0
LINE
  5
A7E9
  8
0
 10
4323.1321422875453209
 20
182.3887563843233011
 30
0.0
 11
4323.1052396115428564
 21
182.3998711832024924
 31
0.0
  0
LINE
  5
A7EA
  8
0
 10
4323.1052396115428564
 20
182.3998711832024924
 30
0.0
 11
4323.0778635823680816
 21
182.4081310428204006
 31
0.0
  0
LINE
  5
A7EB
  8
0
 10
4323.0778635823680816
 20
182.4081310428204006
 30
0.0
 11
4323.0507187318316937
 21
182.4233928915278113
 31
0.0
  0
LINE
  5
A7EC
  8
0
 10
4323.0507187318316937
 20
182.4233928915278113
 30
0.0
 11
4323.0342044586313932
 21
182.4211370804592889
 31
0.0
  0
ARC
  5
A7ED
  8
0
 10
4323.2680184200580698
 20
182.8370782571070094
 30
0.0
 40
0.472440959640737
 50
261.1745291272939085
 51
264.459344244557883
  0
ARC
  5
A7EE
  8
0
 10
4323.1961381362561951
 20
182.3741212635883073
 30
0.0
 40
0.0039370076324422
 50
219.6468490347916998
 51
261.1745291272939085
  0
ARC
  5
A7EF
  8
0
 10
4323.2716871394613918
 20
183.0983201107418097
 30
0.0
 40
0.7309470419247752
 50
259.7793332336236745
 51
263.8284899795486922
  0
ARC
  5
A7F0
  8
0
 10
4323.1620394329784176
 20
182.5917318937119944
 30
0.0
 40
0.2137026854635209
 50
234.720968982709195
 51
264.6161201412338073
  0
ARC
  5
A7F1
  8
0
 10
4323.1798651260924089
 20
182.5830199181575892
 30
0.0
 40
0.2177684164121449
 50
226.8394954136412878
 51
229.5614543398428964
  0
ARC
  5
A7F2
  8
0
 10
4323.2626771899031155
 20
183.0372891811761065
 30
0.0
 40
0.6768455050172522
 50
260.7935264110951152
 51
266.9513426288456799
  0
ARC
  5
A7F3
  8
0
 10
4323.2148662841918849
 20
182.742306913810296
 30
0.0
 40
0.3780137450500269
 50
246.3010797659948139
 51
260.7935264110951152
  0
ARC
  5
A7F4
  8
0
 10
4323.0921727585819099
 20
182.462788948664894
 30
0.0
 40
0.0727532103164054
 50
215.702065818121298
 51
246.3010797659948139
  0
ARC
  5
A7F5
  8
0
 10
4323.0502963182507301
 20
182.4326953841359966
 30
0.0
 40
0.0211852078259917
 50
186.4239193304809987
 51
215.7020658181199053
  0
LINE
  5
A7F6
  8
0
 10
4323.1866013929147812
 20
182.3767591825371994
 30
0.0
 11
4323.1865679217444267
 21
182.3731315412597098
 31
0.0
  0
LINE
  5
A7F7
  8
0
 10
4323.1865679217444267
 20
182.3731315412597098
 30
0.0
 11
4323.1594623851433425
 21
182.3776578275025031
 31
0.0
  0
LINE
  5
A7F8
  8
0
 10
4323.1594623851433425
 20
182.3776578275025031
 30
0.0
 11
4323.1324699169426822
 21
182.3855024949887991
 31
0.0
  0
LINE
  5
A7F9
  8
0
 10
4323.1324699169426822
 20
182.3855024949887991
 30
0.0
 11
4323.1051843686882421
 21
182.393789461103097
 31
0.0
  0
LINE
  5
A7FA
  8
0
 10
4323.1051843686882421
 20
182.393789461103097
 30
0.0
 11
4323.0780453612378551
 21
182.4051708246821875
 31
0.0
  0
LINE
  5
A7FB
  8
0
 10
4323.0780453612378551
 20
182.4051708246821875
 30
0.0
 11
4323.0694471321749006
 21
182.408851802794004
 31
0.0
  0
LINE
  5
A7FC
  8
0
 10
4323.0694471321749006
 20
182.408851802794004
 30
0.0
 11
4323.0566429817481549
 21
182.4058275477642894
 31
0.0
  0
LINE
  5
A7FD
  8
0
 10
4323.1652882786429473
 20
182.4596888221024926
 30
0.0
 11
4323.1652882786429473
 21
182.4754450140204085
 31
0.0
  0
LINE
  5
A7FE
  8
0
 10
4323.1554741249437939
 20
182.4596914725024988
 30
0.0
 11
4323.1554359054525776
 21
182.4762259029776033
 31
0.0
  0
LINE
  5
A7FF
  8
0
 10
4323.1114625789432466
 20
182.4756004126024891
 30
0.0
 11
4323.1114625789432466
 21
182.4828949669127951
 31
0.0
  0
LINE
  5
A800
  8
0
 10
4323.1016284728466417
 20
182.4760781432489125
 30
0.0
 11
4323.1016177300552954
 21
182.4801226767064009
 31
0.0
  0
LINE
  5
A801
  8
0
 10
4323.0845497291438733
 20
182.4608372197025119
 30
0.0
 11
4323.0845497291438733
 21
182.4718756056842892
 31
0.0
  0
LINE
  5
A802
  8
0
 10
4323.074698898684801
 20
182.4619159048581025
 30
0.0
 11
4323.0747107323550154
 21
182.4711082301832903
 31
0.0
  0
LINE
  5
A803
  8
0
 10
4323.0576368793426809
 20
182.4529960287916879
 30
0.0
 11
4323.0576368793426809
 21
182.4598771676691911
 31
0.0
  0
LINE
  5
A804
  8
0
 10
4323.0478378893858462
 20
182.452985247834107
 30
0.0
 11
4323.0477815220219782
 21
182.4551727377711074
 31
0.0
  0
LINE
  5
A805
  8
0
 10
4323.0845172750932761
 20
182.4246264843525012
 30
0.0
 11
4323.0845591360475737
 21
182.4293365460501093
 31
0.0
  0
LINE
  5
A806
  8
0
 10
4323.0747456465005598
 20
182.4251780375666954
 30
0.0
 11
4323.0746980622925548
 21
182.4326382587512114
 31
0.0
  0
LINE
  5
A807
  8
0
 10
4323.1383480200520353
 20
182.4058099539950888
 30
0.0
 11
4323.1383837159301038
 21
182.4110707860797902
 31
0.0
  0
LINE
  5
A808
  8
0
 10
4323.1285329091442691
 20
182.4067884598024989
 30
0.0
 11
4323.1285329091442691
 21
182.4137436164687927
 31
0.0
  0
LINE
  5
A809
  8
0
 10
4323.1652736726791773
 20
182.3882438879603001
 30
0.0
 11
4323.16529841839656
 21
182.3908333267924888
 31
0.0
  0
LINE
  5
A80A
  8
0
 10
4323.1554457589436424
 20
182.388984362602514
 30
0.0
 11
4323.1554457589436424
 21
182.3925598928506133
 31
0.0
  0
LINE
  5
A80B
  8
0
 10
4323.1922011284432301
 20
182.3803315474025055
 30
0.0
 11
4323.1922011284432301
 21
182.3879270419562033
 31
0.0
  0
LINE
  5
A80C
  8
0
 10
4323.1114625789432466
 20
182.4040627442770983
 30
0.0
 11
4323.1114625789432466
 21
182.4054470744129901
 31
0.0
  0
LINE
  5
A80D
  8
0
 10
4323.1016200592430323
 20
182.4047320288933918
 30
0.0
 11
4323.1016200592430323
 21
182.4084570246781141
 31
0.0
  0
LINE
  5
A80E
  8
0
 10
4323.047801476863242
 20
182.4272517824684883
 30
0.0
 11
4323.0477935124708893
 21
182.4312288961577053
 31
0.0
  0
ARC
  5
A80F
  8
0
 10
4323.1601414342376302
 20
182.4595244016257141
 30
0.0
 40
0.0051494700145701
 50
262.4224634185512741
 51
1.8297418586266541
  0
ARC
  5
A810
  8
0
 10
4323.160075419847999
 20
182.4590281627775994
 30
0.0
 40
0.004648859493229
 50
171.7969137284644034
 51
262.4224634185512741
  0
ARC
  5
A811
  8
0
 10
4323.188481246599622
 20
182.485050149413297
 30
0.0
 40
0.0061633141115219
 50
186.5862786029528877
 51
251.5939103835281117
  0
ARC
  5
A812
  8
0
 10
4323.1846821108529184
 20
182.4871417389825012
 30
0.0
 40
0.0081529856556783
 50
283.1374156562089865
 51
337.2559304307465027
  0
ARC
  5
A813
  8
0
 10
4323.1054620929617158
 20
182.4766340603233061
 30
0.0
 40
0.006088863573657
 50
267.3857275548152188
 51
350.2261133582139223
  0
ARC
  5
A814
  8
0
 10
4323.1064126495475648
 20
182.4752490871082955
 30
0.0
 40
0.0048554794610461
 50
170.1687748295184974
 51
255.3467885979061123
  0
ARC
  5
A815
  8
0
 10
4323.0807228376588682
 20
182.4615184125860026
 30
0.0
 40
0.006037039081241
 50
176.2247855454963883
 51
245.4987968791145931
  0
ARC
  5
A816
  8
0
 10
4323.0791898376637619
 20
182.4613181595777007
 30
0.0
 40
0.0053814254454
 50
259.6088291140595175
 51
354.8726151703442042
  0
ARC
  5
A817
  8
0
 10
4323.0531327266298831
 20
182.4531888002103983
 30
0.0
 40
0.0052987484383589
 50
182.2015694088547946
 51
245.1546988399751115
  0
ARC
  5
A818
  8
0
 10
4323.051601911644866
 20
182.4545812871575095
 30
0.0
 40
0.0062397018527744
 50
263.5997634694156773
 51
345.2821098395058925
  0
ARC
  5
A819
  8
0
 10
4323.0807042812593863
 20
182.4266050697929131
 30
0.0
 40
0.006127132213444
 50
193.4680896670840866
 51
244.4353014263016064
  0
ARC
  5
A81A
  8
0
 10
4323.0800164468773801
 20
182.4251671758320867
 30
0.0
 40
0.0045331889334166
 50
244.4353014263016064
 51
353.1497963167681178
  0
ARC
  5
A81B
  8
0
 10
4323.1088196204027554
 20
182.406315024693896
 30
0.0
 40
0.007371536923065
 50
192.4005284868084118
 51
240.9447373776334018
  0
ARC
  5
A81C
  8
0
 10
4323.1063716586977534
 20
182.40490571826831
 30
0.0
 40
0.0051602397317965
 50
257.3274509515067052
 51
350.5980544224448749
  0
ARC
  5
A81D
  8
0
 10
4323.1369359598620576
 20
182.4091486648852936
 30
0.0
 40
0.0087282202886387
 50
195.68871365391621
 51
238.1412662739799089
  0
ARC
  5
A81E
  8
0
 10
4323.1325749726256618
 20
182.4078549323334926
 30
0.0
 40
0.0061245418598751
 50
267.6980152217955151
 51
340.4944000243773985
  0
ARC
  5
A81F
  8
0
 10
4323.1611016300057599
 20
182.3897623718575005
 30
0.0
 40
0.0057091309222015
 50
187.8323274711173951
 51
253.3139764399795979
  0
ARC
  5
A820
  8
0
 10
4323.160762436908044
 20
182.3886307795687003
 30
0.0
 40
0.0045277956328397
 50
253.3139764399282967
 51
355.098206197390823
  0
ARC
  5
A821
  8
0
 10
4323.200823717129424
 20
182.3837623307938998
 30
0.0
 40
0.009280049046659
 50
201.6967795328206989
 51
235.2498581933992909
  0
LINE
  5
A822
  8
0
 10
4323.1652584457933699
 20
182.4145695091524999
 30
0.0
 11
4323.1653052922147253
 21
182.4241194359020142
 31
0.0
  0
LINE
  5
A823
  8
0
 10
4323.1554361792959753
 20
182.4155541797215108
 30
0.0
 11
4323.1554498411760505
 21
182.4256768361115064
 31
0.0
  0
LINE
  5
A824
  8
0
 10
4323.1114077299425844
 20
182.4297620331024916
 30
0.0
 11
4323.1114821828468848
 21
182.4379985414626049
 31
0.0
  0
LINE
  5
A825
  8
0
 10
4323.1016200592430323
 20
182.4308669921024944
 30
0.0
 11
4323.1016200592430323
 21
182.4411800370305059
 31
0.0
  0
ARC
  5
A826
  8
0
 10
4323.1636908982818568
 20
182.4173754628930055
 30
0.0
 40
0.0084532513222992
 50
192.4421385842908023
 51
239.9852265464276115
  0
ARC
  5
A827
  8
0
 10
4323.158621864214183
 20
182.417113369091993
 30
0.0
 40
0.0071074213641122
 50
276.7916707709686079
 51
339.0277335227935964
  0
ARC
  5
A828
  8
0
 10
4323.1040132958751201
 20
182.4340849597446947
 30
0.0
 40
0.0085653575489501
 50
277.858206376945418
 51
329.6886324389158176
  0
ARC
  5
A829
  8
0
 10
4323.1098571788443223
 20
182.4326017845617116
 30
0.0
 40
0.0084178170686149
 50
191.8930673954180861
 51
236.281743085680688
  0
LINE
  5
A82A
  8
0
 10
4323.13837542874262
 20
182.4418090999025139
 30
0.0
 11
4323.13837542874262
 21
182.4531255477612888
 31
0.0
  0
LINE
  5
A82B
  8
0
 10
4323.1285329091442691
 20
182.4430166954834078
 30
0.0
 11
4323.1285329091442691
 21
182.4558305961346036
 31
0.0
  0
ARC
  5
A82C
  8
0
 10
4323.1391366209263651
 20
182.4452948934803089
 30
0.0
 40
0.0108456853026587
 50
192.1256163102256949
 51
231.0826585750085087
  0
ARC
  5
A82D
  8
0
 10
4323.1312574728581239
 20
182.4443329287406073
 30
0.0
 40
0.0075521525405184
 50
278.1137663689286228
 51
340.4769115954812264
  0
ARC
  5
A82E
  8
0
 10
4323.0527993028681522
 20
182.427997910013687
 30
0.0
 40
0.0050532139366088
 50
188.491000187232487
 51
245.6863027676290017
  0
LINE
  5
A82F
  8
0
 10
4323.1031853946269621
 20
182.3946277766017943
 30
0.0
 11
4323.0873612057721402
 21
182.3927487598473931
 31
0.0
  0
LINE
  5
A830
  8
0
 10
4323.0844947776431582
 20
182.3974764464024929
 30
0.0
 11
4323.0844947776431582
 21
182.4024661143824062
 31
0.0
  0
LINE
  5
A831
  8
0
 10
4323.0533561680431376
 20
182.4111271731024999
 30
0.0
 11
4323.0533561680431376
 21
182.4219100263937889
 31
0.0
  0
ARC
  5
A832
  8
0
 10
4323.133659263701702
 20
182.3900655335561964
 30
0.0
 40
0.0050017886250932
 50
273.3370499884736091
 51
332.8316902967770261
  0
ARC
  5
A833
  8
0
 10
4323.1331356122973375
 20
182.3899994167134935
 30
0.0
 40
0.0046043883570214
 50
176.9354818737573112
 51
240.6667030360096078
  0
ARC
  5
A834
  8
0
 10
4323.1329764955316932
 20
182.386528174506708
 30
0.0
 40
0.0066641796364956
 50
276.6960041802540786
 51
334.0646793922344955
  0
ARC
  5
A835
  8
0
 10
4323.134913714443428
 20
182.3861878286955971
 30
0.0
 40
0.0063846683509862
 50
175.4591602190131141
 51
259.5305517358805218
  0
ARC
  5
A836
  8
0
 10
4323.1578008747710555
 20
182.381454425284204
 30
0.0
 40
0.0051826429327796
 50
201.673037672475914
 51
250.1644889410912924
  0
ARC
  5
A837
  8
0
 10
4323.1515454513873919
 20
182.4371476590887937
 30
0.0
 40
0.0616564768642122
 50
277.8285512219258067
 51
282.0017580248921263
  0
ARC
  5
A838
  8
0
 10
4323.0529189674998634
 20
182.4279121221684079
 30
0.0
 40
0.0050263786745523
 50
244.0403707563528997
 51
351.2519932798564923
  0
ARC
  5
A839
  8
0
 10
4323.0602790121747603
 20
182.4117516535571895
 30
0.0
 40
0.0069509529361578
 50
185.154459112268114
 51
238.4597022043847119
  0
ARC
  5
A83A
  8
0
 10
4323.0898537815792224
 20
182.3974928359060925
 30
0.0
 40
0.0053590289978215
 50
180.175227797726194
 51
242.2822018374226047
  0
ARC
  5
A83B
  8
0
 10
4323.2227798353433172
 20
182.3707263499445048
 30
0.0
 40
0.0039
 50
264.4593442442961759
 51
0.0000000001042204
  0
LINE
  5
A83C
  8
0
 10
4323.1856088703425485
 20
182.4407059580024963
 30
0.0
 11
4323.1955341003431386
 21
182.4428418903827946
 31
0.0
  0
LINE
  5
A83D
  8
0
 10
4323.1955341003431386
 20
182.4428418903827946
 30
0.0
 11
4323.1955341003003923
 21
182.4734285907150877
 31
0.0
  0
LINE
  5
A83E
  8
0
 10
4323.1955341003003923
 20
182.4734285907150877
 30
0.0
 11
4323.1865351808755804
 21
182.4792021353030123
 31
0.0
  0
LINE
  5
A83F
  8
0
 10
4323.1955341017437604
 20
182.4734285900024986
 30
0.0
 11
4323.2138574459722804
 21
182.4639733395013081
 31
0.0
  0
LINE
  5
A840
  8
0
 10
4323.2138574459722804
 20
182.4639733395013081
 30
0.0
 11
4323.2240383773023495
 21
182.4667845258620105
 31
0.0
  0
ARC
  5
A841
  8
0
 10
4323.222818082732374
 20
182.4705944925312906
 30
0.0
 40
0.0040006205592999
 50
287.7597474367079258
 51
344.8595325013533284
  0
LINE
  5
A842
  8
0
 10
4323.2680188257927512
 20
182.4963324280477934
 30
0.0
 11
4323.2600125201415722
 21
182.4971168026274029
 31
0.0
  0
LINE
  5
A843
  8
0
 10
4323.2266798353439299
 20
182.4884224405037116
 30
0.0
 11
4323.2411055682050574
 21
182.4862068243645865
 31
0.0
  0
LINE
  5
A844
  8
0
 10
4323.2411055682050574
 20
182.4862068243645865
 30
0.0
 11
4323.2680188257927512
 21
182.4897305141014101
 31
0.0
  0
LINE
  5
A845
  8
0
 10
4323.2680188257927512
 20
182.4706608971989965
 30
0.0
 11
4323.2410791454431092
 21
182.4757612223025092
 31
0.0
  0
LINE
  5
A846
  8
0
 10
4323.2410791454431092
 20
182.4757612223025092
 30
0.0
 11
4323.2266798353439299
 21
182.4731258303339132
 31
0.0
  0
LINE
  5
A847
  8
0
 10
4323.2680188257927512
 20
182.4580316812073875
 30
0.0
 11
4323.2420898208383733
 21
182.4513528530335122
 31
0.0
  0
LINE
  5
A848
  8
0
 10
4323.2420898208383733
 20
182.4513528530335122
 30
0.0
 11
4323.2420898201426098
 21
182.4288696201024891
 31
0.0
  0
LINE
  5
A849
  8
0
 10
4323.2420898201426098
 20
182.4288696201024891
 30
0.0
 11
4323.293947831443802
 21
182.4288696201024891
 31
0.0
  0
ARC
  5
A84A
  8
0
 10
4323.23917411399907
 20
182.496026018520098
 30
0.0
 40
0.0447682147371419
 50
253.7942092341633895
 51
273.734256256480819
  0
ARC
  5
A84B
  8
0
 10
4323.2694742522680826
 20
182.464395597228588
 30
0.0
 40
0.0065282228321748
 50
193.2903601146678909
 51
257.1180073744840229
  0
ARC
  5
A84C
  8
0
 10
4323.8004420181396199
 20
182.4684223707934905
 30
0.0
 40
0.5373495775508341
 50
179.66205139355489
 51
180.5893913382616915
  0
LINE
  5
A84D
  8
0
 10
4323.2630939936916548
 20
182.494579798332893
 30
0.0
 11
4323.2630971582429993
 21
182.4968146018597963
 31
0.0
  0
ARC
  5
A84E
  8
0
 10
4323.2682216406656153
 20
182.4948619092521085
 30
0.0
 40
0.0051354016459553
 50
183.1491024546822075
 51
267.7366017339346058
  0
LINE
  5
A84F
  8
0
 10
4323.2680188257927512
 20
182.4087670920247035
 30
0.0
 11
4323.2414459386372982
 21
182.3985597292709997
 31
0.0
  0
LINE
  5
A850
  8
0
 10
4323.2414459386372982
 20
182.3985597292709997
 30
0.0
 11
4323.2266798353421109
 21
182.4041702631193971
 31
0.0
  0
LINE
  5
A851
  8
0
 10
4323.2266798353421109
 20
182.3722582314574083
 30
0.0
 11
4323.2410644656147269
 21
182.3781973764988038
 31
0.0
  0
LINE
  5
A852
  8
0
 10
4323.2410644656147269
 20
182.3781973764988038
 30
0.0
 11
4323.2609337697604133
 21
182.3698454942775129
 31
0.0
  0
ARC
  5
A853
  8
0
 10
4323.2332883476192364
 20
182.3955695087807953
 30
0.0
 40
0.024700454564177
 50
254.4816976769143082
 51
288.354652307604681
  0
ARC
  5
A854
  8
0
 10
4323.2519134516442136
 20
182.3992767657798026
 30
0.0
 40
0.029237624139355
 50
248.2230696921481012
 51
270.0292697754550773
  0
ARC
  5
A855
  8
0
 10
4323.2599734029217871
 20
182.5495600305098947
 30
0.0
 40
0.1797010585362102
 50
267.4340745093115856
 51
272.5660556279096909
  0
ARC
  5
A856
  8
0
 10
4323.2679528923999897
 20
183.1538461748577902
 30
0.0
 40
0.7856547149878143
 50
266.9686782620927943
 51
270.0048083529213159
  0
LINE
  5
A857
  8
0
 10
4323.245894133044203
 20
182.3819514669525006
 30
0.0
 11
4323.2460570781213391
 21
182.4003309923315044
 31
0.0
  0
LINE
  5
A858
  8
0
 10
4323.2361843083435815
 20
182.3826368200024888
 30
0.0
 11
4323.2361843083435815
 21
182.4005589401851068
 31
0.0
  0
ARC
  5
A859
  8
0
 10
4323.243675766954766
 20
182.3859699403355989
 30
0.0
 40
0.0081994904280416
 50
203.9853691914410945
 51
251.4295068874845072
  0
ARC
  5
A85A
  8
0
 10
4323.2401933107721561
 20
182.3843018723152056
 30
0.0
 40
0.0061663425085377
 50
278.1216768134286781
 51
337.59402109802528
  0
LINE
  5
A85B
  8
0
 10
4322.9801366241408687
 20
182.445088271902307
 30
0.0
 11
4322.9671043212356381
 21
182.4443565951438018
 31
0.0
  0
ARC
  5
A85C
  8
0
 10
4322.7983352573983211
 20
183.7094977106870886
 30
0.0
 40
0.0415424795720828
 50
145.9728267518682969
 51
176.9712746640875025
  0
ARC
  5
A85D
  8
0
 10
4323.5032912029028012
 20
183.2335123221724871
 30
0.0
 40
0.8921451924654938
 50
106.0241602560402043
 51
145.9728267518682969
  0
ARC
  5
A85E
  8
0
 10
4323.2685144250508529
 20
184.0509751212177036
 30
0.0
 40
0.0416361900196745
 50
90.6820128438659339
 51
106.0241602560398064
  0
ARC
  5
A85F
  8
0
 10
4324.1255764026091128
 20
182.3769813029477973
 30
0.0
 40
2.701831654290038
 50
108.7538998614793968
 51
143.2489472768531016
  0
ARC
  5
A860
  8
0
 10
4323.2680188257927512
 20
184.9026996475822955
 30
0.0
 40
0.0345
 50
71.2461001385205606
 51
108.7538998614793968
  0
ARC
  5
A861
  8
0
 10
4321.9880752859899076
 20
183.973190265822808
 30
0.0
 40
0.0340996443772498
 50
143.2489472768517942
 51
180.7623838731074954
  0
ARC
  5
A862
  8
0
 10
4324.6574573288526153
 20
184.008711449976488
 30
0.0
 40
2.7037180150970719
 50
180.7623838731057901
 51
215.349569082024999
  0
ARC
  5
A863
  8
0
 10
4322.467097260256196
 20
182.455003364271505
 30
0.0
 40
0.0182597589163823
 50
215.3495690820263064
 51
252.9132243144802885
  0
ARC
  5
A864
  8
0
 10
4323.3135453390850671
 20
185.2086871704219107
 30
0.0
 40
2.8991014509240931
 50
252.9132243144802885
 51
261.0724392448021263
  0
LINE
  5
A865
  8
0
 10
4322.7589459761011312
 20
183.7226985488375988
 30
0.0
 11
4321.9556435551940012
 21
183.9837244285442068
 31
0.0
  0
LINE
  5
A866
  8
0
 10
4322.4563983491925683
 20
182.4402063342396048
 30
0.0
 11
4322.7568508055856
 21
182.8533081961350035
 31
0.0
  0
LINE
  5
A867
  8
0
 10
4323.7791868459999023
 20
182.4954490402101044
 30
0.0
 11
4323.7791868459999023
 21
183.7116926746552963
 31
0.0
  0
ARC
  5
A868
  8
0
 10
4323.2634232327827704
 20
185.0392904810128982
 30
0.0
 40
2.780349496435087
 50
270.094703275356494
 51
275.6676704178233877
  0
ARC
  5
A869
  8
0
 10
4323.531919131622999
 20
182.3335224941004071
 30
0.0
 40
0.0612926019498163
 50
275.6990897659392772
 51
291.8774211688664764
  0
ARC
  5
A86A
  8
0
 10
4323.3767255742513953
 20
182.7200186317382133
 30
0.0
 40
0.4777830636152669
 50
291.8774211688664764
 51
311.4303282247893776
  0
ARC
  5
A86B
  8
0
 10
4323.4804476308017911
 20
182.6305287090862919
 30
0.0
 40
0.3425558688766686
 50
308.3260639775942877
 51
322.4813009864764126
  0
ARC
  5
A86C
  8
0
 10
4323.6669817747979323
 20
182.4949602251861904
 30
0.0
 40
0.1122061359456796
 50
319.3770367392888261
 51
0.2496042308640437
  0
ARC
  5
A86D
  8
0
 10
4323.2663556821180464
 20
182.5483653657894934
 30
0.0
 40
0.0786692997117957
 50
78.2480829484240417
 51
88.7886225850275537
  0
ARC
  5
A86E
  8
0
 10
4323.1617244165072407
 20
180.9469462560051056
 30
0.0
 40
1.682770405987672
 50
68.8036027591587498
 51
85.888379624951142
  0
ARC
  5
A86F
  8
0
 10
4323.7674009072079571
 20
182.5032107149924059
 30
0.0
 40
0.012957193114392
 50
24.5490589241302288
 51
77.7194366149088864
  0
ARC
  5
A870
  8
0
 10
4323.1196348449930156
 20
180.796778626608301
 30
0.0
 40
1.760142436432361
 50
69.8869047544275901
 51
84.8047854578798592
  0
ARC
  5
A871
  8
0
 10
4323.7208357190356764
 20
182.4384744888232888
 30
0.0
 40
0.0118267341165267
 50
23.1896599333970705
 51
69.8869047544275901
  0
ARC
  5
A872
  8
0
 10
4323.6169468981606769
 20
182.4479792957532993
 30
0.0
 40
0.1148623745144471
 50
311.2821431577975773
 51
357.5811351069834245
  0
ARC
  5
A873
  8
0
 10
4323.2688127492074273
 20
183.3666570851829931
 30
0.0
 40
1.0854590619283451
 50
269.9580928784300227
 51
276.2534410983785165
  0
ARC
  5
A874
  8
0
 10
4323.3041872838957715
 20
183.0438336724218118
 30
0.0
 40
0.760703286719807
 50
276.2534410983785165
 51
286.5213084207236989
  0
ARC
  5
A875
  8
0
 10
4323.4500605616030953
 20
182.5520454408010096
 30
0.0
 40
0.2477367401400032
 50
286.5213084207236989
 51
305.862356047587582
  0
ARC
  5
A876
  8
0
 10
4323.5609884075038281
 20
182.3985924733158015
 30
0.0
 40
0.0583883833311338
 50
305.862356047587582
 51
336.5303580303612989
  0
ARC
  5
A877
  8
0
 10
4323.5818680415040944
 20
182.3895269016583995
 30
0.0
 40
0.0356256131699036
 50
336.53035803036272
 51
38.8080913058767507
  0
ARC
  5
A878
  8
0
 10
4323.4938466725161561
 20
182.3086133061862881
 30
0.0
 40
0.1551265505374323
 50
41.722646038110959
 51
71.2590238680594439
  0
ARC
  5
A879
  8
0
 10
4323.3252204996770161
 20
181.8503658391576892
 30
0.0
 40
0.6433766083609119
 50
70.1497536574328535
 51
84.9053260668020187
  0
ARC
  5
A87A
  8
0
 10
4323.2699152344312097
 20
181.4266635602652968
 30
0.0
 40
1.0704586024487901
 50
83.9706776954606653
 51
89.0997203004985892
  0
ARC
  5
A87B
  8
0
 10
4323.2680310746727628
 20
181.3694750597445022
 30
0.0
 40
1.127670078185921
 50
89.0496546327723451
 51
90.0006223532030702
  0
ARC
  5
A87C
  8
0
 10
4323.2460843512044448
 20
183.4915626062430078
 30
0.0
 40
1.1435986591938681
 50
271.099013083254988
 51
274.6879872984903841
  0
ARC
  5
A87D
  8
0
 10
4323.2878329532495627
 20
182.9362909104681023
 30
0.0
 40
0.5867846371742949
 50
275.0564160553956867
 51
287.0179827708890912
  0
ARC
  5
A87E
  8
0
 10
4323.4111514625747077
 20
182.5333865615212119
 30
0.0
 40
0.1654304285299065
 50
287.0179827708890912
 51
307.1906827087062197
  0
ARC
  5
A87F
  8
0
 10
4323.4767609202317544
 20
182.4469200993202946
 30
0.0
 40
0.056889883019705
 50
307.1906827087062197
 51
338.4966837055213773
  0
ARC
  5
A880
  8
0
 10
4323.5011299643647362
 20
182.4373192481731962
 30
0.0
 40
0.0306977724768323
 50
338.4966837055213773
 51
22.5103659726491614
  0
ARC
  5
A881
  8
0
 10
4323.4708485149412809
 20
182.4164070559029085
 30
0.0
 40
0.0671244012084944
 50
29.1194232174466983
 51
45.3754862338335627
  0
ARC
  5
A882
  8
0
 10
4323.2055215469817995
 20
183.9000163669277867
 30
0.0
 40
1.549189285361948
 50
272.3120494930456061
 51
275.2116344834136044
  0
ARC
  5
A883
  8
0
 10
4323.2572430528853147
 20
183.0662820394200025
 30
0.0
 40
0.7146142287187424
 50
277.1542520289352751
 51
284.341458454402698
  0
ARC
  5
A884
  8
0
 10
4323.3915385197469732
 20
182.5410082253885946
 30
0.0
 40
0.1724446499642292
 50
284.341458454402698
 51
303.9975662584072893
  0
ARC
  5
A885
  8
0
 10
4323.4593063399615858
 20
182.4405290940383111
 30
0.0
 40
0.0512483905598695
 50
303.9975662584083125
 51
334.5100041557794839
  0
ARC
  5
A886
  8
0
 10
4323.4803547287028778
 20
182.4270741070153008
 30
0.0
 40
0.0266379231876389
 50
341.1648962977014889
 51
42.5429783198944875
  0
ARC
  5
A887
  8
0
 10
4323.4075539685190961
 20
182.3495164905843922
 30
0.0
 40
0.1329514248401596
 50
45.9574656032250388
 51
75.9453554400480328
  0
ARC
  5
A888
  8
0
 10
4323.3124341388702305
 20
182.0657979884784936
 30
0.0
 40
0.4319091090108033
 50
72.8433620714517218
 51
79.3071026255732505
  0
ARC
  5
A889
  8
0
 10
4323.374016337888861
 20
182.2502273327405931
 30
0.0
 40
0.2429520371782617
 50
60.2785298056949514
 51
72.8347690863565305
  0
ARC
  5
A88A
  8
0
 10
4323.4638820272557496
 20
182.4076415676117904
 30
0.0
 40
0.0616923244300898
 50
30.5078522284890816
 51
60.2785298056949514
  0
ARC
  5
A88B
  8
0
 10
4323.4967182766649785
 20
182.4269896587146036
 30
0.0
 40
0.0235797555773683
 50
326.8448694552369034
 51
30.5078522284904814
  0
ARC
  5
A88C
  8
0
 10
4323.4592500515582287
 20
182.4514662928019106
 30
0.0
 40
0.0683343476201967
 50
300.2843488404233767
 51
326.8448694552369034
  0
ARC
  5
A88D
  8
0
 10
4323.3885782760780785
 20
182.5724824176647019
 30
0.0
 40
0.208474999560379
 50
288.0796013893390182
 51
300.2843488404233767
  0
ARC
  5
A88E
  8
0
 10
4323.0381967574594455
 20
183.6457698477798886
 30
0.0
 40
1.337506937209981
 50
287.075692336105476
 51
288.0796013893390182
  0
ARC
  5
A88F
  8
0
 10
4323.4014393497973288
 20
182.6990783932411091
 30
0.0
 40
0.3211271515808505
 50
287.6383130079789225
 51
293.5861403048264719
  0
ARC
  5
A890
  8
0
 10
4323.5282201822719799
 20
182.4086970866736976
 30
0.0
 40
0.0042759519823821
 50
293.5861403048264719
 51
6.3508429841082492
  0
ARC
  5
A891
  8
0
 10
4325.0898988568542336
 20
182.4562940477287896
 30
0.0
 40
1.5581417279611509
 50
179.8751660285905132
 51
181.7331006466403096
  0
ARC
  5
A892
  8
0
 10
4323.528489160812569
 20
182.4084672464094865
 30
0.0
 40
0.003960703200842
 50
257.5070188760096244
 51
291.3499501136865888
  0
ARC
  5
A893
  8
0
 10
4323.3165079980353767
 20
181.4517273759533111
 30
0.0
 40
0.9759817405648927
 50
77.5070188760096244
 51
78.136214490980521
  0
LINE
  5
A894
  8
0
 10
4323.5318358963168066
 20
182.4406270309036131
 30
0.0
 11
4323.5502463680068104
 21
182.4497827776478118
 31
0.0
  0
LINE
  5
A895
  8
0
 10
4323.5500852336435855
 20
182.4531867163418042
 30
0.0
 11
4323.5500852336435855
 21
182.451349038351907
 31
0.0
  0
ARC
  5
A896
  8
0
 10
4323.5561867979859016
 20
182.4511853384352946
 30
0.0
 40
0.0061037599157694
 50
178.4631703693650024
 51
267.3165010109153172
  0
LINE
  5
A897
  8
0
 10
4323.3093578162433914
 20
182.3707263499445901
 30
0.0
 11
4323.3093578162433914
 21
182.4963952566716898
 31
0.0
  0
LINE
  5
A898
  8
0
 10
4323.3438365231431817
 20
182.4945667687217963
 30
0.0
 11
4323.3438365231431817
 21
182.4839896683025131
 31
0.0
  0
LINE
  5
A899
  8
0
 10
4323.3536790428443055
 20
182.4938398549593046
 30
0.0
 11
4323.3536790428443055
 21
182.4843432219024919
 31
0.0
  0
LINE
  5
A89A
  8
0
 10
4323.3988057365631903
 20
182.4881456649164875
 30
0.0
 11
4323.3775677894427645
 21
182.474239303302511
 31
0.0
  0
LINE
  5
A89B
  8
0
 10
4323.3775677894427645
 20
182.474239303302511
 30
0.0
 11
4323.3495024707099219
 21
182.4792021353030123
 31
0.0
  0
LINE
  5
A89C
  8
0
 10
4323.3765752664430693
 20
182.4544199003024971
 30
0.0
 11
4323.3504287811911126
 21
182.4407059580778139
 31
0.0
  0
LINE
  5
A89D
  8
0
 10
4323.3765752664430693
 20
182.4544199003024971
 30
0.0
 11
4323.4027217517350437
 21
182.452814985442302
 31
0.0
  0
LINE
  5
A89E
  8
0
 10
4323.4027217517350437
 20
182.452814985442302
 30
0.0
 11
4323.4308532828426905
 21
182.4705515338025066
 31
0.0
  0
LINE
  5
A89F
  8
0
 10
4323.4308532828426905
 20
182.4705515338025066
 30
0.0
 11
4323.4584873980302291
 21
182.4723247440745126
 31
0.0
  0
LINE
  5
A8A0
  8
0
 10
4323.3504287811911126
 20
182.4407059580778139
 30
0.0
 11
4323.3504287812593248
 21
182.4254478917135884
 31
0.0
  0
LINE
  5
A8A1
  8
0
 10
4323.3504287812593248
 20
182.4254478917135884
 30
0.0
 11
4323.3765752663975945
 21
182.4237371365971967
 31
0.0
  0
LINE
  5
A8A2
  8
0
 10
4323.3765752663975945
 20
182.4237371365971967
 30
0.0
 11
4323.4037142747210964
 21
182.4368563749461032
 31
0.0
  0
LINE
  5
A8A3
  8
0
 10
4323.4037142747210964
 20
182.4368563749461032
 30
0.0
 11
4323.4298607598848321
 21
182.4382892890033077
 31
0.0
  0
LINE
  5
A8A4
  8
0
 10
4323.4298607598848321
 20
182.4382892890033077
 30
0.0
 11
4323.4578184485926613
 21
182.456024993402508
 31
0.0
  0
LINE
  5
A8A5
  8
0
 10
4323.4578184485926613
 20
182.456024993402508
 30
0.0
 11
4323.4809717122407164
 21
182.4603583431218112
 31
0.0
  0
LINE
  5
A8A6
  8
0
 10
4323.3504287812429538
 20
182.425447891702504
 30
0.0
 11
4323.3405035512432733
 21
182.4206572045025041
 31
0.0
  0
LINE
  5
A8A7
  8
0
 10
4323.3405035512432733
 20
182.4206572045025041
 30
0.0
 11
4323.3405035512432733
 21
182.4003617744025121
 31
0.0
  0
LINE
  5
A8A8
  8
0
 10
4323.3405035512432733
 20
182.4003617744025121
 30
0.0
 11
4323.3504287812429538
 21
182.3995465441024919
 31
0.0
  0
LINE
  5
A8A9
  8
0
 10
4323.3504287812429538
 20
182.3995465441024919
 30
0.0
 11
4323.3765752664430693
 21
182.4100558225626116
 31
0.0
  0
LINE
  5
A8AA
  8
0
 10
4323.3765752664430693
 20
182.4100558225626116
 30
0.0
 11
4323.4027217516968449
 21
182.411314807575593
 31
0.0
  0
LINE
  5
A8AB
  8
0
 10
4323.4027217516968449
 20
182.411314807575593
 30
0.0
 11
4323.4308532829309115
 21
182.4256000355561866
 31
0.0
  0
LINE
  5
A8AC
  8
0
 10
4323.4308532829309115
 20
182.4256000355561866
 30
0.0
 11
4323.4581861224123713
 21
182.4305517102108922
 31
0.0
  0
LINE
  5
A8AD
  8
0
 10
4323.4581861224123713
 20
182.4305517102108922
 30
0.0
 11
4323.485131298442866
 21
182.4483804745024997
 31
0.0
  0
LINE
  5
A8AE
  8
0
 10
4323.485131298442866
 20
182.4483804745024997
 30
0.0
 11
4323.4936388161777359
 21
182.4508351974972982
 31
0.0
  0
LINE
  5
A8AF
  8
0
 10
4323.3504287812429538
 20
182.3995465441024919
 30
0.0
 11
4323.3505052506397988
 21
182.3902175192291111
 31
0.0
  0
LINE
  5
A8B0
  8
0
 10
4323.3505052506397988
 20
182.3902175192291111
 30
0.0
 11
4323.3766989173764159
 21
182.3910147057468976
 31
0.0
  0
LINE
  5
A8B1
  8
0
 10
4323.3766989173764159
 20
182.3910147057468976
 30
0.0
 11
4323.4037086797934535
 21
182.4017353329525122
 31
0.0
  0
LINE
  5
A8B2
  8
0
 10
4323.4037086797934535
 20
182.4017353329525122
 30
0.0
 11
4323.4308985366806155
 21
182.4065719005299968
 31
0.0
  0
LINE
  5
A8B3
  8
0
 10
4323.4308985366806155
 20
182.4065719005299968
 30
0.0
 11
4323.4579774118401474
 21
182.4210777925572131
 31
0.0
  0
LINE
  5
A8B4
  8
0
 10
4323.4579774118401474
 20
182.4210777925572131
 30
0.0
 11
4323.4853808774014396
 21
182.4293230969782087
 31
0.0
  0
LINE
  5
A8B5
  8
0
 10
4323.4853808774014396
 20
182.4293230969782087
 30
0.0
 11
4323.4954215083425879
 21
182.4360061836524949
 31
0.0
  0
LINE
  5
A8B6
  8
0
 10
4323.4954215083425879
 20
182.4360061836524949
 30
0.0
 11
4323.5047383322507812
 21
182.4377987902167035
 31
0.0
  0
LINE
  5
A8B7
  8
0
 10
4323.3505052506397988
 20
182.3902175192291111
 30
0.0
 11
4323.3405035512396353
 21
182.3867822813701878
 31
0.0
  0
LINE
  5
A8B8
  8
0
 10
4323.3405035512396353
 20
182.3867822813701878
 30
0.0
 11
4323.3405035512432733
 21
182.3761374200024932
 31
0.0
  0
LINE
  5
A8B9
  8
0
 10
4323.3405035512432733
 20
182.3761374200024932
 30
0.0
 11
4323.3494362586707211
 21
182.3767591825371994
 31
0.0
  0
LINE
  5
A8BA
  8
0
 10
4323.3494362586707211
 20
182.3767591825371994
 30
0.0
 11
4323.3765752664430693
 21
182.3842936378025001
 31
0.0
  0
LINE
  5
A8BB
  8
0
 10
4323.3765752664430693
 20
182.3842936378025001
 30
0.0
 11
4323.4038953640420004
 21
182.3887563843233011
 31
0.0
  0
LINE
  5
A8BC
  8
0
 10
4323.4038953640420004
 20
182.3887563843233011
 30
0.0
 11
4323.4307980400426459
 21
182.3998711832024924
 31
0.0
  0
LINE
  5
A8BD
  8
0
 10
4323.4307980400426459
 20
182.3998711832024924
 30
0.0
 11
4323.4581740692192398
 21
182.4081310428204006
 31
0.0
  0
LINE
  5
A8BE
  8
0
 10
4323.4581740692192398
 20
182.4081310428204006
 30
0.0
 11
4323.4853189197547181
 21
182.4233928915278113
 31
0.0
  0
LINE
  5
A8BF
  8
0
 10
4323.4853189197547181
 20
182.4233928915278113
 30
0.0
 11
4323.5018331929550186
 21
182.4211370804592889
 31
0.0
  0
ARC
  5
A8C0
  8
0
 10
4323.2680192315283421
 20
182.8370782571070094
 30
0.0
 40
0.472440959640737
 50
275.540655755442117
 51
278.8254708727062052
  0
ARC
  5
A8C1
  8
0
 10
4323.3398995153302167
 20
182.3741212635883073
 30
0.0
 40
0.0039370076324422
 50
278.8254708727062052
 51
320.3531509652082718
  0
ARC
  5
A8C2
  8
0
 10
4323.26435051212502
 20
183.0983201107418097
 30
0.0
 40
0.7309470419247752
 50
276.1715100204513078
 51
280.2206667663762119
  0
ARC
  5
A8C3
  8
0
 10
4323.3739982186079942
 20
182.5917318937119944
 30
0.0
 40
0.2137026854635209
 50
275.3838798587661927
 51
305.2790310172908903
  0
ARC
  5
A8C4
  8
0
 10
4323.3561725254940029
 20
182.5830199181575892
 30
0.0
 40
0.2177684164121449
 50
310.4385456601571036
 51
313.1605045863586838
  0
ARC
  5
A8C5
  8
0
 10
4323.2733604616832963
 20
183.0372891811761065
 30
0.0
 40
0.6768455050172522
 50
273.0486573711543201
 51
279.2064735889049985
  0
ARC
  5
A8C6
  8
0
 10
4323.3211713673936174
 20
182.742306913810296
 30
0.0
 40
0.3780137450500269
 50
279.2064735889049985
 51
293.6989202340050724
  0
ARC
  5
A8C7
  8
0
 10
4323.4438648930035924
 20
182.462788948664894
 30
0.0
 40
0.0727532103164054
 50
293.6989202340050724
 51
324.297934181878702
  0
ARC
  5
A8C8
  8
0
 10
4323.4857413333347722
 20
182.4326953841359966
 30
0.0
 40
0.0211852078259917
 50
324.2979341818800094
 51
353.5760806695188876
  0
LINE
  5
A8C9
  8
0
 10
4323.3494362586707211
 20
182.3767591825371994
 30
0.0
 11
4323.3494697298428946
 21
182.3731315412597098
 31
0.0
  0
LINE
  5
A8CA
  8
0
 10
4323.3494697298428946
 20
182.3731315412597098
 30
0.0
 11
4323.3765752664430693
 21
182.3776578275025031
 31
0.0
  0
LINE
  5
A8CB
  8
0
 10
4323.3765752664430693
 20
182.3776578275025031
 30
0.0
 11
4323.4035677346437296
 21
182.3855024949887991
 31
0.0
  0
LINE
  5
A8CC
  8
0
 10
4323.4035677346437296
 20
182.3855024949887991
 30
0.0
 11
4323.4308532828990792
 21
182.393789461103097
 31
0.0
  0
LINE
  5
A8CD
  8
0
 10
4323.4308532828990792
 20
182.393789461103097
 30
0.0
 11
4323.4579922903467377
 21
182.4051708246821875
 31
0.0
  0
LINE
  5
A8CE
  8
0
 10
4323.4579922903467377
 20
182.4051708246821875
 30
0.0
 11
4323.4665905194106017
 21
182.408851802794004
 31
0.0
  0
LINE
  5
A8CF
  8
0
 10
4323.4665905194106017
 20
182.408851802794004
 30
0.0
 11
4323.4793946698391665
 21
182.4058275477642894
 31
0.0
  0
LINE
  5
A8D0
  8
0
 10
4323.3707493729425551
 20
182.4596888221024926
 30
0.0
 11
4323.3707493729425551
 21
182.4754450140204085
 31
0.0
  0
LINE
  5
A8D1
  8
0
 10
4323.3805635266426179
 20
182.4596914725024988
 30
0.0
 11
4323.3806017461329247
 21
182.4762259029776033
 31
0.0
  0
LINE
  5
A8D2
  8
0
 10
4323.4245750726422557
 20
182.4756004126024891
 30
0.0
 11
4323.4245750726422557
 21
182.4828949669127951
 31
0.0
  0
LINE
  5
A8D3
  8
0
 10
4323.4344091787397701
 20
182.4760781432489125
 30
0.0
 11
4323.4344199215311164
 21
182.4801226767064009
 31
0.0
  0
LINE
  5
A8D4
  8
0
 10
4323.451487922443448
 20
182.4608372197025119
 30
0.0
 11
4323.451487922443448
 21
182.4718756056842892
 31
0.0
  0
LINE
  5
A8D5
  8
0
 10
4323.4613387529007014
 20
182.4619159048581025
 30
0.0
 11
4323.461326919232306
 21
182.4711082301832903
 31
0.0
  0
LINE
  5
A8D6
  8
0
 10
4323.4784007722437309
 20
182.4529960287916879
 30
0.0
 11
4323.4784007722437309
 21
182.4598771676691911
 31
0.0
  0
LINE
  5
A8D7
  8
0
 10
4323.4881997622005656
 20
182.452985247834107
 30
0.0
 11
4323.4882561295653431
 21
182.4551727377711074
 31
0.0
  0
LINE
  5
A8D8
  8
0
 10
4323.4515203764931357
 20
182.4246264843525012
 30
0.0
 11
4323.4514785155388381
 21
182.4293365460501093
 31
0.0
  0
LINE
  5
A8D9
  8
0
 10
4323.4612920050849425
 20
182.4251780375666954
 30
0.0
 11
4323.461339589292038
 21
182.4326382587512114
 31
0.0
  0
LINE
  5
A8DA
  8
0
 10
4323.397689631535286
 20
182.4058099539950888
 30
0.0
 11
4323.3976539356572175
 21
182.4110707860797902
 31
0.0
  0
LINE
  5
A8DB
  8
0
 10
4323.4075047424430522
 20
182.4067884598024989
 30
0.0
 11
4323.4075047424430522
 21
182.4137436164687927
 31
0.0
  0
LINE
  5
A8DC
  8
0
 10
4323.3707639789081441
 20
182.3882438879603001
 30
0.0
 11
4323.3707392331889423
 21
182.3908333267924888
 31
0.0
  0
LINE
  5
A8DD
  8
0
 10
4323.3805918926427694
 20
182.388984362602514
 30
0.0
 11
4323.3805918926427694
 21
182.3925598928506133
 31
0.0
  0
LINE
  5
A8DE
  8
0
 10
4323.3438365231431817
 20
182.3803315474025055
 30
0.0
 11
4323.3438365231431817
 21
182.3879270419562033
 31
0.0
  0
LINE
  5
A8DF
  8
0
 10
4323.4245750726422557
 20
182.4040627442770983
 30
0.0
 11
4323.4245750726422557
 21
182.4054470744129901
 31
0.0
  0
LINE
  5
A8E0
  8
0
 10
4323.4344175923433795
 20
182.4047320288933918
 30
0.0
 11
4323.4344175923433795
 21
182.4084570246781141
 31
0.0
  0
LINE
  5
A8E1
  8
0
 10
4323.4882361747240793
 20
182.4272517824684883
 30
0.0
 11
4323.4882441391164321
 21
182.4312288961577053
 31
0.0
  0
ARC
  5
A8E2
  8
0
 10
4323.3758962173487816
 20
182.4595244016257141
 30
0.0
 40
0.0051494700145701
 50
178.1702581413732958
 51
277.5775365814487259
  0
ARC
  5
A8E3
  8
0
 10
4323.3759622317393223
 20
182.4590281627775994
 30
0.0
 40
0.004648859493229
 50
277.5775365814487259
 51
8.2030862715371562
  0
ARC
  5
A8E4
  8
0
 10
4323.3475564049858804
 20
182.485050149413297
 30
0.0
 40
0.0061633141115219
 50
288.4060896164718883
 51
353.4137213970470839
  0
ARC
  5
A8E5
  8
0
 10
4323.3513555407344029
 20
182.4871417389825012
 30
0.0
 40
0.0081529856556783
 50
202.7440695692534973
 51
256.8625843437910135
  0
ARC
  5
A8E6
  8
0
 10
4323.4305755586237865
 20
182.4766340603233061
 30
0.0
 40
0.006088863573657
 50
189.7738866417859924
 51
272.6142724451848949
  0
ARC
  5
A8E7
  8
0
 10
4323.429625002037028
 20
182.4752490871082955
 30
0.0
 40
0.0048554794610461
 50
284.6532114020939161
 51
9.831225170481467
  0
ARC
  5
A8E8
  8
0
 10
4323.4553148139266341
 20
182.4615184125860026
 30
0.0
 40
0.006037039081241
 50
294.5012031208855205
 51
3.7752144545035482
  0
ARC
  5
A8E9
  8
0
 10
4323.456847813920831
 20
182.4613181595777007
 30
0.0
 40
0.0053814254454
 50
185.1273848296557958
 51
280.3911708859404257
  0
ARC
  5
A8EA
  8
0
 10
4323.4829049249574382
 20
182.4531888002103983
 30
0.0
 40
0.0052987484383589
 50
294.845301160024917
 51
357.798430591145177
  0
ARC
  5
A8EB
  8
0
 10
4323.4844357399415458
 20
182.4545812871575095
 30
0.0
 40
0.0062397018527744
 50
194.7178901604939938
 51
276.400236530584209
  0
ARC
  5
A8EC
  8
0
 10
4323.455333370326116
 20
182.4266050697929131
 30
0.0
 40
0.006127132213444
 50
295.564698573698422
 51
346.5319103329157997
  0
ARC
  5
A8ED
  8
0
 10
4323.4560212047090317
 20
182.4251671758320867
 30
0.0
 40
0.0045331889334166
 50
186.8502036832319106
 51
295.564698573698422
  0
ARC
  5
A8EE
  8
0
 10
4323.4272180311827469
 20
182.406315024693896
 30
0.0
 40
0.007371536923065
 50
299.0552626223665129
 51
347.5994715131915882
  0
ARC
  5
A8EF
  8
0
 10
4323.4296659928886584
 20
182.40490571826831
 30
0.0
 40
0.0051602397317965
 50
189.4019455775550966
 51
282.6725490484932948
  0
ARC
  5
A8F0
  8
0
 10
4323.3991016917252637
 20
182.4091486648852936
 30
0.0
 40
0.0087282202886387
 50
301.8587337260200911
 51
344.3112863460838184
  0
ARC
  5
A8F1
  8
0
 10
4323.4034626789607501
 20
182.4078549323334926
 30
0.0
 40
0.0061245418598751
 50
199.5055999756226015
 51
272.3019847782044849
  0
ARC
  5
A8F2
  8
0
 10
4323.3749360215788329
 20
182.3897623718575005
 30
0.0
 40
0.0057091309222015
 50
286.6860235600203737
 51
352.167672528880928
  0
ARC
  5
A8F3
  8
0
 10
4323.3752752146792773
 20
182.3886307795687003
 30
0.0
 40
0.0045277956328397
 50
184.9017938026092054
 51
286.6860235600717033
  0
ARC
  5
A8F4
  8
0
 10
4323.3352139344578973
 20
182.3837623307938998
 30
0.0
 40
0.009280049046659
 50
304.7501418066007091
 51
338.3032204671791874
  0
LINE
  5
A8F5
  8
0
 10
4323.3707792057930419
 20
182.4145695091524999
 30
0.0
 11
4323.370732359370777
 21
182.4241194359020142
 31
0.0
  0
LINE
  5
A8F6
  8
0
 10
4323.3806014722904365
 20
182.4155541797215108
 30
0.0
 11
4323.3805878104094518
 21
182.4256768361115064
 31
0.0
  0
LINE
  5
A8F7
  8
0
 10
4323.4246299216429179
 20
182.4297620331024916
 30
0.0
 11
4323.4245554687386175
 21
182.4379985414626049
 31
0.0
  0
LINE
  5
A8F8
  8
0
 10
4323.4344175923433795
 20
182.4308669921024944
 30
0.0
 11
4323.4344175923433795
 21
182.4411800370305059
 31
0.0
  0
ARC
  5
A8F9
  8
0
 10
4323.372346753304555
 20
182.4173754628930055
 30
0.0
 40
0.0084532513222992
 50
300.0147734535723885
 51
347.5578614157092261
  0
ARC
  5
A8FA
  8
0
 10
4323.3774157873722288
 20
182.417113369091993
 30
0.0
 40
0.0071074213641122
 50
200.9722664772064036
 51
263.2083292290313921
  0
ARC
  5
A8FB
  8
0
 10
4323.4320243557112917
 20
182.4340849597446947
 30
0.0
 40
0.0085653575489501
 50
210.3113675610842108
 51
262.141793623054582
  0
ARC
  5
A8FC
  8
0
 10
4323.4261804727420895
 20
182.4326017845617116
 30
0.0
 40
0.0084178170686149
 50
303.7182569143192268
 51
348.1069326045818002
  0
LINE
  5
A8FD
  8
0
 10
4323.3976622228437918
 20
182.4418090999025139
 30
0.0
 11
4323.3976622228437918
 21
182.4531255477612888
 31
0.0
  0
LINE
  5
A8FE
  8
0
 10
4323.4075047424430522
 20
182.4430166954834078
 30
0.0
 11
4323.4075047424430522
 21
182.4558305961346036
 31
0.0
  0
ARC
  5
A8FF
  8
0
 10
4323.3969010306609562
 20
182.4452948934803089
 30
0.0
 40
0.0108456853026587
 50
308.9173414249914913
 51
347.8743836897742199
  0
ARC
  5
A900
  8
0
 10
4323.4047801787291974
 20
182.4443329287406073
 30
0.0
 40
0.0075521525405184
 50
199.5230884045172104
 51
261.8862336310713772
  0
ARC
  5
A901
  8
0
 10
4323.4832383487191692
 20
182.427997910013687
 30
0.0
 40
0.0050532139366088
 50
294.3136972323709983
 51
351.5089998127673994
  0
LINE
  5
A902
  8
0
 10
4323.4328522569594497
 20
182.3946277766017943
 30
0.0
 11
4323.4486764458133621
 21
182.3927487598473931
 31
0.0
  0
LINE
  5
A903
  8
0
 10
4323.4515428739432537
 20
182.3974764464024929
 30
0.0
 11
4323.4515428739432537
 21
182.4024661143824062
 31
0.0
  0
LINE
  5
A904
  8
0
 10
4323.4826814835432742
 20
182.4111271731024999
 30
0.0
 11
4323.4826814835432742
 21
182.4219100263937889
 31
0.0
  0
ARC
  5
A905
  8
0
 10
4323.4023783878838003
 20
182.3900655335561964
 30
0.0
 40
0.0050017886250932
 50
207.1683097032228886
 51
266.6629500115265046
  0
ARC
  5
A906
  8
0
 10
4323.4029020392899838
 20
182.3899994167134935
 30
0.0
 40
0.0046043883570214
 50
299.3332969639903922
 51
3.0645181262426799
  0
ARC
  5
A907
  8
0
 10
4323.4030611560538091
 20
182.386528174506708
 30
0.0
 40
0.0066641796364956
 50
205.9353206077655045
 51
263.3039958197459214
  0
ARC
  5
A908
  8
0
 10
4323.4011239371438933
 20
182.3861878286955971
 30
0.0
 40
0.0063846683509862
 50
280.4694482641194782
 51
4.5408397809869196
  0
ARC
  5
A909
  8
0
 10
4323.3782367768162658
 20
182.381454425284204
 30
0.0
 40
0.0051826429327796
 50
289.8355110589087076
 51
338.326962327524086
  0
ARC
  5
A90A
  8
0
 10
4323.3844922001999294
 20
182.4371476590887937
 30
0.0
 40
0.0616564768642122
 50
257.9982419751078737
 51
262.1714487780741933
  0
ARC
  5
A90B
  8
0
 10
4323.483118684085639
 20
182.4279121221684079
 30
0.0
 40
0.0050263786745523
 50
188.7480067201435077
 51
295.9596292436464182
  0
ARC
  5
A90C
  8
0
 10
4323.475758639410742
 20
182.4117516535571895
 30
0.0
 40
0.0069509529361578
 50
301.5402977956152881
 51
354.845540887731886
  0
ARC
  5
A90D
  8
0
 10
4323.4461838700080989
 20
182.3974928359060925
 30
0.0
 40
0.0053590289978215
 50
297.7177981625774237
 51
359.8247722022737776
  0
ARC
  5
A90E
  8
0
 10
4323.3132578162430946
 20
182.3707263499445048
 30
0.0
 40
0.0039
 50
179.9999999998956923
 51
275.5406557557038241
  0
LINE
  5
A90F
  8
0
 10
4323.3504287812429538
 20
182.4407059580024963
 30
0.0
 11
4323.3405035512432733
 21
182.4428418903827946
 31
0.0
  0
LINE
  5
A910
  8
0
 10
4323.3405035512432733
 20
182.4428418903827946
 30
0.0
 11
4323.34050355128511
 21
182.4734285907150877
 31
0.0
  0
LINE
  5
A911
  8
0
 10
4323.34050355128511
 20
182.4734285907150877
 30
0.0
 11
4323.3495024707099219
 21
182.4792021353030123
 31
0.0
  0
LINE
  5
A912
  8
0
 10
4323.3405035498426514
 20
182.4734285900024986
 30
0.0
 11
4323.3221802056141314
 21
182.4639733395013081
 31
0.0
  0
LINE
  5
A913
  8
0
 10
4323.3221802056141314
 20
182.4639733395013081
 30
0.0
 11
4323.3119992742840623
 21
182.4667845258620105
 31
0.0
  0
ARC
  5
A914
  8
0
 10
4323.3132195688540378
 20
182.4705944925312906
 30
0.0
 40
0.0040006205592999
 50
195.1404674986451084
 51
252.2402525632921026
  0
LINE
  5
A915
  8
0
 10
4323.2680188257927512
 20
182.4963324280477934
 30
0.0
 11
4323.2760251314439301
 21
182.4971168026274029
 31
0.0
  0
LINE
  5
A916
  8
0
 10
4323.3093578162433914
 20
182.4884224405037116
 30
0.0
 11
4323.294932083382264
 21
182.4862068243645865
 31
0.0
  0
LINE
  5
A917
  8
0
 10
4323.294932083382264
 20
182.4862068243645865
 30
0.0
 11
4323.2680188257927512
 21
182.4897305141014101
 31
0.0
  0
LINE
  5
A918
  8
0
 10
4323.2680188257927512
 20
182.4706608971989965
 30
0.0
 11
4323.2949585061433027
 21
182.4757612223025092
 31
0.0
  0
LINE
  5
A919
  8
0
 10
4323.2949585061433027
 20
182.4757612223025092
 30
0.0
 11
4323.3093578162433914
 21
182.4731258303339132
 31
0.0
  0
LINE
  5
A91A
  8
0
 10
4323.2680188257927512
 20
182.4580316812073875
 30
0.0
 11
4323.293947830747129
 21
182.4513528530335122
 31
0.0
  0
LINE
  5
A91B
  8
0
 10
4323.293947830747129
 20
182.4513528530335122
 30
0.0
 11
4323.293947831443802
 21
182.4288696201024891
 31
0.0
  0
ARC
  5
A91C
  8
0
 10
4323.2968635375882513
 20
182.496026018520098
 30
0.0
 40
0.0447682147371419
 50
266.265743743519181
 51
286.2057907658365821
  0
ARC
  5
A91D
  8
0
 10
4323.2665633993192387
 20
182.464395597228588
 30
0.0
 40
0.0065282228321748
 50
282.8819926255159771
 51
346.7096398853320807
  0
ARC
  5
A91E
  8
0
 10
4322.7355956334467919
 20
182.4684223707934905
 30
0.0
 40
0.5373495775508341
 50
359.4106086617366032
 51
0.3379486064450999
  0
LINE
  5
A91F
  8
0
 10
4323.2729436578947571
 20
182.494579798332893
 30
0.0
 11
4323.2729404933434125
 21
182.4968146018597963
 31
0.0
  0
ARC
  5
A920
  8
0
 10
4323.267816010919887
 20
182.4948619092521085
 30
0.0
 40
0.0051354016459553
 50
272.2633982660655079
 51
356.8508975453178209
  0
LINE
  5
A921
  8
0
 10
4323.2680188257927512
 20
182.4087670920247035
 30
0.0
 11
4323.2945917129491136
 21
182.3985597292709997
 31
0.0
  0
LINE
  5
A922
  8
0
 10
4323.2945917129491136
 20
182.3985597292709997
 30
0.0
 11
4323.3093578162433914
 21
182.4041702631193971
 31
0.0
  0
LINE
  5
A923
  8
0
 10
4323.3093578162433914
 20
182.3722582314574083
 30
0.0
 11
4323.2949731859716849
 21
182.3781973764988038
 31
0.0
  0
LINE
  5
A924
  8
0
 10
4323.2949731859716849
 20
182.3781973764988038
 30
0.0
 11
4323.275103881825089
 21
182.3698454942775129
 31
0.0
  0
ARC
  5
A925
  8
0
 10
4323.3027493039680849
 20
182.3955695087807953
 30
0.0
 40
0.024700454564177
 50
251.6453476923952906
 51
285.5183023230856065
  0
ARC
  5
A926
  8
0
 10
4323.2841241999421982
 20
182.3992767657798026
 30
0.0
 40
0.029237624139355
 50
269.9707302245449227
 51
291.7769303078518988
  0
ARC
  5
A927
  8
0
 10
4323.2760642486637153
 20
182.5495600305098947
 30
0.0
 40
0.1797010585362102
 50
267.4339443720901954
 51
272.5659254906883007
  0
ARC
  5
A928
  8
0
 10
4323.2680847591864222
 20
183.1538461748577902
 30
0.0
 40
0.7856547149878143
 50
269.9951916470786841
 51
273.031321737907092
  0
LINE
  5
A929
  8
0
 10
4323.2901435185431183
 20
182.3819514669525006
 30
0.0
 11
4323.2899805734641632
 21
182.4003309923315044
 31
0.0
  0
LINE
  5
A92A
  8
0
 10
4323.2998533432428303
 20
182.3826368200024888
 30
0.0
 11
4323.2998533432428303
 21
182.4005589401851068
 31
0.0
  0
ARC
  5
A92B
  8
0
 10
4323.2923618846316458
 20
182.3859699403355989
 30
0.0
 40
0.0081994904280416
 50
288.5704931125155781
 51
336.0146308085589908
  0
ARC
  5
A92C
  8
0
 10
4323.2958443408142557
 20
182.3843018723152056
 30
0.0
 40
0.0061663425085377
 50
202.4059789019746916
 51
261.8783231865712082
  0
LINE
  5
A92D
  8
0
 10
4323.5559010274464526
 20
182.445088271902307
 30
0.0
 11
4323.5689333303489548
 21
182.4443565951438018
 31
0.0
  0
ARC
  5
A92E
  8
0
 10
4323.7377023941880907
 20
183.7094977106870886
 30
0.0
 40
0.0415424795720828
 50
3.0287253359125468
 51
34.0271732481316889
  0
ARC
  5
A92F
  8
0
 10
4323.0327464486827012
 20
183.2335123221724871
 30
0.0
 40
0.8921451924654938
 50
34.0271732481316889
 51
73.9758397439597246
  0
ARC
  5
A930
  8
0
 10
4323.2675232265355589
 20
184.0509751212177036
 30
0.0
 40
0.0416361900196745
 50
73.9758397439597246
 51
89.3179871561340519
  0
ARC
  5
A931
  8
0
 10
4322.410461248977299
 20
182.3769813029477973
 30
0.0
 40
2.701831654290038
 50
36.7510527231469126
 51
71.2461001385205606
  0
ARC
  5
A932
  8
0
 10
4324.5479623655974137
 20
183.973190265822808
 30
0.0
 40
0.0340996443772498
 50
359.2376161268925898
 51
36.75105272314822
  0
ARC
  5
A933
  8
0
 10
4321.8785803227337965
 20
184.008711449976488
 30
0.0
 40
2.7037180150970719
 50
324.6504309179749725
 51
359.2376161268925898
  0
ARC
  5
A934
  8
0
 10
4324.0689403913311253
 20
182.455003364271505
 30
0.0
 40
0.0182597589163823
 50
287.0867756854698882
 51
324.650430917973722
  0
ARC
  5
A935
  8
0
 10
4323.2224923125004352
 20
185.2086871704219107
 30
0.0
 40
2.8991014509240931
 50
278.9275607551978737
 51
287.0867756854698882
  0
LINE
  5
A936
  8
0
 10
4323.7770916754861901
 20
183.7226985488375988
 30
0.0
 11
4324.5803940963924106
 21
183.9837244285442068
 31
0.0
  0
LINE
  5
A937
  8
0
 10
4324.0796393023920245
 20
182.4402063342396048
 30
0.0
 11
4323.7791868459999023
 21
182.8533081961350035
 31
0.0
  0
ARC
  5
A938
  8
0
 10
4323.2680188257927512
 20
182.8251761291058131
 30
0.0
 40
0.4656132836554807
 50
264.9063470193146941
 51
275.0936529806854196
  0
LINE
  5
A939
  8
0
 10
4323.2570229621933322
 20
182.5496903362299861
 30
0.0
 11
4323.2790146893930796
 21
182.5496903362299861
 31
0.0
  0
ARC
  5
A93B
  8
0
 10
4327.2050263820938198
 20
184.7881863999820951
 30
0.0
 40
2.2801407481926881
 50
253.0894438271990907
 51
286.9105561728009093
  0
ARC
  5
A93C
  8
0
 10
4327.8528905882758409
 20
182.6655873144073894
 30
0.0
 40
0.0609216475679114
 50
284.6225192028800279
 51
327.377536228216286
  0
ARC
  5
A93D
  8
0
 10
4326.0343795062926802
 20
183.9376609685000119
 30
0.0
 40
2.2801405282566849
 50
325.0894724573100802
 51
358.981999332402097
  0
ARC
  5
A93E
  8
0
 10
4328.2498634459825553
 20
183.8967757307835882
 30
0.0
 40
0.0642977913885058
 50
0.3342141519103482
 51
38.2118780414959716
  0
ARC
  5
A93F
  8
0
 10
4326.481527194593582
 20
182.5614845867935117
 30
0.0
 40
2.2801405823999872
 50
37.0894432800135903
 51
70.8782432878236506
  0
ARC
  5
A940
  8
0
 10
4327.2050263820938198
 20
184.648262521292196
 30
0.0
 40
0.0715
 50
70.8782432878236506
 51
109.1217567121763068
  0
ARC
  5
A941
  8
0
 10
4327.2050263820938198
 20
184.7881687598126916
 30
0.0
 40
2.2524693747305262
 50
253.2869343455230933
 51
286.7130656544769067
  0
ARC
  5
A942
  8
0
 10
4327.8349405471089995
 20
182.6902936787215879
 30
0.0
 40
0.0620649118169886
 50
286.7130783623115917
 51
325.2866598518540968
  0
ARC
  5
A943
  8
0
 10
4326.0344321529146328
 20
183.9376451061075954
 30
0.0
 40
2.2524338444322951
 50
325.2866598518540968
 51
358.7133307621639915
  0
ARC
  5
A944
  8
0
 10
4328.2242480696586426
 20
183.888460985933591
 30
0.0
 40
0.0620656500638462
 50
358.7133307621639915
 51
37.2863464622223972
  0
ARC
  5
A945
  8
0
 10
4326.4815840509190821
 20
182.5615629145829075
 30
0.0
 40
2.2523935647751578
 50
37.2863464622223972
 51
70.6268967616447725
  0
ARC
  5
A946
  8
0
 10
4327.2050263820938198
 20
184.6189709767679119
 30
0.0
 40
0.0715
 50
70.6268967616447725
 51
109.3731032383551991
  0
ARC
  5
A947
  8
0
 10
4327.2050263820938198
 20
184.5016216420193871
 30
0.0
 40
1.8230080513339479
 50
252.3409053734924044
 51
287.6590946265076241
  0
ARC
  5
A948
  8
0
 10
4327.7401626294686139
 20
182.8207162134391979
 30
0.0
 40
0.0589746450653175
 50
287.647174049216801
 51
324.3825053868832242
  0
ARC
  5
A949
  8
0
 10
4326.302819173163698
 20
183.8504630073830128
 30
0.0
 40
1.827119059691851
 50
324.3813332928925206
 51
359.6342564417328731
  0
ARC
  5
A94A
  8
0
 10
4328.0712977453385975
 20
183.8387931427485
 30
0.0
 40
0.0586032621420183
 50
0.0065099301787361
 51
36.4517641227239508
  0
ARC
  5
A94B
  8
0
 10
4326.6453332546134334
 20
182.7868059050360046
 30
0.0
 40
1.830622404630142
 50
36.418675437670359
 51
71.7150548123371152
  0
ARC
  5
A94C
  8
0
 10
4327.2050263820938198
 20
184.4806544073503005
 30
0.0
 40
0.0467
 50
71.7150548123371152
 51
108.284945187662899
  0
ARC
  5
A94D
  8
0
 10
4327.2050263820938198
 20
184.5035890818138
 30
0.0
 40
1.7007344645039131
 50
253.6633514306020061
 51
286.3366485693978802
  0
ARC
  5
A94E
  8
0
 10
4327.6701383365661968
 20
182.9168223406020104
 30
0.0
 40
0.0472055655689439
 50
286.328569840298826
 51
326.229846169375719
  0
ARC
  5
A94F
  8
0
 10
4326.2467312232238328
 20
183.8686369584615932
 30
0.0
 40
1.7595253012144429
 50
326.229846169375719
 51
357.7693431168543725
  0
ARC
  5
A950
  8
0
 10
4327.9580759991558807
 20
183.801976675156709
 30
0.0
 40
0.046882742045936
 50
357.7693431168527809
 51
38.2303777570415022
  0
ARC
  5
A951
  8
0
 10
4326.6126044774191541
 20
182.7420394060634976
 30
0.0
 40
1.7597051584731891
 50
38.2303777570415022
 51
69.7670545181812258
  0
ARC
  5
A952
  8
0
 10
4327.2050263820938198
 20
184.3493424141543926
 30
0.0
 40
0.0467
 50
69.7670545181812258
 51
110.2329454818187031
  0
ARC
  5
A953
  8
0
 10
4326.6501378781567837
 20
182.7933691007756067
 30
0.0
 40
1.593871488336954
 50
38.7078670340718816
 51
68.9828694918497121
  0
ARC
  5
A954
  8
0
 10
4327.2050263820938198
 20
184.2376122806184924
 30
0.0
 40
0.0467
 50
68.9828694918497121
 51
111.0171305081502027
  0
ARC
  5
A955
  8
0
 10
4327.8753821303107543
 20
183.7756630933087933
 30
0.0
 40
0.0234836543166573
 50
2.5017012973302291
 51
37.9234262233551291
  0
ARC
  5
A956
  8
0
 10
4326.3040035183494183
 20
183.8491814278960135
 30
0.0
 40
1.596486622378033
 50
326.7607425261488174
 51
357.3974172436347203
  0
ARC
  5
A957
  8
0
 10
4327.6189456639467608
 20
182.9874044176644929
 30
0.0
 40
0.0243121885448073
 50
285.7744845833976797
 51
326.7915637056834726
  0
ARC
  5
A958
  8
0
 10
4327.2050263820938198
 20
184.4476067216509136
 30
0.0
 40
1.542047313910567
 50
254.1745294287370882
 51
285.8254705712628834
  0
LINE
  5
A959
  8
0
 10
4328.0026641717686289
 20
183.8164641305824887
 30
0.0
 11
4327.8974195974042232
 21
183.7837767893987007
 31
0.0
  0
LINE
  5
A95A
  8
0
 10
4327.6980708458058871
 20
182.8787679013310026
 30
0.0
 11
4327.6332592217795536
 21
182.9677523293796071
 31
0.0
  0
LINE
  5
A95B
  8
0
 10
4328.3105577533278847
 20
183.9179985259191028
 30
0.0
 11
4328.2832760646133465
 21
183.9076401603032878
 31
0.0
  0
LINE
  5
A95C
  8
0
 10
4327.8886994581016552
 20
182.6163006835213878
 30
0.0
 11
4327.8714213217617726
 21
182.6400820629374948
 31
0.0
  0
ARC
  5
A95D
  8
0
 10
4326.5571621759117988
 20
182.6655873144073894
 30
0.0
 40
0.0609216475679114
 50
212.622463771783714
 51
255.3774807971200005
  0
ARC
  5
A95E
  8
0
 10
4328.37567325789405
 20
183.9376609685000119
 30
0.0
 40
2.2801405282566849
 50
181.018000667597903
 51
214.9105275426886124
  0
ARC
  5
A95F
  8
0
 10
4326.1601893182032654
 20
183.8967757307835882
 30
0.0
 40
0.0642977913885058
 50
141.7881219585040924
 51
179.6657858480895982
  0
ARC
  5
A960
  8
0
 10
4327.9285255695931482
 20
182.5614845867935117
 30
0.0
 40
2.2801405823999872
 50
109.1217567121763068
 51
142.9105567199864026
  0
ARC
  5
A961
  8
0
 10
4326.5751122170768213
 20
182.6902936787215879
 30
0.0
 40
0.0620649118169886
 50
214.7133401481459032
 51
253.2869216376884083
  0
ARC
  5
A962
  8
0
 10
4328.375620611271188
 20
183.9376451061075954
 30
0.0
 40
2.2524338444322951
 50
181.2866692378358948
 51
214.7133401481459032
  0
ARC
  5
A963
  8
0
 10
4326.1858046945271781
 20
183.888460985933591
 30
0.0
 40
0.0620656500638462
 50
142.7136535377775886
 51
181.2866692378358948
  0
ARC
  5
A964
  8
0
 10
4327.9284687132658291
 20
182.5615629145829075
 30
0.0
 40
2.2523935647751578
 50
109.3731032383551991
 51
142.7136535377775886
  0
ARC
  5
A965
  8
0
 10
4326.6698901347181163
 20
182.8207162134391979
 30
0.0
 40
0.0589746450653175
 50
215.6174946131168042
 51
252.352825950783199
  0
ARC
  5
A966
  8
0
 10
4328.1072335910230322
 20
183.8504630073830128
 30
0.0
 40
1.827119059691851
 50
180.3657435582670985
 51
215.6186667071075078
  0
ARC
  5
A967
  8
0
 10
4326.3387550188481327
 20
183.8387931427485
 30
0.0
 40
0.0586032621420183
 50
143.5482358772759994
 51
179.9934900698212061
  0
ARC
  5
A968
  8
0
 10
4327.7647195095742063
 20
182.7868059050360046
 30
0.0
 40
1.830622404630142
 50
108.284945187662899
 51
143.5813245623295984
  0
ARC
  5
A969
  8
0
 10
4326.7399144276196239
 20
182.9168223406020104
 30
0.0
 40
0.0472055655689439
 50
213.7701538306243094
 51
253.6714301597012025
  0
ARC
  5
A96A
  8
0
 10
4328.1633215409610784
 20
183.8686369584615932
 30
0.0
 40
1.7595253012144429
 50
182.2306568831455138
 51
213.7701538306243094
  0
ARC
  5
A96B
  8
0
 10
4326.4519767650308495
 20
183.801976675156709
 30
0.0
 40
0.046882742045936
 50
141.7696222429584907
 51
182.2306568831471907
  0
ARC
  5
A96C
  8
0
 10
4327.7974482867675761
 20
182.7420394060634976
 30
0.0
 40
1.7597051584731891
 50
110.2329454818187031
 51
141.7696222429584907
  0
ARC
  5
A96D
  8
0
 10
4327.759914886029037
 20
182.7933691007756067
 30
0.0
 40
1.593871488336954
 50
111.0171305081502027
 51
141.29213296592809
  0
ARC
  5
A96E
  8
0
 10
4326.5346706338759759
 20
183.7756630933087933
 30
0.0
 40
0.0234836543166573
 50
142.0765737766448069
 51
177.498298702669814
  0
ARC
  5
A96F
  8
0
 10
4328.1060492458373119
 20
183.8491814278960135
 30
0.0
 40
1.596486622378033
 50
182.6025827563653081
 51
213.239257473851211
  0
ARC
  5
A970
  8
0
 10
4326.7911071002399694
 20
182.9874044176644929
 30
0.0
 40
0.0243121885448073
 50
213.2084362943149927
 51
254.2255154166022919
  0
LINE
  5
A971
  8
0
 10
4326.4073885924171918
 20
183.8164641305824887
 30
0.0
 11
4326.512633166784326
 21
183.7837767893987007
 31
0.0
  0
LINE
  5
A972
  8
0
 10
4326.7119819183808431
 20
182.8787679013310026
 30
0.0
 11
4326.7767935424062671
 21
182.9677523293796071
 31
0.0
  0
LINE
  5
A973
  8
0
 10
4326.099495010857936
 20
183.9179985259191028
 30
0.0
 11
4326.1267766995733837
 21
183.9076401603032878
 31
0.0
  0
LINE
  5
A974
  8
0
 10
4326.5213533060841655
 20
182.6163006835213878
 30
0.0
 11
4326.5386314424240481
 21
182.6400820629374948
 31
0.0
  0
ARC
  5
A975
  8
0
 10
4319.331011269492592
 20
184.7881863999820951
 30
0.0
 40
2.2801407481926881
 50
253.0894438271990907
 51
286.9105561728009093
  0
ARC
  5
A976
  8
0
 10
4318.683147063310571
 20
182.6655873144073894
 30
0.0
 40
0.0609216475679114
 50
212.622463771783714
 51
255.3774807971200005
  0
ARC
  5
A977
  8
0
 10
4320.5016581452928222
 20
183.9376609685000119
 30
0.0
 40
2.2801405282566849
 50
181.018000667597903
 51
214.9105275426886124
  0
ARC
  5
A978
  8
0
 10
4318.286174205602947
 20
183.8967757307835882
 30
0.0
 40
0.0642977913885058
 50
141.7881219585040924
 51
179.6657858480895982
  0
ARC
  5
A979
  8
0
 10
4320.0545104569928299
 20
182.5614845867935117
 30
0.0
 40
2.2801405823999872
 50
109.1217567121763068
 51
142.9105567199864026
  0
ARC
  5
A97A
  8
0
 10
4319.331011269492592
 20
184.648262521292196
 30
0.0
 40
0.0715
 50
70.8782432878236506
 51
109.1217567121763068
  0
ARC
  5
A97B
  8
0
 10
4319.331011269492592
 20
184.7881687598126916
 30
0.0
 40
2.2524693747305262
 50
253.2869343455230933
 51
286.7130656544769067
  0
ARC
  5
A97C
  8
0
 10
4318.7010971044755934
 20
182.6902936787215879
 30
0.0
 40
0.0620649118169886
 50
214.7133401481459032
 51
253.2869216376884083
  0
ARC
  5
A97D
  8
0
 10
4320.5016054986699601
 20
183.9376451061075954
 30
0.0
 40
2.2524338444322951
 50
181.2866692378358948
 51
214.7133401481459032
  0
ARC
  5
A97E
  8
0
 10
4318.3117895819277692
 20
183.888460985933591
 30
0.0
 40
0.0620656500638462
 50
142.7136535377775886
 51
181.2866692378358948
  0
ARC
  5
A97F
  8
0
 10
4320.0544536006673297
 20
182.5615629145829075
 30
0.0
 40
2.2523935647751578
 50
109.3731032383551991
 51
142.7136535377775886
  0
ARC
  5
A980
  8
0
 10
4319.331011269492592
 20
184.6189709767679119
 30
0.0
 40
0.0715
 50
70.6268967616447725
 51
109.3731032383551991
  0
ARC
  5
A981
  8
0
 10
4319.331011269492592
 20
184.5016216420193871
 30
0.0
 40
1.8230080513339479
 50
252.3409053734924044
 51
287.6590946265076241
  0
ARC
  5
A982
  8
0
 10
4318.7958750221168884
 20
182.8207162134391979
 30
0.0
 40
0.0589746450653175
 50
215.6174946131168042
 51
252.352825950783199
  0
ARC
  5
A983
  8
0
 10
4320.2332184784218043
 20
183.8504630073830128
 30
0.0
 40
1.827119059691851
 50
180.3657435582670985
 51
215.6186667071075078
  0
ARC
  5
A984
  8
0
 10
4318.4647399062469049
 20
183.8387931427485
 30
0.0
 40
0.0586032621420183
 50
143.5482358772759994
 51
179.9934900698212061
  0
ARC
  5
A985
  8
0
 10
4319.8907043969738879
 20
182.7868059050360046
 30
0.0
 40
1.830622404630142
 50
108.284945187662899
 51
143.5813245623295984
  0
ARC
  5
A986
  8
0
 10
4319.331011269492592
 20
184.4806544073503005
 30
0.0
 40
0.0467
 50
71.7150548123371152
 51
108.284945187662899
  0
ARC
  5
A987
  8
0
 10
4319.331011269492592
 20
184.5035890818138
 30
0.0
 40
1.7007344645039131
 50
253.6633514306020061
 51
286.3366485693978802
  0
ARC
  5
A988
  8
0
 10
4318.8658993150211245
 20
182.9168223406020104
 30
0.0
 40
0.0472055655689439
 50
213.7701538306243094
 51
253.6714301597012025
  0
ARC
  5
A989
  8
0
 10
4320.28930642836076
 20
183.8686369584615932
 30
0.0
 40
1.7595253012144429
 50
182.2306568831455138
 51
213.7701538306243094
  0
ARC
  5
A98A
  8
0
 10
4318.5779616524314406
 20
183.801976675156709
 30
0.0
 40
0.046882742045936
 50
141.7696222429584907
 51
182.2306568831471907
  0
ARC
  5
A98B
  8
0
 10
4319.9234331741663482
 20
182.7420394060634976
 30
0.0
 40
1.7597051584731891
 50
110.2329454818187031
 51
141.7696222429584907
  0
ARC
  5
A98C
  8
0
 10
4319.331011269492592
 20
184.3493424141543926
 30
0.0
 40
0.0467
 50
69.7670545181812258
 51
110.2329454818187031
  0
ARC
  5
A98D
  8
0
 10
4319.8858997734296281
 20
182.7933691007756067
 30
0.0
 40
1.593871488336954
 50
111.0171305081502027
 51
141.29213296592809
  0
ARC
  5
A98E
  8
0
 10
4319.331011269492592
 20
184.2376122806184924
 30
0.0
 40
0.0467
 50
68.9828694918497121
 51
111.0171305081502027
  0
ARC
  5
A98F
  8
0
 10
4318.660655521274748
 20
183.7756630933087933
 30
0.0
 40
0.0234836543166573
 50
142.0765737766448069
 51
177.498298702669814
  0
ARC
  5
A990
  8
0
 10
4320.2320341332369935
 20
183.8491814278960135
 30
0.0
 40
1.596486622378033
 50
182.6025827563653081
 51
213.239257473851211
  0
ARC
  5
A991
  8
0
 10
4318.9170919876396511
 20
182.9874044176644929
 30
0.0
 40
0.0243121885448073
 50
213.2084362943164138
 51
254.2255154166022919
  0
ARC
  5
A992
  8
0
 10
4319.331011269492592
 20
184.4476067216509136
 30
0.0
 40
1.542047313910567
 50
254.1745294287370882
 51
285.8254705712628834
  0
LINE
  5
A993
  8
0
 10
4318.5333734798177829
 20
183.8164641305824887
 30
0.0
 11
4318.6386180541830981
 21
183.7837767893987007
 31
0.0
  0
LINE
  5
A994
  8
0
 10
4318.8379668057796152
 20
182.8787679013310026
 30
0.0
 11
4318.9027784298059487
 21
182.9677523293796071
 31
0.0
  0
LINE
  5
A995
  8
0
 10
4318.2254798982576176
 20
183.9179985259191028
 30
0.0
 11
4318.2527615869730653
 21
183.9076401603032878
 31
0.0
  0
LINE
  5
A996
  8
0
 10
4318.6473381934847566
 20
182.6163006835213878
 30
0.0
 11
4318.6646163298246393
 21
182.6400820629374948
 31
0.0
  0
ARC
  5
A997
  8
0
 10
4319.978875475674613
 20
182.6655873144073894
 30
0.0
 40
0.0609216475679114
 50
284.6225192028800279
 51
327.377536228216286
  0
ARC
  5
A998
  8
0
 10
4318.1603643936932713
 20
183.9376609685000119
 30
0.0
 40
2.2801405282566849
 50
325.0894724573100802
 51
358.981999332402097
  0
ARC
  5
A999
  8
0
 10
4320.3758483333840559
 20
183.8967757307835882
 30
0.0
 40
0.0642977913885058
 50
0.3342141519103482
 51
38.2118780414959716
  0
ARC
  5
A99A
  8
0
 10
4318.6075120819932636
 20
182.5614845867935117
 30
0.0
 40
2.2801405823999872
 50
37.0894432800135903
 51
70.8782432878236506
  0
ARC
  5
A99B
  8
0
 10
4319.9609254345095906
 20
182.6902936787215879
 30
0.0
 40
0.0620649118169886
 50
286.7130783623115917
 51
325.2866598518540968
  0
ARC
  5
A99C
  8
0
 10
4318.1604170403161334
 20
183.9376451061075954
 30
0.0
 40
2.2524338444322951
 50
325.2866598518540968
 51
358.7133307621639915
  0
ARC
  5
A99D
  8
0
 10
4320.3502329570592337
 20
183.888460985933591
 30
0.0
 40
0.0620656500638462
 50
358.7133307621639915
 51
37.2863464622223972
  0
ARC
  5
A99E
  8
0
 10
4318.6075689383187637
 20
182.5615629145829075
 30
0.0
 40
2.2523935647751578
 50
37.2863464622223972
 51
70.6268967616447725
  0
ARC
  5
A99F
  8
0
 10
4319.866147516869205
 20
182.8207162134391979
 30
0.0
 40
0.0589746450653175
 50
287.647174049216801
 51
324.3825053868832242
  0
ARC
  5
A9A0
  8
0
 10
4318.4288040605642891
 20
183.8504630073830128
 30
0.0
 40
1.827119059691851
 50
324.3813332928925206
 51
359.6342564417328731
  0
ARC
  5
A9A1
  8
0
 10
4320.1972826327391886
 20
183.8387931427485
 30
0.0
 40
0.0586032621420183
 50
0.0065099301787361
 51
36.4517641227239508
  0
ARC
  5
A9A2
  8
0
 10
4318.771318142013115
 20
182.7868059050360046
 30
0.0
 40
1.830622404630142
 50
36.418675437670359
 51
71.7150548123371152
  0
ARC
  5
A9A3
  8
0
 10
4319.7961232239649689
 20
182.9168223406020104
 30
0.0
 40
0.0472055655689439
 50
286.328569840298826
 51
326.229846169375719
  0
ARC
  5
A9A4
  8
0
 10
4318.3727161106262429
 20
183.8686369584615932
 30
0.0
 40
1.7595253012144429
 50
326.229846169375719
 51
357.7693431168543725
  0
ARC
  5
A9A5
  8
0
 10
4320.0840608865546528
 20
183.801976675156709
 30
0.0
 40
0.046882742045936
 50
357.7693431168527809
 51
38.2303777570402303
  0
ARC
  5
A9A6
  8
0
 10
4318.7385893648188357
 20
182.7420394060634976
 30
0.0
 40
1.7597051584731891
 50
38.2303777570415022
 51
69.7670545181812258
  0
ARC
  5
A9A7
  8
0
 10
4318.7761227655582843
 20
182.7933691007756067
 30
0.0
 40
1.593871488336954
 50
38.7078670340718816
 51
68.9828694918497121
  0
ARC
  5
A9A8
  8
0
 10
4320.0013670177113454
 20
183.7756630933087933
 30
0.0
 40
0.0234836543166573
 50
2.5017012973302291
 51
37.9234262233551291
  0
ARC
  5
A9A9
  8
0
 10
4318.4299884057490999
 20
183.8491814278960135
 30
0.0
 40
1.596486622378033
 50
326.7607425261488174
 51
357.3974172436347203
  0
ARC
  5
A9AA
  8
0
 10
4319.7449305513473519
 20
182.9874044176644929
 30
0.0
 40
0.0243121885448073
 50
285.7744845833976797
 51
326.7915637056848936
  0
LINE
  5
A9AB
  8
0
 10
4320.12864905916922
 20
183.8164641305824887
 30
0.0
 11
4320.0234044848020858
 21
183.7837767893987007
 31
0.0
  0
LINE
  5
A9AC
  8
0
 10
4319.8240557332055687
 20
182.8787679013310026
 30
0.0
 11
4319.7592441091810542
 21
182.9677523293796071
 31
0.0
  0
LINE
  5
A9AD
  8
0
 10
4320.4365426407275663
 20
183.9179985259191028
 30
0.0
 11
4320.4092609520139376
 21
183.9076401603032878
 31
0.0
  0
LINE
  5
A9AE
  8
0
 10
4320.0146843455022463
 20
182.6163006835213878
 30
0.0
 11
4319.9974062091632732
 21
182.6400820629374948
 31
0.0
  0
ENDSEC
  0
EOF
