  0
SECTION
  2
HEADER
  9
$ACADVER
  1
AC1009
  9
$INSBASE
 10
4227.2827911797767229
 20
206.2493498892401078
 30
0.0
  9
$EXTMIN
 10
4220.0131699196263071
 20
197.800841627514103
 30
-0.0000000000112498
  9
$EXTMAX
 10
4234.5520110884262976
 20
207.7046695717529019
 30
0.0000000000002956
  9
$LIMMIN
 10
0.0
 20
0.0
  9
$LIMMAX
 10
11.6929133858000007
 20
8.2677165353999982
  9
$ORTHOMODE
 70
     1
  9
$REGENMODE
 70
     1
  9
$FILLMODE
 70
     1
  9
$QTEXTMODE
 70
     0
  9
$MIRRTEXT
 70
     0
  9
$DRAGMODE
 70
     2
  9
$LTSCALE
 40
0.6431102362
  9
$OSMODE
 70
  4095
  9
$ATTMODE
 70
     1
  9
$TEXTSIZE
 40
0.2
  9
$TRACEWID
 40
0.05
  9
$TEXTSTYLE
  7
STANDARD
  9
$CLAYER
  8
0
  9
$CELTYPE
  6
BYLAYER
  9
$CECOLOR
 62
   256
  9
$DIMSCALE
 40
1.0
  9
$DIMASZ
 40
0.1875
  9
$DIMEXO
 40
0.0625
  9
$DIMDLI
 40
0.4443307087
  9
$DIMRND
 40
0.0
  9
$DIMDLE
 40
0.0
  9
$DIMEXE
 40
0.125
  9
$DIMTP
 40
0.01
  9
$DIMTM
 40
0.01
  9
$DIMTXT
 40
2.0
  9
$DIMCEN
 40
0.1052362205
  9
$DIMTSZ
 40
0.0
  9
$DIMTOL
 70
     1
  9
$DIMLIM
 70
     0
  9
$DIMTIH
 70
     1
  9
$DIMTOH
 70
     1
  9
$DIMSE1
 70
     0
  9
$DIMSE2
 70
     0
  9
$DIMTAD
 70
     0
  9
$DIMZIN
 70
     0
  9
$DIMBLK
  1

  9
$DIMASO
 70
     1
  9
$DIMSHO
 70
     1
  9
$DIMPOST
  1
\X
  9
$DIMAPOST
  1

  9
$DIMALT
 70
     1
  9
$DIMALTD
 70
     2
  9
$DIMALTF
 40
25.3999999999999986
  9
$DIMLFAC
 40
1.0
  9
$DIMTOFL
 70
     0
  9
$DIMTVP
 40
0.0
  9
$DIMTIX
 70
     0
  9
$DIMSOXD
 70
     0
  9
$DIMSAH
 70
     0
  9
$DIMBLK1
  1

  9
$DIMBLK2
  1

  9
$DIMSTYLE
  2
STANDARD
  9
$DIMCLRD
 70
     0
  9
$DIMCLRE
 70
     0
  9
$DIMCLRT
 70
     0
  9
$DIMTFAC
 40
1.0
  9
$DIMGAP
 40
0.09
  9
$LUNITS
 70
     2
  9
$LUPREC
 70
     4
  9
$SKETCHINC
 40
0.1
  9
$FILLETRAD
 40
0.0
  9
$AUNITS
 70
     0
  9
$AUPREC
 70
     0
  9
$MENU
  1
.
  9
$ELEVATION
 40
0.0
  9
$PELEVATION
 40
0.0
  9
$THICKNESS
 40
0.0
  9
$LIMCHECK
 70
     0
  9
$BLIPMODE
 70
     0
  9
$CHAMFERA
 40
0.0
  9
$CHAMFERB
 40
0.0
  9
$SKPOLY
 70
     0
  9
$TDCREATE
 40
2458060.468368056230247
  9
$TDUPDATE
 40
2460162.5784490741789341
  9
$TDINDWG
 40
0.4314538194
  9
$TDUSRTIMER
 40
0.4314538194
  9
$USRTIMER
 70
     1
  9
$ANGBASE
 50
0.0
  9
$ANGDIR
 70
     0
  9
$PDMODE
 70
     0
  9
$PDSIZE
 40
0.3125
  9
$PLINEWID
 40
0.0
  9
$COORDS
 70
     1
  9
$SPLFRAME
 70
     0
  9
$SPLINETYPE
 70
     6
  9
$SPLINESEGS
 70
     8
  9
$ATTDIA
 70
     1
  9
$ATTREQ
 70
     1
  9
$HANDLING
 70
     1
  9
$HANDSEED
  5
C955
  9
$SURFTAB1
 70
     6
  9
$SURFTAB2
 70
     6
  9
$SURFTYPE
 70
     6
  9
$SURFU
 70
     6
  9
$SURFV
 70
     6
  9
$UCSNAME
  2

  9
$UCSORG
 10
0.0
 20
0.0
 30
0.0
  9
$UCSXDIR
 10
1.0
 20
0.0
 30
0.0
  9
$UCSYDIR
 10
0.0
 20
1.0
 30
0.0
  9
$PUCSNAME
  2

  9
$PUCSORG
 10
0.0
 20
0.0
 30
0.0
  9
$PUCSXDIR
 10
1.0
 20
0.0
 30
0.0
  9
$PUCSYDIR
 10
0.0
 20
1.0
 30
0.0
  9
$USERI1
 70
     0
  9
$USERI2
 70
     0
  9
$USERI3
 70
     0
  9
$USERI4
 70
     0
  9
$USERI5
 70
     0
  9
$USERR1
 40
0.0
  9
$USERR2
 40
0.0
  9
$USERR3
 40
0.0
  9
$USERR4
 40
0.0
  9
$USERR5
 40
0.0
  9
$WORLDVIEW
 70
     1
  9
$SHADEDGE
 70
     3
  9
$SHADEDIF
 70
    70
  9
$TILEMODE
 70
     1
  9
$MAXACTVP
 70
    64
  9
$PLIMCHECK
 70
     0
  9
$PEXTMIN
 10
1.0000000000000000E+20
 20
1.0000000000000000E+20
 30
1.0000000000000000E+20
  9
$PEXTMAX
 10
-1.0000000000000000E+20
 20
-1.0000000000000000E+20
 30
-1.0000000000000000E+20
  9
$PLIMMIN
 10
0.0
 20
0.0
  9
$PLIMMAX
 10
12.0
 20
9.0
  9
$UNITMODE
 70
     0
  9
$VISRETAIN
 70
     1
  9
$PLINEGEN
 70
     0
  9
$PSLTSCALE
 70
     1
  0
ENDSEC
  0
SECTION
  2
TABLES
  0
TABLE
  2
VPORT
 70
     1
  0
VPORT
  2
*ACTIVE
 70
     0
 10
0.0
 20
0.0
 11
1.0
 21
1.0
 12
423.7385231212138024
 22
76.7574934028836111
 13
0.0
 23
0.0
 14
1.0
 24
1.0
 15
0.0
 25
0.0
 16
0.0
 26
0.0
 36
17.1152628219792007
 17
3803.5440673828129547
 27
125.9952621967499056
 37
0.0
 40
10.2161177238971401
 41
1.4307692307692299
 42
50.0
 43
0.0
 44
0.0
 50
0.0
 51
0.0
 71
     0
 72
   100
 73
     1
 74
     1
 75
     0
 76
     0
 77
     0
 78
     0
  0
ENDTAB
  0
TABLE
  2
LTYPE
 70
     2
  0
LTYPE
  2
CONTINUOUS
 70
     0
  3
Solid line
 72
    65
 73
     0
 40
0.0
  0
LTYPE
  2
PHANTOM2
 70
     0
  3
___ _ _ ___ _ _ ___ _ _ ___ _ _
 72
    65
 73
     6
 40
1.25
 49
0.625
 49
-0.125
 49
0.125
 49
-0.125
 49
0.125
 49
-0.125
  0
ENDTAB
  0
TABLE
  2
LAYER
 70
     2
  0
LAYER
  2
0
 70
     0
 62
   255
  6
CONTINUOUS
  0
LAYER
  2
DEFPOINTS
 70
     0
 62
     7
  6
CONTINUOUS
  0
ENDTAB
  0
TABLE
  2
STYLE
 70
     1
  0
STYLE
  2
STANDARD
 70
     0
 40
0.0
 41
0.8
 50
0.0
 71
     0
 42
0.2
  3
txt
  4

  0
ENDTAB
  0
TABLE
  2
VIEW
 70
     0
  0
ENDTAB
  0
TABLE
  2
UCS
 70
     0
  0
ENDTAB
  0
TABLE
  2
APPID
 70
     9
  0
APPID
  2
ACAD
 70
     0
  0
APPID
  2
ACAD_MLEADERVER
 70
     0
  0
APPID
  2
ACAD_EXEMPT_FROM_CAD_STANDARDS
 70
     0
  0
APPID
  2
ACAD_NAV_VCDISPLAY
 70
     0
  0
APPID
  2
ACAECLAYERSTANDARD
 70
     0
  0
APPID
  2
ACCMTRANSPARENCY
 70
     0
  0
APPID
  2
ACAD_DSTYLE_DIMJAG
 70
     0
  0
APPID
  2
ACAD_DSTYLE_DIMTALN
 70
     0
  0
APPID
  2
ACDBATTR
 70
     0
  0
ENDTAB
  0
TABLE
  2
DIMSTYLE
 70
     1
  0
DIMSTYLE
  2
STANDARD
 70
     0
  3

  4

  5

  6

  7

 40
1.0
 41
0.1875
 42
0.0625
 43
0.38
 44
0.125
 45
0.0
 46
0.0
 47
0.01
 48
0.01
140
0.15625
141
0.09
142
0.0
143
25.3999999999999986
144
1.0
145
0.0
146
1.0
147
0.09
 71
     1
 72
     0
 73
     1
 74
     1
 75
     0
 76
     0
 77
     0
 78
     4
170
     0
171
     2
172
     0
173
     0
174
     0
175
     0
176
     0
177
     0
178
     0
  0
ENDTAB
  0
ENDSEC
  0
SECTION
  2
BLOCKS
  0
BLOCK
  8
0
  2
$MODEL_SPACE
 70
     0
 10
0.0
 20
0.0
 30
0.0
  3
$MODEL_SPACE
  1

  0
ENDBLK
  5
21
  8
0
  0
BLOCK
 67
     1
  8
0
  2
$PAPER_SPACE
 70
     0
 10
0.0
 20
0.0
 30
0.0
  3
$PAPER_SPACE
  1

  0
ENDBLK
  5
1D
 67
     1
  8
0
  0
ENDSEC
  0
SECTION
  2
ENTITIES
  0
ATTDEF
  5
C32E
  8
DEFPOINTS
 10
4227.2834756083730099
 20
206.2532255608826972
 30
0.0
 40
0.001
  1
K-EX27104T-9
  3

  2
MODELNUMBER
 70
     0
1001
ACDBATTR
1070
     0
1070
     1
  0
ATTDEF
  5
C32F
  8
DEFPOINTS
 10
4227.2834756083730099
 20
206.2515588942160036
 30
0.0
 40
0.001
  1
OCCASION
  3

  2
TRADENAME
 70
     0
1001
ACDBATTR
1070
     0
1070
     1
  0
ATTDEF
  5
C330
  8
DEFPOINTS
 10
4227.2834756083730099
 20
206.2498922275493953
 30
0.0
 40
0.001
  1
BATH FAUCET
  3

  2
PRODUCT
 70
     0
1001
ACDBATTR
1070
     0
1070
     1
  0
LINE
  5
C708
  8
0
 10
4227.2827911797767229
 20
207.6955175091017054
 30
0.0
 11
4227.2827911797767229
 21
197.812846794588296
 31
0.0
  0
LINE
  5
C709
  8
0
 10
4226.663893056886991
 20
206.4372894550517117
 30
0.0
 11
4226.663893056886991
 21
198.2738295270401068
 31
0.0
  0
ARC
  5
C70A
  8
0
 10
4225.9587382096106012
 20
206.6785514431410888
 30
0.0
 40
0.0543718845214042
 50
145.40093203468561
 51
178.0797275252591874
  0
ARC
  5
C70B
  8
0
 10
4228.1872630548823508
 20
205.002862522453313
 30
0.0
 40
2.8425627037929249
 50
108.8587192227856946
 51
143.1042649375879989
  0
ARC
  5
C70C
  8
0
 10
4227.2838785386556992
 20
207.6500460139837969
 30
0.0
 40
0.0454844942544881
 50
91.3698516682725312
 51
109.8346625960315066
  0
ARC
  5
C70D
  8
0
 10
4227.2614255279340796
 20
207.7179597983237898
 30
0.0
 40
2.7712821435191528
 50
252.9058042093789993
 51
257.5483371734550815
  0
ARC
  5
C70E
  8
0
 10
4226.4591425391527082
 20
205.1123372638471096
 30
0.0
 40
0.0449525714488575
 50
213.902859478821
 51
254.0970696768631001
  0
ARC
  5
C70F
  8
0
 10
4228.7564020831196103
 20
206.7261075721280008
 30
0.0
 40
2.8523718926595301
 50
180.9187050564698893
 51
215.0684776947182968
  0
LINE
  5
C710
  8
0
 10
4225.9071041529477952
 20
206.6955874643564925
 30
0.0
 11
4226.6661555829596182
 21
206.4482392483353976
 31
0.0
  0
ARC
  5
C711
  8
0
 10
4226.7075437668318045
 20
206.4339786737581903
 30
0.0
 40
0.0437760865260348
 50
146.3139524526932007
 51
175.6625839621096077
  0
ARC
  5
C712
  8
0
 10
4227.5904086911268678
 20
205.8255851183546952
 30
0.0
 40
1.115961905479834
 50
106.5363069963003966
 51
145.4634960923106917
  0
ARC
  5
C713
  8
0
 10
4227.2838742361473123
 20
206.8580251973095017
 30
0.0
 40
0.0389772775850121
 50
91.5922750654825109
 51
106.5363069963003966
  0
LINE
  5
C714
  8
0
 10
4226.4342096130321806
 20
205.0749329475868024
 30
0.0
 11
4226.663893056886991
 21
205.392309278123804
 31
0.0
  0
ARC
  5
C715
  8
0
 10
4226.6522058930950152
 20
207.1173619047868044
 30
0.0
 40
0.1617953838235866
 50
126.9000595720689972
 51
146.2892404559507042
  0
ARC
  5
C716
  8
0
 10
4226.6637665314447077
 20
207.1096487804680066
 30
0.0
 40
0.1756928888451832
 50
146.2892404559507042
 51
174.0539524433185932
  0
ARC
  5
C717
  8
0
 10
4226.6549122845435704
 20
207.1105709704627884
 30
0.0
 40
0.166790747385265
 50
174.0539524433185932
 51
199.0180215802868133
  0
ARC
  5
C718
  8
0
 10
4226.5919747682773959
 20
207.0888777001354981
 30
0.0
 40
0.1002195153753045
 50
199.018021580285307
 51
219.6268212508246052
  0
ARC
  5
C719
  8
0
 10
4226.5885106881405591
 20
207.0860092313681946
 30
0.0
 40
0.095721964456344
 50
219.6268212508246052
 51
252.7154192544045941
  0
ARC
  5
C71A
  8
0
 10
4226.5911234124050679
 20
207.1068195437983093
 30
0.0
 40
0.1164272249850828
 50
254.5308368671834955
 51
280.9797148773151889
  0
ARC
  5
C71B
  8
0
 10
4226.5699422267343834
 20
207.2159936451654119
 30
0.0
 40
0.2276370583441663
 50
280.9797148773151889
 51
303.8191871874603862
  0
ARC
  5
C71C
  8
0
 10
4226.5089288995623065
 20
207.307068274129108
 30
0.0
 40
0.3372601130980433
 50
303.8191871874603862
 51
317.1501209447465044
  0
ARC
  5
C71D
  8
0
 10
4226.6354240262489839
 20
207.1897277885769881
 30
0.0
 40
0.1647208230065801
 50
317.1501209447465044
 51
344.0780381087704995
  0
ARC
  5
C71E
  8
0
 10
4226.7076555548219403
 20
207.1691221596458092
 30
0.0
 40
0.0896076706061912
 50
344.0780381087704995
 51
25.5140878377485798
  0
ARC
  5
C71F
  8
0
 10
4226.6514359397006046
 20
207.1176968461174965
 30
0.0
 40
0.161065774006176
 50
107.7319508624827051
 51
126.7525692919263065
  0
ARC
  5
C720
  8
0
 10
4226.6555086150965508
 20
207.1049599943372925
 30
0.0
 40
0.1744379121356795
 50
78.3155657040985744
 51
107.7319508624827051
  0
ARC
  5
C721
  8
0
 10
4226.6566844249764472
 20
207.1106455435526073
 30
0.0
 40
0.1686320531337825
 50
53.5507587216359511
 51
78.3155657040982334
  0
ARC
  5
C722
  8
0
 10
4226.6963479568303228
 20
207.1643471621082142
 30
0.0
 40
0.1018708398843262
 50
25.1984368504427003
 51
53.5507587216369174
  0
ARC
  5
C723
  8
0
 10
4227.5893145884137994
 20
198.8827251957916076
 30
0.0
 40
1.1141937343591839
 50
214.5036133508181138
 51
253.494951805477001
  0
ARC
  5
C724
  8
0
 10
4226.7050300190639973
 20
198.2748911364774926
 30
0.0
 40
0.0411506582185268
 50
181.4782871509216875
 51
214.5036133508181138
  0
ARC
  5
C725
  8
0
 10
4227.2838803957256459
 20
197.8519170224872141
 30
0.0
 40
0.0390854077559793
 50
253.4965355874456918
 51
268.4030982172527047
  0
LINE
  5
C728
  8
0
 10
4227.9016892989629923
 20
206.4372894550517117
 30
0.0
 11
4227.9016892989629923
 21
198.2738295270401068
 31
0.0
  0
ARC
  5
C729
  8
0
 10
4228.6068441462375631
 20
206.6785514431410888
 30
0.0
 40
0.0543718845214042
 50
1.920272474740808
 51
34.5990679653143971
  0
ARC
  5
C72A
  8
0
 10
4226.3783193009694514
 20
205.002862522453313
 30
0.0
 40
2.8425627037929249
 50
36.8957350624119798
 51
71.1412807772142202
  0
ARC
  5
C72B
  8
0
 10
4227.2817038162938843
 20
207.6500460106751973
 30
0.0
 40
0.0454844976722702
 50
70.1653377515832375
 51
88.630142633254664
  0
ARC
  5
C72C
  8
0
 10
4227.3041568279168132
 20
207.7179597983237898
 30
0.0
 40
2.7712821435191528
 50
282.4516628265449185
 51
287.094195790621086
  0
ARC
  5
C72D
  8
0
 10
4228.1064398166981846
 20
205.1123372638471096
 30
0.0
 40
0.0449525714488575
 50
285.9029303231370136
 51
326.0971405211790284
  0
ARC
  5
C72E
  8
0
 10
4225.809180272730373
 20
206.7261075721280008
 30
0.0
 40
2.8523718926595301
 50
324.9315223052817032
 51
359.0812949435301107
  0
LINE
  5
C72F
  8
0
 10
4228.6584782029021881
 20
206.6955874643564925
 30
0.0
 11
4227.8994403160040747
 21
206.448202034286993
 31
0.0
  0
ARC
  5
C730
  8
0
 10
4227.8580385890190882
 20
206.4339786737581903
 30
0.0
 40
0.0437760865260348
 50
4.3374160378887714
 51
33.6860475473067567
  0
ARC
  5
C731
  8
0
 10
4226.9751736647249345
 20
205.8255851183546952
 30
0.0
 40
1.115961905479834
 50
34.5365039076892799
 51
73.4636930036996034
  0
ARC
  5
C732
  8
0
 10
4227.2817081183584378
 20
206.8580251913869859
 30
0.0
 40
0.0389772836455815
 50
73.4636935854440054
 51
88.4077177563786165
  0
LINE
  5
C733
  8
0
 10
4228.1313727428196216
 20
205.0749329475868024
 30
0.0
 11
4227.9016892989629923
 21
205.392309278123804
 31
0.0
  0
ARC
  5
C734
  8
0
 10
4226.9762677674361839
 20
198.8827251957916076
 30
0.0
 40
1.1141937343591839
 50
286.505048194522999
 51
325.4963866491818862
  0
ARC
  5
C735
  8
0
 10
4227.8605523367868955
 20
198.2748911364774926
 30
0.0
 40
0.0411506582185268
 50
325.4963866491818862
 51
358.5217128490783125
  0
ARC
  5
C736
  8
0
 10
4227.2817019587710092
 20
197.8519170284571089
 30
0.0
 40
0.0390854138645756
 50
271.5969089503719829
 51
286.5034638293300873
  0
LINE
  5
C737
  8
0
 10
4221.3772793348798587
 20
207.6116218055724971
 30
0.0
 11
4221.3772793348798587
 21
207.5400292908406925
 31
0.0
  0
LINE
  5
C738
  8
0
 10
4221.3772793348798587
 20
207.2305787441814005
 30
0.0
 11
4221.3772793348798587
 21
207.1013402444866927
 31
0.0
  0
ARC
  5
C739
  8
0
 10
4221.3674985807447229
 20
207.4973413280289947
 30
0.0
 40
0.1146982593547609
 50
74.2998178938225919
 51
85.1082315309875241
  0
ARC
  5
C73A
  8
0
 10
4220.5291515871067531
 20
205.0801754966884971
 30
0.0
 40
2.6729225123593272
 50
36.9407642768443623
 51
71.0188996498343528
  0
ARC
  5
C73B
  8
0
 10
4222.6173275543187629
 20
206.6504003107787923
 30
0.0
 40
0.0602448139653886
 50
357.3778496012168944
 51
36.9000920964389181
  0
ARC
  5
C73C
  8
0
 10
4220.0049708385649865
 20
206.6934152451445925
 30
0.0
 40
2.6729303701391571
 50
324.9408406065414852
 51
359.0188228501846197
  0
ARC
  5
C73D
  8
0
 10
4222.1436409107000145
 20
205.1926591747759971
 30
0.0
 40
0.0602347534468451
 50
285.3734647920986731
 51
324.9018109067220053
  0
ARC
  5
C73E
  8
0
 10
4221.3772786321242165
 20
207.6904329972036862
 30
0.0
 40
2.6729062624120021
 50
270.0000150640710217
 51
287.0190298762825023
  0
ARC
  5
C73F
  8
0
 10
4221.3772792410809416
 20
207.5146147639098899
 30
0.0
 40
0.0254145269309329
 50
70.8808469867947935
 51
89.9998115928857061
  0
ARC
  5
C740
  8
0
 10
4220.5372142751457432
 20
205.0912720852784901
 30
0.0
 40
2.5902339913511181
 50
37.1192500133283403
 51
70.8808469867947935
  0
ARC
  5
C741
  8
0
 10
4222.5823491950277457
 20
206.6390758855656884
 30
0.0
 40
0.0254194864195398
 50
358.8819475232019158
 51
37.1192500133257468
  0
ARC
  5
C742
  8
0
 10
4220.0181963835475472
 20
206.689118338367507
 30
0.0
 40
2.5900605700226871
 50
325.1180986157871757
 51
358.8819475232019158
  0
ARC
  5
C743
  8
0
 10
4222.122053506373959
 20
205.2224350481519082
 30
0.0
 40
0.0254212840672655
 50
286.8834629363984163
 51
325.1180986157871757
  0
ARC
  5
C744
  8
0
 10
4221.381352082000376
 20
207.662902686084692
 30
0.0
 40
2.5758175065914131
 50
269.9094068901492847
 51
286.8834629363984163
  0
ARC
  5
C745
  8
0
 10
4221.3772933205063964
 20
207.3267214012936108
 30
0.0
 40
0.0599029241082987
 50
72.3215177109693599
 51
90.0196177615147661
  0
ARC
  5
C746
  8
0
 10
4220.7655126843374092
 20
205.4061420208554978
 30
0.0
 40
2.075566505636516
 50
35.6698900364958078
 51
72.3313092712537582
  0
ARC
  5
C747
  8
0
 10
4222.4012269590211872
 20
206.580219007646491
 30
0.0
 40
0.0621073033381147
 50
0.3300200235143843
 51
35.6698900364958078
  0
ARC
  5
C748
  8
0
 10
4220.3878428455727772
 20
206.5686219157418861
 30
0.0
 40
2.0755248161333499
 50
323.6727273353558871
 51
0.3300200235143843
  0
ARC
  5
C749
  8
0
 10
4222.0116857200246159
 20
205.3746002966294952
 30
0.0
 40
0.0599471550603085
 50
288.0485515939495258
 51
323.6727273353558871
  0
ARC
  5
C74A
  8
0
 10
4221.3790977688959174
 20
207.3483980926033894
 30
0.0
 40
2.132636810273199
 50
269.9511456396809876
 51
287.7781017926461118
  0
ARC
  5
C74B
  8
0
 10
4221.3777457027536002
 20
207.1845642696364962
 30
0.0
 40
0.0460168378600337
 50
69.9485398863217114
 51
90.580686756448884
  0
ARC
  5
C74C
  8
0
 10
4220.7236453584400806
 20
205.347872881154899
 30
0.0
 40
1.995703256505664
 50
37.6114647533790603
 51
70.3873195821044675
  0
ARC
  5
C74D
  8
0
 10
4222.2663460250178105
 20
206.5364041685353129
 30
0.0
 40
0.0482608394513931
 50
358.3805480451787844
 51
37.6114647533790603
  0
ARC
  5
C74E
  8
0
 10
4220.318738355917958
 20
206.5914675128975944
 30
0.0
 40
1.996646736709129
 50
325.6204452498416231
 51
358.3805480451787844
  0
ARC
  5
C74F
  8
0
 10
4221.9269292244225653
 20
205.4911589454262923
 30
0.0
 40
0.0480685850309931
 50
286.1657576677492898
 51
325.620445249840202
  0
ARC
  5
C750
  8
0
 10
4221.3689684527544159
 20
207.4159654899602003
 30
0.0
 40
2.052114606609019
 50
270.2320434589656202
 51
286.1657576677492898
  0
ARC
  5
C751
  8
0
 10
4221.3773306054827117
 20
207.35976570357181
 30
0.0
 40
1.874008021342112
 50
269.9958730688720152
 51
285.3016118516717938
  0
ARC
  5
C752
  8
0
 10
4221.842520501785657
 20
205.6067143317521015
 30
0.0
 40
0.0619260986669225
 50
298.3028728217944945
 51
314.1776328570097121
  0
ARC
  5
C753
  8
0
 10
4220.3207585309410206
 20
206.5909117324530087
 30
0.0
 40
1.8726997261070779
 50
326.6833476301309247
 51
357.3114018645562169
  0
ARC
  5
C754
  8
0
 10
4222.1282364127628171
 20
206.4915228893850099
 30
0.0
 40
0.0642068837226739
 50
10.3585310175075502
 51
25.6463504221707588
  0
ARC
  5
C755
  8
0
 10
4220.7236853205549778
 20
205.3479564754597959
 30
0.0
 40
1.8737086092669919
 50
38.6934795751345888
 51
69.3049364185542061
  0
ARC
  5
C756
  8
0
 10
4221.3774815409524308
 20
207.0405194327233005
 30
0.0
 40
0.0608211478916427
 50
82.0980133995798838
 51
90.1904859793246487
  0
LINE
  5
C757
  8
0
 10
4221.3772793348798587
 20
205.4857576829311085
 30
0.0
 11
4221.3772793348798587
 21
205.3638677125879042
 31
0.0
  0
LINE
  5
C758
  8
0
 10
4221.3772793348798587
 20
205.0870883993021039
 30
0.0
 11
4221.3772793348798587
 21
205.0175267347918009
 31
0.0
  0
ARC
  5
C759
  8
0
 10
4221.3870600890131755
 20
207.4973413280289947
 30
0.0
 40
0.1146982593547609
 50
94.8917684690124759
 51
105.7001821061773938
  0
ARC
  5
C75A
  8
0
 10
4222.2254070826520547
 20
205.0801754966884971
 30
0.0
 40
2.6729225123593272
 50
108.9811003501656046
 51
143.0592357231556093
  0
ARC
  5
C75B
  8
0
 10
4220.1372311154391355
 20
206.6504003107787923
 30
0.0
 40
0.0602448139653886
 50
143.0999079035611032
 51
182.6221503987829919
  0
ARC
  5
C75C
  8
0
 10
4222.7495878311938213
 20
206.6934152451445925
 30
0.0
 40
2.6729303701391571
 50
180.9811771498154087
 51
215.0591593934584012
  0
ARC
  5
C75D
  8
0
 10
4220.6109177590587933
 20
205.1926591747759971
 30
0.0
 40
0.0602347534468451
 50
215.0981890932779095
 51
254.6265352079012132
  0
ARC
  5
C75E
  8
0
 10
4221.3772800376345913
 20
207.6904329972036862
 30
0.0
 40
2.6729062624120021
 50
252.9809701237174977
 51
269.9999849359289783
  0
ARC
  5
C75F
  8
0
 10
4221.3772794286778662
 20
207.5146147639098899
 30
0.0
 40
0.0254145269309329
 50
90.0001884071142797
 51
109.1191530132052065
  0
ARC
  5
C760
  8
0
 10
4222.2173443946130647
 20
205.0912720852784901
 30
0.0
 40
2.5902339913511181
 50
109.1191530132052065
 51
142.8807499866717023
  0
ARC
  5
C761
  8
0
 10
4220.1722094747310621
 20
206.6390758855656884
 30
0.0
 40
0.0254194864195398
 50
142.8807499866742035
 51
181.1180524767979989
  0
ARC
  5
C762
  8
0
 10
4222.7363622862112607
 20
206.689118338367507
 30
0.0
 40
2.5900605700226871
 50
181.1180524767979989
 51
214.8819013842127958
  0
ARC
  5
C763
  8
0
 10
4220.6325051633848489
 20
205.2224350481519082
 30
0.0
 40
0.0254212840672655
 50
214.8819013842114884
 51
253.1165370636016121
  0
ARC
  5
C764
  8
0
 10
4221.3732065877584319
 20
207.662902686084692
 30
0.0
 40
2.5758175065914131
 50
253.1165370636016121
 51
270.0905931098507153
  0
ARC
  5
C765
  8
0
 10
4221.3772653492542304
 20
207.3267214012936108
 30
0.0
 40
0.0599029241082987
 50
89.9803822384852339
 51
107.6784822890305975
  0
ARC
  5
C766
  8
0
 10
4221.9890459854213987
 20
205.4061420208554978
 30
0.0
 40
2.075566505636516
 50
107.6686907287461992
 51
144.3301099635042135
  0
ARC
  5
C767
  8
0
 10
4220.3533317107358016
 20
206.580219007646491
 30
0.0
 40
0.0621073033381147
 50
144.3301099635042135
 51
179.6699799764855925
  0
ARC
  5
C768
  8
0
 10
4222.3667158241851212
 20
206.5686219157418861
 30
0.0
 40
2.0755248161333499
 50
179.6699799764855925
 51
216.3272726646441129
  0
ARC
  5
C769
  8
0
 10
4220.7428729497341919
 20
205.3746002966294952
 30
0.0
 40
0.0599471550603085
 50
216.3272726646441129
 51
251.9514484060505026
  0
ARC
  5
C76A
  8
0
 10
4221.3754609008610714
 20
207.3483980926033894
 30
0.0
 40
2.132636810273199
 50
252.2218982073538882
 51
270.0488543603190124
  0
ARC
  5
C76B
  8
0
 10
4221.3768129670061171
 20
207.1845642696364962
 30
0.0
 40
0.0460168378600337
 50
89.4193132435511018
 51
110.0514601136783028
  0
ARC
  5
C76C
  8
0
 10
4222.0309133113187272
 20
205.347872881154899
 30
0.0
 40
1.995703256505664
 50
109.6126804178955041
 51
142.3885352466209042
  0
ARC
  5
C76D
  8
0
 10
4220.4882126447409973
 20
206.5364041685353129
 30
0.0
 40
0.0482608394513931
 50
142.3885352466209042
 51
181.6194519548211872
  0
ARC
  5
C76E
  8
0
 10
4222.4358203138408498
 20
206.5914675128975944
 30
0.0
 40
1.996646736709129
 50
181.6194519548211872
 51
214.3795547501584053
  0
ARC
  5
C76F
  8
0
 10
4220.827629445335333
 20
205.4911589454262923
 30
0.0
 40
0.0480685850309931
 50
214.379554750159798
 51
253.8342423322507102
  0
ARC
  5
C770
  8
0
 10
4221.3855902170053014
 20
207.4159654899602003
 30
0.0
 40
2.052114606609019
 50
253.8342423322507102
 51
269.7679565410343798
  0
ARC
  5
C771
  8
0
 10
4221.3772280642751866
 20
207.35976570357181
 30
0.0
 40
1.874008021342112
 50
254.6983881483282062
 51
270.0041269311279848
  0
ARC
  5
C772
  8
0
 10
4220.9120381679731508
 20
205.6067143317521015
 30
0.0
 40
0.0619260986669225
 50
225.8223671429902879
 51
241.6971271782053918
  0
ARC
  5
C773
  8
0
 10
4222.4338001388168777
 20
206.5909117324530087
 30
0.0
 40
1.8726997261070779
 50
182.6885981354438115
 51
213.3166523698691037
  0
ARC
  5
C774
  8
0
 10
4220.6263222569959908
 20
206.4915228893850099
 30
0.0
 40
0.0642068837226739
 50
154.3536495778292021
 51
169.6414689824923983
  0
ARC
  5
C775
  8
0
 10
4222.03087334920383
 20
205.3479564754597959
 30
0.0
 40
1.8737086092669919
 50
110.6950635814457939
 51
141.306520424865397
  0
ARC
  5
C776
  8
0
 10
4221.377077128804558
 20
207.0405194327233005
 30
0.0
 40
0.0608211478916427
 50
89.8095140206753513
 51
97.9019866004201162
  0
LINE
  5
C777
  8
0
 10
4221.8791295050932604
 20
205.5567681349708948
 30
0.0
 11
4221.955234308134095
 21
205.4523078051211087
 31
0.0
  0
LINE
  5
C778
  8
0
 10
4222.1369711635206841
 20
205.2018509477616135
 30
0.0
 11
4222.1790166119244532
 21
205.1439068898484095
 31
0.0
  0
LINE
  5
C779
  8
0
 10
4222.6748970645667214
 20
206.6681538766065103
 30
0.0
 11
4222.6067630311872563
 21
206.646155072935187
 31
0.0
  0
LINE
  5
C77A
  8
0
 10
4222.3123192773218761
 20
206.5510864264404916
 30
0.0
 11
4222.1892999426627284
 21
206.5113665088499033
 31
0.0
  0
LINE
  5
C77B
  8
0
 10
4220.5652587270960794
 20
206.5113665088499033
 30
0.0
 11
4220.4422393924378412
 21
206.5510864264404916
 31
0.0
  0
LINE
  5
C77C
  8
0
 10
4220.147795638570642
 20
206.646155072935187
 30
0.0
 11
4220.0796616051920864
 21
206.6681538766065103
 31
0.0
  0
LINE
  5
C77D
  8
0
 10
4220.8754291646646379
 20
205.5567681349708948
 30
0.0
 11
4220.7994673132479875
 21
205.4522040589135941
 31
0.0
  0
LINE
  5
C77E
  8
0
 10
4220.6175925697652929
 20
205.2018472790848875
 30
0.0
 11
4220.5755152206829734
 21
205.143926374740488
 31
0.0
  0
LINE
  5
C77F
  8
0
 10
4233.188303024675406
 20
207.6116218055724971
 30
0.0
 11
4233.188303024675406
 21
207.5400292908406925
 31
0.0
  0
LINE
  5
C780
  8
0
 10
4233.188303024675406
 20
207.2305787441814005
 30
0.0
 11
4233.188303024675406
 21
207.1013402444866927
 31
0.0
  0
ARC
  5
C781
  8
0
 10
4233.1980837788114513
 20
207.4973413280289947
 30
0.0
 40
0.1146982593547609
 50
94.8917684690124759
 51
105.7001821061773938
  0
ARC
  5
C782
  8
0
 10
4234.0364307724476021
 20
205.0801754966884971
 30
0.0
 40
2.6729225123593272
 50
108.9811003501656046
 51
143.0592357231556093
  0
ARC
  5
C783
  8
0
 10
4231.9482548052355924
 20
206.6504003107787923
 30
0.0
 40
0.0602448139653886
 50
143.0999079035611032
 51
182.6221503987829919
  0
ARC
  5
C784
  8
0
 10
4234.5606115209902782
 20
206.6934152451445925
 30
0.0
 40
2.6729303701391571
 50
180.9811771498154087
 51
215.0591593934584012
  0
ARC
  5
C785
  8
0
 10
4232.4219414488552502
 20
205.1926591747759971
 30
0.0
 40
0.0602347534468451
 50
215.0981890932779095
 51
254.6265352079012132
  0
ARC
  5
C786
  8
0
 10
4233.1883037274301387
 20
207.6904329972036862
 30
0.0
 40
2.6729062624120021
 50
252.9809701237174977
 51
269.9999849359289783
  0
ARC
  5
C787
  8
0
 10
4233.1883031184743231
 20
207.5146147639098899
 30
0.0
 40
0.0254145269309329
 50
90.0001884071142797
 51
109.1191530132052065
  0
ARC
  5
C788
  8
0
 10
4234.028368084408612
 20
205.0912720852784901
 30
0.0
 40
2.5902339913511181
 50
109.1191530132052065
 51
142.8807499866717023
  0
ARC
  5
C789
  8
0
 10
4231.9832331645266095
 20
206.6390758855656884
 30
0.0
 40
0.0254194864195398
 50
142.8807499866742035
 51
181.1180524767979989
  0
ARC
  5
C78A
  8
0
 10
4234.5473859760068081
 20
206.689118338367507
 30
0.0
 40
2.5900605700226871
 50
181.1180524767979989
 51
214.8819013842127958
  0
ARC
  5
C78B
  8
0
 10
4232.4435288531813057
 20
205.2224350481519082
 30
0.0
 40
0.0254212840672655
 50
214.8819013842114884
 51
253.1165370636016121
  0
ARC
  5
C78C
  8
0
 10
4233.1842302775530698
 20
207.662902686084692
 30
0.0
 40
2.5758175065914131
 50
253.1165370636016121
 51
270.0905931098507153
  0
ARC
  5
C78D
  8
0
 10
4233.1882890390488683
 20
207.3267214012936108
 30
0.0
 40
0.0599029241082987
 50
89.9803822384852339
 51
107.6784822890305975
  0
ARC
  5
C78E
  8
0
 10
4233.8000696752178555
 20
205.4061420208554978
 30
0.0
 40
2.075566505636516
 50
107.6686907287461992
 51
144.3301099635042135
  0
ARC
  5
C78F
  8
0
 10
4232.164355400533168
 20
206.580219007646491
 30
0.0
 40
0.0621073033381147
 50
144.3301099635042135
 51
179.6699799764855925
  0
ARC
  5
C790
  8
0
 10
4234.177739513983397
 20
206.5686219157418861
 30
0.0
 40
2.0755248161333499
 50
179.6699799764855925
 51
216.3272726646441129
  0
ARC
  5
C791
  8
0
 10
4232.5538966395288298
 20
205.3746002966294952
 30
0.0
 40
0.0599471550603085
 50
216.3272726646441129
 51
251.9514484060505026
  0
ARC
  5
C792
  8
0
 10
4233.1864845906593473
 20
207.3483980926033894
 30
0.0
 40
2.132636810273199
 50
252.2218982073538882
 51
270.0488543603190124
  0
ARC
  5
C793
  8
0
 10
4233.1878366568016645
 20
207.1845642696364962
 30
0.0
 40
0.0460168378600337
 50
89.4193132435511018
 51
110.0514601136783028
  0
ARC
  5
C794
  8
0
 10
4233.8419370011151841
 20
205.347872881154899
 30
0.0
 40
1.995703256505664
 50
109.6126804178955041
 51
142.3885352466209042
  0
ARC
  5
C795
  8
0
 10
4232.2992363345356353
 20
206.5364041685353129
 30
0.0
 40
0.0482608394513931
 50
142.3885352466209042
 51
181.6194519548211872
  0
ARC
  5
C796
  8
0
 10
4234.2468440036382162
 20
206.5914675128975944
 30
0.0
 40
1.996646736709129
 50
181.6194519548211872
 51
214.3795547501584053
  0
ARC
  5
C797
  8
0
 10
4232.6386531351317899
 20
205.4911589454262923
 30
0.0
 40
0.0480685850309931
 50
214.379554750159798
 51
253.8342423322507102
  0
ARC
  5
C798
  8
0
 10
4233.1966139068008488
 20
207.4159654899602003
 30
0.0
 40
2.052114606609019
 50
253.8342423322507102
 51
269.7679565410343798
  0
ARC
  5
C799
  8
0
 10
4233.188251754070734
 20
207.35976570357181
 30
0.0
 40
1.874008021342112
 50
254.6983881483282062
 51
270.0041269311279848
  0
ARC
  5
C79A
  8
0
 10
4232.7230618577686982
 20
205.6067143317521015
 30
0.0
 40
0.0619260986669225
 50
225.8223671429902879
 51
241.6971271782053918
  0
ARC
  5
C79B
  8
0
 10
4234.2448238286142441
 20
206.5909117324530087
 30
0.0
 40
1.8726997261070779
 50
182.6885981354438115
 51
213.3166523698691037
  0
ARC
  5
C79C
  8
0
 10
4232.4373459467924476
 20
206.4915228893850099
 30
0.0
 40
0.0642068837226739
 50
154.3536495778292021
 51
169.6414689824923983
  0
ARC
  5
C79D
  8
0
 10
4233.8418970390002869
 20
205.3479564754597959
 30
0.0
 40
1.8737086092669919
 50
110.6950635814457939
 51
141.306520424865397
  0
ARC
  5
C79E
  8
0
 10
4233.1881008186028339
 20
207.0405194327233005
 30
0.0
 40
0.0608211478916427
 50
89.8095140206753513
 51
97.9019866004201162
  0
LINE
  5
C79F
  8
0
 10
4233.188303024675406
 20
205.4857576829311085
 30
0.0
 11
4233.188303024675406
 21
205.3638677125879042
 31
0.0
  0
LINE
  5
C7A0
  8
0
 10
4233.188303024675406
 20
205.0870883993021039
 30
0.0
 11
4233.188303024675406
 21
205.0175267347918009
 31
0.0
  0
ARC
  5
C7A1
  8
0
 10
4233.1785222705411798
 20
207.4973413280289947
 30
0.0
 40
0.1146982593547609
 50
74.2998178938225919
 51
85.1082315309875241
  0
ARC
  5
C7A2
  8
0
 10
4232.3401752769023005
 20
205.0801754966884971
 30
0.0
 40
2.6729225123593272
 50
36.9407642768443623
 51
71.0188996498343528
  0
ARC
  5
C7A3
  8
0
 10
4234.4283512441143102
 20
206.6504003107787923
 30
0.0
 40
0.0602448139653886
 50
357.3778496012168944
 51
36.9000920964389181
  0
ARC
  5
C7A4
  8
0
 10
4231.8159945283614434
 20
206.6934152451445925
 30
0.0
 40
2.6729303701391571
 50
324.9408406065414852
 51
359.0188228501846197
  0
ARC
  5
C7A5
  8
0
 10
4233.9546646004973809
 20
205.1926591747759971
 30
0.0
 40
0.0602347534468451
 50
285.3734647920986731
 51
324.9018109067220053
  0
ARC
  5
C7A6
  8
0
 10
4233.1883023219197639
 20
207.6904329972036862
 30
0.0
 40
2.6729062624120021
 50
270.0000150640710217
 51
287.0190298762825023
  0
ARC
  5
C7A7
  8
0
 10
4233.1883029308755795
 20
207.5146147639098899
 30
0.0
 40
0.0254145269309329
 50
70.8808469867947935
 51
89.9998115928857061
  0
ARC
  5
C7A8
  8
0
 10
4232.3482379649412906
 20
205.0912720852784901
 30
0.0
 40
2.5902339913511181
 50
37.1192500133283403
 51
70.8808469867947935
  0
ARC
  5
C7A9
  8
0
 10
4234.3933728848242026
 20
206.6390758855656884
 30
0.0
 40
0.0254194864195398
 50
358.8819475232019158
 51
37.1192500133257468
  0
ARC
  5
C7AA
  8
0
 10
4231.8292200733430946
 20
206.689118338367507
 30
0.0
 40
2.5900605700226871
 50
325.1180986157871757
 51
358.8819475232019158
  0
ARC
  5
C7AB
  8
0
 10
4233.9330771961704158
 20
205.2224350481519082
 30
0.0
 40
0.0254212840672655
 50
286.8834629363984163
 51
325.1180986157884831
  0
ARC
  5
C7AC
  8
0
 10
4233.1923757717977423
 20
207.662902686084692
 30
0.0
 40
2.5758175065914131
 50
269.9094068901492847
 51
286.8834629363984163
  0
ARC
  5
C7AD
  8
0
 10
4233.1883170103010343
 20
207.3267214012936108
 30
0.0
 40
0.0599029241082987
 50
72.3215177109693599
 51
90.0196177615147661
  0
ARC
  5
C7AE
  8
0
 10
4232.576536374133866
 20
205.4061420208554978
 30
0.0
 40
2.075566505636516
 50
35.6698900364958078
 51
72.3313092712537582
  0
ARC
  5
C7AF
  8
0
 10
4234.2122506488185536
 20
206.580219007646491
 30
0.0
 40
0.0621073033381147
 50
0.3300200235143843
 51
35.6698900364958078
  0
ARC
  5
C7B0
  8
0
 10
4232.198866535369234
 20
206.5686219157418861
 30
0.0
 40
2.0755248161333499
 50
323.6727273353558871
 51
0.3300200235143843
  0
ARC
  5
C7B1
  8
0
 10
4233.8227094098201633
 20
205.3746002966294952
 30
0.0
 40
0.0599471550603085
 50
288.0485515939495258
 51
323.6727273353558871
  0
ARC
  5
C7B2
  8
0
 10
4233.1901214586932838
 20
207.3483980926033894
 30
0.0
 40
2.132636810273199
 50
269.9511456396809876
 51
287.7781017926461118
  0
ARC
  5
C7B3
  8
0
 10
4233.1887693925491476
 20
207.1845642696364962
 30
0.0
 40
0.0460168378600337
 50
69.9485398863217114
 51
90.580686756448884
  0
ARC
  5
C7B4
  8
0
 10
4232.534669048237447
 20
205.347872881154899
 30
0.0
 40
1.995703256505664
 50
37.6114647533790603
 51
70.3873195821044675
  0
ARC
  5
C7B5
  8
0
 10
4234.0773697148142674
 20
206.5364041685353129
 30
0.0
 40
0.0482608394513931
 50
358.3805480451787844
 51
37.6114647533790603
  0
ARC
  5
C7B6
  8
0
 10
4232.1297620457144149
 20
206.5914675128975944
 30
0.0
 40
1.996646736709129
 50
325.6204452498416231
 51
358.3805480451787844
  0
ARC
  5
C7B7
  8
0
 10
4233.7379529142199317
 20
205.4911589454262923
 30
0.0
 40
0.0480685850309931
 50
286.1657576677492898
 51
325.620445249840202
  0
ARC
  5
C7B8
  8
0
 10
4233.1799921425499633
 20
207.4159654899602003
 30
0.0
 40
2.052114606609019
 50
270.2320434589656202
 51
286.1657576677492898
  0
ARC
  5
C7B9
  8
0
 10
4233.1883542952800781
 20
207.35976570357181
 30
0.0
 40
1.874008021342112
 50
269.9958730688720152
 51
285.3016118516717938
  0
ARC
  5
C7BA
  8
0
 10
4233.6535441915812044
 20
205.6067143317521015
 30
0.0
 40
0.0619260986669225
 50
298.3028728217944945
 51
314.1776328570097121
  0
ARC
  5
C7BB
  8
0
 10
4232.131782220736568
 20
206.5909117324530087
 30
0.0
 40
1.8726997261070779
 50
326.6833476301309247
 51
357.3114018645562169
  0
ARC
  5
C7BC
  8
0
 10
4233.9392601025592739
 20
206.4915228893850099
 30
0.0
 40
0.0642068837226739
 50
10.3585310175075502
 51
25.6463504221707588
  0
ARC
  5
C7BD
  8
0
 10
4232.5347090103514347
 20
205.3479564754597959
 30
0.0
 40
1.8737086092669919
 50
38.6934795751345888
 51
69.3049364185542061
  0
ARC
  5
C7BE
  8
0
 10
4233.1885052307479782
 20
207.0405194327233005
 30
0.0
 40
0.0608211478916427
 50
82.0980133995798838
 51
90.1904859793246487
  0
LINE
  5
C7BF
  8
0
 10
4232.6864528544610948
 20
205.5567681349708948
 30
0.0
 11
4232.6103480514211697
 21
205.4523078051211087
 31
0.0
  0
LINE
  5
C7C0
  8
0
 10
4232.4286111960336711
 20
205.2018509477616135
 30
0.0
 11
4232.386565747629902
 21
205.1439068898484095
 31
0.0
  0
LINE
  5
C7C1
  8
0
 10
4231.8906852949876338
 20
206.6681538766065103
 30
0.0
 11
4231.9588193283680084
 21
206.646155072935187
 31
0.0
  0
LINE
  5
C7C2
  8
0
 10
4232.2532630822342981
 20
206.5510864264404916
 30
0.0
 11
4232.3762824168916268
 21
206.5113665088499033
 31
0.0
  0
LINE
  5
C7C3
  8
0
 10
4234.0003236324591853
 20
206.5113665088499033
 30
0.0
 11
4234.123342967118333
 21
206.5510864264404916
 31
0.0
  0
LINE
  5
C7C4
  8
0
 10
4234.4177867209837132
 20
206.646155072935187
 30
0.0
 11
4234.4859207543613593
 21
206.6681538766065103
 31
0.0
  0
LINE
  5
C7C5
  8
0
 10
4233.6901531948888078
 20
205.5567681349708948
 30
0.0
 11
4233.7661150463063677
 21
205.4522040589135941
 31
0.0
  0
LINE
  5
C7C6
  8
0
 10
4233.9479897897899718
 20
205.2018472790848875
 30
0.0
 11
4233.9900671388722913
 21
205.143926374740488
 31
0.0
  0
ENDSEC
  0
EOF
