  0
SECTION
  2
HEADER
  9
$ACADVER
  1
AC1009
  9
$INSBASE
 10
998.352901846307077
 20
-8.9638801695906771
 30
0.0
  9
$EXTMIN
 10
990.7211634252362273
 20
-17.9836950504152284
 30
-0.0000000000112498
  9
$EXTMAX
 10
1005.9953814005599497
 20
-7.3161673778069414
 30
0.0000000000002956
  9
$LIMMIN
 10
0.0
 20
0.0
  9
$LIMMAX
 10
11.6929133858000007
 20
8.2677165353999982
  9
$ORTHOMODE
 70
     1
  9
$REGENMODE
 70
     1
  9
$FILLMODE
 70
     1
  9
$QTEXTMODE
 70
     0
  9
$MIRRTEXT
 70
     0
  9
$DRAGMODE
 70
     2
  9
$LTSCALE
 40
0.6431102362
  9
$OSMODE
 70
  4095
  9
$ATTMODE
 70
     1
  9
$TEXTSIZE
 40
0.2
  9
$TRACEWID
 40
0.05
  9
$TEXTSTYLE
  7
STANDARD
  9
$CLAYER
  8
0
  9
$CELTYPE
  6
BYLAYER
  9
$CECOLOR
 62
   256
  9
$DIMSCALE
 40
1.0
  9
$DIMASZ
 40
0.1875
  9
$DIMEXO
 40
0.0625
  9
$DIMDLI
 40
0.4443307087
  9
$DIMRND
 40
0.0
  9
$DIMDLE
 40
0.0
  9
$DIMEXE
 40
0.125
  9
$DIMTP
 40
0.01
  9
$DIMTM
 40
0.01
  9
$DIMTXT
 40
1.0
  9
$DIMCEN
 40
0.1052362205
  9
$DIMTSZ
 40
0.0
  9
$DIMTOL
 70
     1
  9
$DIMLIM
 70
     0
  9
$DIMTIH
 70
     0
  9
$DIMTOH
 70
     1
  9
$DIMSE1
 70
     0
  9
$DIMSE2
 70
     0
  9
$DIMTAD
 70
     0
  9
$DIMZIN
 70
     0
  9
$DIMBLK
  1

  9
$DIMASO
 70
     1
  9
$DIMSHO
 70
     1
  9
$DIMPOST
  1
\X
  9
$DIMAPOST
  1

  9
$DIMALT
 70
     1
  9
$DIMALTD
 70
     2
  9
$DIMALTF
 40
25.3999999999999986
  9
$DIMLFAC
 40
1.0
  9
$DIMTOFL
 70
     0
  9
$DIMTVP
 40
0.0
  9
$DIMTIX
 70
     0
  9
$DIMSOXD
 70
     0
  9
$DIMSAH
 70
     0
  9
$DIMBLK1
  1

  9
$DIMBLK2
  1

  9
$DIMSTYLE
  2
STANDARD
  9
$DIMCLRD
 70
     0
  9
$DIMCLRE
 70
     0
  9
$DIMCLRT
 70
     0
  9
$DIMTFAC
 40
1.0
  9
$DIMGAP
 40
0.09
  9
$LUNITS
 70
     2
  9
$LUPREC
 70
     4
  9
$SKETCHINC
 40
0.1
  9
$FILLETRAD
 40
0.0
  9
$AUNITS
 70
     0
  9
$AUPREC
 70
     0
  9
$MENU
  1
.
  9
$ELEVATION
 40
0.0
  9
$PELEVATION
 40
0.0
  9
$THICKNESS
 40
0.0
  9
$LIMCHECK
 70
     0
  9
$BLIPMODE
 70
     0
  9
$CHAMFERA
 40
0.0
  9
$CHAMFERB
 40
0.0
  9
$SKPOLY
 70
     0
  9
$TDCREATE
 40
2458172.5207638889551163
  9
$TDUPDATE
 40
2460159.5048495368100703
  9
$TDINDWG
 40
0.2440715741
  9
$TDUSRTIMER
 40
0.2440715741
  9
$USRTIMER
 70
     1
  9
$ANGBASE
 50
0.0
  9
$ANGDIR
 70
     0
  9
$PDMODE
 70
     0
  9
$PDSIZE
 40
0.3125
  9
$PLINEWID
 40
0.0
  9
$COORDS
 70
     1
  9
$SPLFRAME
 70
     0
  9
$SPLINETYPE
 70
     6
  9
$SPLINESEGS
 70
     8
  9
$ATTDIA
 70
     1
  9
$ATTREQ
 70
     1
  9
$HANDLING
 70
     1
  9
$HANDSEED
  5
E80B
  9
$SURFTAB1
 70
     6
  9
$SURFTAB2
 70
     6
  9
$SURFTYPE
 70
     6
  9
$SURFU
 70
     6
  9
$SURFV
 70
     6
  9
$UCSNAME
  2

  9
$UCSORG
 10
0.0
 20
0.0
 30
0.0
  9
$UCSXDIR
 10
1.0
 20
0.0
 30
0.0
  9
$UCSYDIR
 10
0.0
 20
1.0
 30
0.0
  9
$PUCSNAME
  2

  9
$PUCSORG
 10
0.0
 20
0.0
 30
0.0
  9
$PUCSXDIR
 10
1.0
 20
0.0
 30
0.0
  9
$PUCSYDIR
 10
0.0
 20
1.0
 30
0.0
  9
$USERI1
 70
     0
  9
$USERI2
 70
     0
  9
$USERI3
 70
     0
  9
$USERI4
 70
     0
  9
$USERI5
 70
     0
  9
$USERR1
 40
0.0
  9
$USERR2
 40
0.0
  9
$USERR3
 40
0.0
  9
$USERR4
 40
0.0
  9
$USERR5
 40
0.0
  9
$WORLDVIEW
 70
     1
  9
$SHADEDGE
 70
     3
  9
$SHADEDIF
 70
    70
  9
$TILEMODE
 70
     1
  9
$MAXACTVP
 70
    64
  9
$PLIMCHECK
 70
     0
  9
$PEXTMIN
 10
1.0000000000000000E+20
 20
1.0000000000000000E+20
 30
1.0000000000000000E+20
  9
$PEXTMAX
 10
-1.0000000000000000E+20
 20
-1.0000000000000000E+20
 30
-1.0000000000000000E+20
  9
$PLIMMIN
 10
0.0
 20
0.0
  9
$PLIMMAX
 10
12.0
 20
9.0
  9
$UNITMODE
 70
     0
  9
$VISRETAIN
 70
     1
  9
$PLINEGEN
 70
     0
  9
$PSLTSCALE
 70
     1
  0
ENDSEC
  0
SECTION
  2
TABLES
  0
TABLE
  2
VPORT
 70
     1
  0
VPORT
  2
*ACTIVE
 70
     0
 10
0.0
 20
0.0
 11
1.0
 21
1.0
 12
624.5371359382886567
 22
-54.5363793463745523
 13
0.0
 23
0.0
 14
1.0
 24
1.0
 15
0.0
 25
0.0
 16
0.0
 26
0.0
 36
25.5757211105568096
 17
373.821136474609375
 27
41.8864481322634603
 37
0.0
 40
10.7593571791156908
 41
2.7227011494252871
 42
50.0
 43
0.0
 44
0.0
 50
0.0
 51
0.0
 71
     0
 72
   100
 73
     1
 74
     1
 75
     0
 76
     0
 77
     0
 78
     0
  0
ENDTAB
  0
TABLE
  2
LTYPE
 70
     2
  0
LTYPE
  2
CONTINUOUS
 70
     0
  3
Solid line
 72
    65
 73
     0
 40
0.0
  0
LTYPE
  2
PHANTOM2
 70
     0
  3
___ _ _ ___ _ _ ___ _ _ ___ _ _
 72
    65
 73
     6
 40
1.25
 49
0.625
 49
-0.125
 49
0.125
 49
-0.125
 49
0.125
 49
-0.125
  0
ENDTAB
  0
TABLE
  2
LAYER
 70
     2
  0
LAYER
  2
0
 70
     0
 62
   255
  6
CONTINUOUS
  0
LAYER
  2
DEFPOINTS
 70
     0
 62
     7
  6
CONTINUOUS
  0
ENDTAB
  0
TABLE
  2
STYLE
 70
     1
  0
STYLE
  2
STANDARD
 70
     0
 40
0.0
 41
0.8
 50
0.0
 71
     0
 42
0.2
  3
txt
  4

  0
ENDTAB
  0
TABLE
  2
VIEW
 70
     0
  0
ENDTAB
  0
TABLE
  2
UCS
 70
     0
  0
ENDTAB
  0
TABLE
  2
APPID
 70
    10
  0
APPID
  2
ACAD
 70
     0
  0
APPID
  2
ACAD_MLEADERVER
 70
     0
  0
APPID
  2
ACAD_EXEMPT_FROM_CAD_STANDARDS
 70
     0
  0
APPID
  2
ACAD_DSTYLE_DIMJAG
 70
     0
  0
APPID
  2
ACAD_DSTYLE_DIMTALN
 70
     0
  0
APPID
  2
ACAD_NAV_VCDISPLAY
 70
     0
  0
APPID
  2
ACAECLAYERSTANDARD
 70
     0
  0
APPID
  2
ACCMTRANSPARENCY
 70
     0
  0
APPID
  2
DCO15
 70
     0
  0
APPID
  2
ACDBATTR
 70
     0
  0
ENDTAB
  0
TABLE
  2
DIMSTYLE
 70
     1
  0
DIMSTYLE
  2
STANDARD
 70
     0
  3

  4

  5

  6

  7

 40
1.0
 41
0.1875
 42
0.0625
 43
0.38
 44
0.125
 45
0.0
 46
0.0
 47
0.01
 48
0.01
140
0.15625
141
0.09
142
0.0
143
25.3999999999999986
144
1.0
145
0.0
146
1.0
147
0.09
 71
     1
 72
     0
 73
     1
 74
     1
 75
     0
 76
     0
 77
     0
 78
     4
170
     0
171
     2
172
     0
173
     0
174
     0
175
     0
176
     0
177
     0
178
     0
  0
ENDTAB
  0
ENDSEC
  0
SECTION
  2
BLOCKS
  0
BLOCK
  8
0
  2
$MODEL_SPACE
 70
     0
 10
0.0
 20
0.0
 30
0.0
  3
$MODEL_SPACE
  1

  0
ENDBLK
  5
21
  8
0
  0
BLOCK
 67
     1
  8
0
  2
$PAPER_SPACE
 70
     0
 10
0.0
 20
0.0
 30
0.0
  3
$PAPER_SPACE
  1

  0
ENDBLK
  5
1D
 67
     1
  8
0
  0
BLOCK
  8
0
  2
_FILLED
 70
     0
 10
0.0
 20
0.0
 30
0.0
  3
_FILLED
  1

  0
SOLID
  5
B142
  8
0
  6
BYBLOCK
 62
     0
 10
0.0
 20
0.0
 30
0.0
 11
-1.0
 21
0.1666666667
 31
0.0
 12
-1.0
 22
-0.1666666667
 32
0.0
 13
-1.0
 23
-0.1666666667
 33
0.0
  0
ENDBLK
  5
B143
  8
0
  6
BYBLOCK
 62
     0
  0
ENDSEC
  0
SECTION
  2
ENTITIES
  0
ATTDEF
  5
829
  8
DEFPOINTS
 10
998.3539064313154086
 20
-8.9637019394967012
 30
0.0
 40
0.001
  1
K-EX27105T-3
  3

  2
MODELNUMBER
 70
     0
1001
ACDBATTR
1070
     0
1070
     1
  0
ATTDEF
  5
82A
  8
DEFPOINTS
 10
998.3539064313154086
 20
-8.9653686061633664
 30
0.0
 40
0.001
  1
OCCASION
  3

  2
TRADENAME
 70
     0
1001
ACDBATTR
1070
     0
1070
     1
  0
ATTDEF
  5
82B
  8
DEFPOINTS
 10
998.3539064313154086
 20
-8.9670352728300315
 30
0.0
 40
0.001
  1
BATH FAUCET
  3

  2
PRODUCT
 70
     0
1001
ACDBATTR
1070
     0
1070
     1
  0
LINE
  5
E2B6
  8
0
 10
992.7269004137607453
 20
-10.7499544379561698
 30
0.0
 11
992.1678796612750375
 21
-10.7499544379561698
 31
0.0
  0
LINE
  5
E2B7
  8
0
 10
992.672172307000551
 20
-10.6984424417361801
 30
0.0
 11
992.2226077680353455
 21
-10.6984424417361801
 31
0.0
  0
LINE
  5
E2B8
  8
0
 10
992.672172307000551
 20
-7.3682748968791847
 30
0.0
 11
992.2226077680353455
 21
-7.3682748968791847
 31
0.0
  0
LINE
  5
E2B9
  8
0
 10
992.7269004137607453
 20
-7.316776083556177
 30
0.0
 11
992.1678796612750375
 21
-7.316776083556177
 31
0.0
  0
LINE
  5
E2BA
  8
0
 10
990.7822819321430643
 20
-9.26134136269647
 30
0.0
 11
990.7822819321430643
 21
-8.8053770994526417
 31
0.0
  0
LINE
  5
E2BB
  8
0
 10
990.7737888687679515
 20
-9.3554544379561833
 30
0.0
 11
991.9984796612751552
 21
-9.3554544379561833
 31
0.0
  0
LINE
  5
E2BC
  8
0
 10
990.7737888687679515
 20
-8.7112760835561858
 30
0.0
 11
991.9984796612751552
 21
-8.7112760835561858
 31
0.0
  0
LINE
  5
E2BD
  8
0
 10
990.8248819321437395
 20
-8.7627770994526486
 30
0.0
 11
992.0532077680353495
 21
-8.7627770994526486
 31
0.0
  0
LINE
  5
E2BE
  8
0
 10
990.8248819321437395
 20
-9.3039413626964631
 30
0.0
 11
992.0532077680353495
 21
-9.3039413626964631
 31
0.0
  0
ARC
  5
E2BF
  8
0
 10
990.8248819321437395
 20
-9.26134136269647
 30
0.0
 40
0.0426
 50
180.0
 51
270.0
  0
ARC
  5
E2C0
  8
0
 10
990.8248819321437395
 20
-8.8053770994526417
 30
0.0
 40
0.0426
 50
90.0
 51
180.0000000000048885
  0
LINE
  5
E2C1
  8
0
 10
990.7947591832647731
 20
-8.7752543505741016
 30
0.0
 11
990.7475152697538761
 21
-8.7202364302845936
 31
0.0
  0
LINE
  5
E2C2
  8
0
 10
990.7433786610106381
 20
-9.3428554126800556
 30
0.0
 11
990.7947591832647731
 21
-9.2914641115750101
 31
0.0
  0
LINE
  5
E2C3
  8
0
 10
992.1252796612752718
 20
-9.4822544379561862
 30
0.0
 11
992.1252796612752718
 21
-10.7073544379561501
 31
0.0
  0
LINE
  5
E2C4
  8
0
 10
992.1252796612752718
 20
-8.5844760835561829
 30
0.0
 11
992.1252796612752718
 21
-7.359376083556171
 31
0.0
  0
ARC
  5
E2C5
  8
0
 10
991.9984796612751552
 20
-9.4822544379561577
 30
0.0
 40
0.1268
 50
359.9999999999968168
 51
90.0
  0
ARC
  5
E2C6
  8
0
 10
991.9984796612751552
 20
-8.5844760835561829
 30
0.0
 40
0.1268
 50
270.0
 51
0.0000000000016284
  0
LINE
  5
E2C7
  8
0
 10
992.1800077680354661
 20
-8.6359770994526457
 30
0.0
 11
992.1800077680354661
 21
-7.4108748968791778
 31
0.0
  0
LINE
  5
E2C8
  8
0
 10
992.1800077680354661
 20
-9.430741362696466
 30
0.0
 11
992.1800077680354661
 21
-10.6558424417361799
 31
0.0
  0
ARC
  5
E2C9
  8
0
 10
992.0532077680353495
 20
-9.430741362696466
 30
0.0
 40
0.1268
 50
359.9999999999984084
 51
90.0
  0
ARC
  5
E2CA
  8
0
 10
992.0532077680353495
 20
-8.6359770994526457
 30
0.0
 40
0.1268
 50
270.0
 51
359.9999999999951115
  0
ARC
  5
E2CB
  8
0
 10
992.1678796612750375
 20
-10.7073544379561501
 30
0.0
 40
0.0426
 50
180.0
 51
270.0
  0
ARC
  5
E2CC
  8
0
 10
992.2226077680353455
 20
-10.6558424417361799
 30
0.0
 40
0.0426
 50
180.0
 51
270.0
  0
ARC
  5
E2CD
  8
0
 10
992.2226077680353455
 20
-7.4108748968791778
 30
0.0
 40
0.0426
 50
90.0
 51
180.0
  0
ARC
  5
E2CE
  8
0
 10
992.1678796612750375
 20
-7.359376083556171
 30
0.0
 40
0.0426
 50
90.0
 51
180.0000000000048885
  0
LINE
  5
E2CF
  8
0
 10
992.1377569123959574
 20
-10.7374771868347203
 30
0.0
 11
992.1924850191561518
 21
-10.6859651906147199
 31
0.0
  0
LINE
  5
E2D0
  8
0
 10
992.1924850191561518
 20
-7.3807521480006377
 30
0.0
 11
992.1377569123959574
 21
-7.3292533346776301
 31
0.0
  0
ARC
  5
E2D1
  8
0
 10
993.7772464716533705
 20
-8.6059158303620649
 30
0.0
 40
2.6235921980404511
 50
196.6002013541867939
 51
215.2288011716634912
  0
ARC
  5
E2D2
  8
0
 10
991.671169427396876
 20
-10.0931758086630303
 30
0.0
 40
0.0453170460444161
 50
215.2288011716624965
 51
251.8869554096233969
  0
ARC
  5
E2D3
  8
0
 10
992.4423374966191886
 20
-7.5748910596211507
 30
0.0
 40
2.6790247057801988
 50
252.9555844340073918
 51
263.2032161124192271
  0
LINE
  5
E2D4
  8
0
 10
991.644250628304917
 20
-10.1296314380998904
 30
0.0
 11
992.1245233533767305
 21
-9.4684259282227856
 31
0.0
  0
ARC
  5
E2D5
  8
0
 10
997.0217278133457057
 20
-8.6003021651609401
 30
0.0
 40
0.0483167734657641
 50
143.2839382067218992
 51
178.8814220489375089
  0
ARC
  5
E2D6
  8
0
 10
999.2562775204270338
 20
-10.2779789148182292
 30
0.0
 40
2.8425627037929249
 50
108.8587192227922031
 51
143.1042649375955875
  0
ARC
  5
E2D7
  8
0
 10
998.3528930051016914
 20
-7.6307954265963636
 30
0.0
 40
0.0454844976722851
 50
89.9888629359745238
 51
109.8346622483922062
  0
ARC
  5
E2D8
  8
0
 10
998.330439993479331
 20
-7.5628816389477427
 30
0.0
 40
2.7712821435191528
 50
252.9058042093604115
 51
257.5485321222437278
  0
ARC
  5
E2D9
  8
0
 10
997.5281571579947695
 20
-10.1685038584423193
 30
0.0
 40
0.0449529163804228
 50
213.9036844258450003
 51
254.0969917721855893
  0
ARC
  5
E2DA
  8
0
 10
999.9969669435325841
 20
-8.4991020947586122
 30
0.0
 40
3.025208432405345
 50
181.8991571685585029
 51
214.0640211601196086
  0
LINE
  5
E2DB
  8
0
 10
996.9759718816019358
 20
-8.5847810405753791
 30
0.0
 11
997.7354105156647393
 21
-8.8327223321804862
 31
0.0
  0
ARC
  5
E2DC
  8
0
 10
998.659423156671437
 20
-9.4552563189167813
 30
0.0
 40
1.115961905479834
 50
106.5363069963066067
 51
145.346007969037089
  0
ARC
  5
E2DD
  8
0
 10
998.3528887016919953
 20
-8.4228162399619606
 30
0.0
 40
0.0389772775850121
 50
89.9806776914543747
 51
106.5363069963066067
  0
LINE
  5
E2DE
  8
0
 10
997.5032240785767499
 20
-10.2059084896847008
 30
0.0
 11
997.7329167299242272
 21
-9.888519436244497
 31
0.0
  0
ARC
  5
E2DF
  8
0
 10
997.7212203586400392
 20
-8.1634795324846721
 30
0.0
 40
0.1617953838235866
 50
126.900059572058197
 51
146.2892404559395914
  0
ARC
  5
E2E0
  8
0
 10
997.7327809969905275
 20
-8.1711926568034698
 30
0.0
 40
0.1756928888451832
 50
146.2892404559395914
 51
174.0539524433197869
  0
ARC
  5
E2E1
  8
0
 10
997.7239267500892765
 20
-8.1702704668086881
 30
0.0
 40
0.166790747385265
 50
174.0539524433206964
 51
199.0180215802799069
  0
ARC
  5
E2E2
  8
0
 10
997.6609892338226473
 20
-8.1919637371359784
 30
0.0
 40
0.1002195153753045
 50
199.0180215802787131
 51
219.626821250825202
  0
ARC
  5
E2E3
  8
0
 10
997.6575251536847873
 20
-8.1948322059032677
 30
0.0
 40
0.095721964456344
 50
219.626821250825202
 51
252.7154192544174123
  0
ARC
  5
E2E4
  8
0
 10
997.660137877950433
 20
-8.1740218934732241
 30
0.0
 40
0.1164272249850828
 50
254.5308368671834103
 51
280.9797148773214985
  0
ARC
  5
E2E5
  8
0
 10
997.6389566922795211
 20
-8.0648477921060078
 30
0.0
 40
0.2276370583441663
 50
280.9797148773214985
 51
303.8191871874550998
  0
ARC
  5
E2E6
  8
0
 10
997.577943365106762
 20
-7.9737731631423108
 30
0.0
 40
0.3372601130980433
 50
303.8191871874550998
 51
317.1501209447374094
  0
ARC
  5
E2E7
  8
0
 10
997.7044384917942352
 20
-8.0911136486944581
 30
0.0
 40
0.1647208230065801
 50
317.1501209447374094
 51
344.0780381087669184
  0
ARC
  5
E2E8
  8
0
 10
997.7766700203661685
 20
-8.1117192776257099
 30
0.0
 40
0.0896076706061912
 50
344.0780381087674868
 51
25.5140878377373603
  0
ARC
  5
E2E9
  8
0
 10
997.7204504052459697
 20
-8.1631445911539782
 30
0.0
 40
0.161065774006176
 50
107.7319508624888016
 51
126.7525692919051039
  0
ARC
  5
E2EA
  8
0
 10
997.7245230806423706
 20
-8.1758814429342124
 30
0.0
 40
0.1744379121356795
 50
78.3155657041175459
 51
107.7319508624887021
  0
ARC
  5
E2EB
  8
0
 10
997.7256988905207891
 20
-8.1701958937189403
 30
0.0
 40
0.1686320531337825
 50
53.550758721625229
 51
78.3155657041175459
  0
ARC
  5
E2EC
  8
0
 10
997.7653624223737552
 20
-8.1164942751632623
 30
0.0
 40
0.1018708398843262
 50
25.1984368504421496
 51
53.550758721625968
  0
ARC
  5
E2ED
  8
0
 10
998.6583290539598465
 20
-16.9134936504173901
 30
0.0
 40
1.1141937343591839
 50
214.5032741771225062
 51
253.4949518054768873
  0
ARC
  5
E2EE
  8
0
 10
998.3528948619483572
 20
-17.9443018207368894
 30
0.0
 40
0.0390854108102567
 50
253.4965358790637993
 51
270.0102384564146973
  0
LINE
  5
E2EF
  8
0
 10
990.7307888687679451
 20
-8.754276083556185
 30
0.0
 11
990.7307888687679451
 21
-9.3124544379561822
 31
0.0
  0
ARC
  5
E2F0
  8
0
 10
990.7737888687679515
 20
-8.7542760835561886
 30
0.0
 40
0.043
 50
90.0
 51
179.9999999999953104
  0
ARC
  5
E2F1
  8
0
 10
990.7737888687679515
 20
-9.3124544379561822
 30
0.0
 40
0.043
 50
180.0
 51
270.0
  0
ARC
  5
E2F2
  8
0
 10
993.2930944766256971
 20
-10.1990677572337507
 30
0.0
 40
2.661051595531124
 50
116.0308248886250055
 51
143.1728443766938028
  0
ARC
  5
E2F3
  8
0
 10
1001.1956061734570085
 20
-8.3678860609442083
 30
0.0
 40
10.0430372191851607
 50
181.4756703812554122
 51
181.9594306173376879
  0
ARC
  5
E2F4
  8
0
 10
991.1918877839757442
 20
-8.6255918818317632
 30
0.0
 40
0.036
 50
143.1966288576483919
 51
181.4756703812554122
  0
LINE
  5
E2F5
  8
0
 10
994.1124981428927185
 20
-9.26134136269647
 30
0.0
 11
994.1124981428927185
 21
-8.8053770994526417
 31
0.0
  0
LINE
  5
E2F6
  8
0
 10
994.120991206267945
 20
-9.3554544379561833
 30
0.0
 11
992.8963004137605139
 21
-9.3554544379561833
 31
0.0
  0
LINE
  5
E2F7
  8
0
 10
994.120991206267945
 20
-8.7112760835561858
 30
0.0
 11
992.8963004137605139
 21
-8.7112760835561858
 31
0.0
  0
LINE
  5
E2F8
  8
0
 10
994.0698981428920433
 20
-8.7627770994526486
 30
0.0
 11
992.8415723070003196
 21
-8.7627770994526486
 31
0.0
  0
LINE
  5
E2F9
  8
0
 10
994.0698981428920433
 20
-9.3039413626964631
 30
0.0
 11
992.8415723070003196
 21
-9.3039413626964631
 31
0.0
  0
ARC
  5
E2FA
  8
0
 10
994.0698981428920433
 20
-9.26134136269647
 30
0.0
 40
0.0426
 50
270.0
 51
0.0
  0
ARC
  5
E2FB
  8
0
 10
994.0698981428920433
 20
-8.8053770994526417
 30
0.0
 40
0.0426
 50
359.9999999999951115
 51
90.0
  0
LINE
  5
E2FC
  8
0
 10
994.1000208917710097
 20
-8.7752543505741016
 30
0.0
 11
994.1472648052819068
 21
-8.7202364302845936
 31
0.0
  0
LINE
  5
E2FD
  8
0
 10
994.1514014140251447
 20
-9.3428554126800556
 30
0.0
 11
994.1000208917710097
 21
-9.2914641115750101
 31
0.0
  0
LINE
  5
E2FE
  8
0
 10
992.769500413760511
 20
-9.4822544379561862
 30
0.0
 11
992.769500413760511
 21
-10.7073544379561501
 31
0.0
  0
LINE
  5
E2FF
  8
0
 10
992.769500413760511
 20
-8.5844760835561829
 30
0.0
 11
992.769500413760511
 21
-7.359376083556171
 31
0.0
  0
ARC
  5
E300
  8
0
 10
992.8963004137605139
 20
-9.4822544379561577
 30
0.0
 40
0.1268
 50
90.0
 51
180.0000000000032117
  0
ARC
  5
E301
  8
0
 10
992.8963004137605139
 20
-8.5844760835561829
 30
0.0
 40
0.1268
 50
179.9999999999984084
 51
270.0
  0
LINE
  5
E302
  8
0
 10
992.7147723070003167
 20
-8.6359770994526457
 30
0.0
 11
992.7147723070003167
 21
-7.4108748968791778
 31
0.0
  0
LINE
  5
E303
  8
0
 10
992.7147723070003167
 20
-9.430741362696466
 30
0.0
 11
992.7147723070003167
 21
-10.6558424417361799
 31
0.0
  0
ARC
  5
E304
  8
0
 10
992.8415723070003196
 20
-9.430741362696466
 30
0.0
 40
0.1268
 50
90.0
 51
180.0000000000015916
  0
ARC
  5
E305
  8
0
 10
992.8415723070003196
 20
-8.6359770994526457
 30
0.0
 40
0.1268
 50
180.0000000000048885
 51
270.0
  0
ARC
  5
E306
  8
0
 10
992.7269004137607453
 20
-10.7073544379561501
 30
0.0
 40
0.0426
 50
270.0
 51
0.0
  0
ARC
  5
E307
  8
0
 10
992.672172307000551
 20
-10.6558424417361799
 30
0.0
 40
0.0426
 50
270.0
 51
0.0
  0
ARC
  5
E308
  8
0
 10
992.672172307000551
 20
-7.4108748968791778
 30
0.0
 40
0.0426
 50
0.0
 51
90.0
  0
ARC
  5
E309
  8
0
 10
992.7269004137607453
 20
-7.359376083556171
 30
0.0
 40
0.0426
 50
359.9999999999951115
 51
90.0
  0
LINE
  5
E30A
  8
0
 10
992.7570231626397117
 20
-10.7374771868347203
 30
0.0
 11
992.7022950558795173
 21
-10.6859651906147199
 31
0.0
  0
LINE
  5
E30B
  8
0
 10
992.7022950558795173
 20
-7.3807521480006377
 30
0.0
 11
992.7570231626397117
 21
-7.3292533346776301
 31
0.0
  0
ARC
  5
E30C
  8
0
 10
991.1175336033824124
 20
-8.6059158303620649
 30
0.0
 40
2.6235921980404511
 50
324.7711988283364803
 51
343.3997986458131777
  0
ARC
  5
E30D
  8
0
 10
993.2236106476389068
 20
-10.0931758086630303
 30
0.0
 40
0.0453170460444161
 50
288.1130445903766031
 51
324.7711988283375035
  0
ARC
  5
E30E
  8
0
 10
992.4524425784165942
 20
-7.5748910596211507
 30
0.0
 40
2.6790247057801988
 50
276.7967838875807729
 51
287.0444155659924945
  0
LINE
  5
E30F
  8
0
 10
993.2505294467309795
 20
-10.1296314380998904
 30
0.0
 11
992.7702567216590523
 21
-9.4684259282227856
 31
0.0
  0
LINE
  5
E310
  8
0
 10
994.1639912062679514
 20
-8.754276083556185
 30
0.0
 11
994.1639912062679514
 21
-9.3124544379561822
 31
0.0
  0
ARC
  5
E311
  8
0
 10
994.120991206267945
 20
-8.7542760835561886
 30
0.0
 40
0.043
 50
0.0000000000046818
 51
90.0
  0
ARC
  5
E312
  8
0
 10
994.120991206267945
 20
-9.3124544379561822
 30
0.0
 40
0.043
 50
270.0
 51
0.0
  0
ARC
  5
E313
  8
0
 10
991.6016855984101994
 20
-10.1990677572337507
 30
0.0
 40
2.661051595531124
 50
36.827155623306183
 51
63.9691751113749589
  0
ARC
  5
E314
  8
0
 10
983.6991739015791154
 20
-8.3678860609442083
 30
0.0
 40
10.0430372191851607
 50
358.0405693826622837
 51
358.5243296187445026
  0
ARC
  5
E315
  8
0
 10
993.7028922910601523
 20
-8.6255918818317632
 30
0.0
 40
0.036
 50
358.5243296187445026
 51
36.8033711423515726
  0
LINE
  5
E316
  8
0
 10
997.7329167299242272
 20
-17.5214078158732107
 30
0.0
 11
997.7329167299242272
 21
-8.8479927108188434
 31
0.0
  0
ARC
  5
E317
  8
0
 10
997.7739167299241672
 20
-17.5214078158732285
 30
0.0
 40
0.041
 50
179.9999999999824922
 51
214.503274177155788
  0
ARC
  5
E318
  8
0
 10
997.7809167299243427
 20
-8.8479927108188452
 30
0.0
 40
0.048
 50
145.3460079690509872
 51
179.9999999999957083
  0
ARC
  5
E319
  8
0
 10
999.6840758792685619
 20
-8.6003021651609401
 30
0.0
 40
0.0483167734657641
 50
1.118577951062526
 51
36.7160617932780511
  0
ARC
  5
E31A
  8
0
 10
997.4495261721871202
 20
-10.2779789148182292
 30
0.0
 40
2.8425627037929249
 50
36.8957350624043201
 51
71.14128077720774
  0
ARC
  5
E31B
  8
0
 10
998.3529106875125763
 20
-7.6307954265963636
 30
0.0
 40
0.0454844976722851
 50
70.1653377516016832
 51
90.011137064031999
  0
ARC
  5
E31C
  8
0
 10
998.3753636991350504
 20
-7.5628816389477427
 30
0.0
 40
2.7712821435191528
 50
282.4514678777562722
 51
287.0941957906396169
  0
ARC
  5
E31D
  8
0
 10
999.1776465346194982
 20
-10.1685038584423193
 30
0.0
 40
0.0449529163804228
 50
285.9030082278143254
 51
326.0963155741550281
  0
ARC
  5
E31E
  8
0
 10
996.7088367490814562
 20
-8.4991020947586122
 30
0.0
 40
3.025208432405345
 50
325.9359788398804199
 51
358.1008428314414118
  0
LINE
  5
E31F
  8
0
 10
999.7298318110123319
 20
-8.5847810405753791
 30
0.0
 11
998.9703931769495284
 21
-8.8327223321804862
 31
0.0
  0
ARC
  5
E320
  8
0
 10
998.0463805359429443
 20
-9.4552563189167813
 30
0.0
 40
1.115961905479834
 50
34.6539920309629323
 51
73.4636930036871263
  0
ARC
  5
E321
  8
0
 10
998.3529149909222724
 20
-8.4228162399619606
 30
0.0
 40
0.0389772775850121
 50
73.4636930036871263
 51
90.0193223085456253
  0
LINE
  5
E322
  8
0
 10
999.2025796140376315
 20
-10.2059084896847008
 30
0.0
 11
998.9728869626899268
 21
-9.888519436244497
 31
0.0
  0
ARC
  5
E323
  8
0
 10
998.0474746386544211
 20
-16.9134936504173901
 30
0.0
 40
1.1141937343591839
 50
286.505048194522999
 51
325.4967258228774085
  0
ARC
  5
E324
  8
0
 10
998.3529088306657968
 20
-17.9443018207368894
 30
0.0
 40
0.0390854108102567
 50
269.9897615435917828
 51
286.5034641209300048
  0
LINE
  5
E325
  8
0
 10
998.9728869626899268
 20
-17.5214078158732107
 30
0.0
 11
998.9728869626899268
 21
-8.8479927108188434
 31
0.0
  0
ARC
  5
E326
  8
0
 10
998.9318869626901005
 20
-17.5214078158732285
 30
0.0
 40
0.041
 50
325.4967258228443256
 51
0.0000000000175058
  0
ARC
  5
E327
  8
0
 10
998.9248869626900387
 20
-8.8479927108188452
 30
0.0
 40
0.048
 50
0.0000000000042747
 51
34.6539920309490128
  0
LINE
  5
E328
  8
0
 10
1003.9789032788529539
 20
-10.7499544379561698
 30
0.0
 11
1004.5379240313390028
 21
-10.7499544379561698
 31
0.0
  0
LINE
  5
E329
  8
0
 10
1004.0336313856130346
 20
-10.6984424417361801
 30
0.0
 11
1004.4831959245790358
 21
-10.6984424417361801
 31
0.0
  0
LINE
  5
E32A
  8
0
 10
1004.0336313856130346
 20
-7.3682748968791847
 30
0.0
 11
1004.4831959245790358
 21
-7.3682748968791847
 31
0.0
  0
LINE
  5
E32B
  8
0
 10
1003.9789032788529539
 20
-7.316776083556177
 30
0.0
 11
1004.5379240313390028
 21
-7.316776083556177
 31
0.0
  0
LINE
  5
E32C
  8
0
 10
1005.923521760470976
 20
-9.26134136269647
 30
0.0
 11
1005.923521760470976
 21
-8.8053770994526417
 31
0.0
  0
LINE
  5
E32D
  8
0
 10
1005.9320148238459751
 20
-9.3554544379561833
 30
0.0
 11
1004.7073240313389988
 21
-9.3554544379561833
 31
0.0
  0
LINE
  5
E32E
  8
0
 10
1005.9320148238459751
 20
-8.7112760835561858
 30
0.0
 11
1004.7073240313389988
 21
-8.7112760835561858
 31
0.0
  0
LINE
  5
E32F
  8
0
 10
1005.8809217604699597
 20
-8.7627770994526486
 30
0.0
 11
1004.6525959245790318
 21
-8.7627770994526486
 31
0.0
  0
LINE
  5
E330
  8
0
 10
1005.8809217604699597
 20
-9.3039413626964631
 30
0.0
 11
1004.6525959245790318
 21
-9.3039413626964631
 31
0.0
  0
ARC
  5
E331
  8
0
 10
1005.8809217604699597
 20
-9.26134136269647
 30
0.0
 40
0.0426
 50
270.0
 51
0.0
  0
ARC
  5
E332
  8
0
 10
1005.8809217604699597
 20
-8.8053770994526417
 30
0.0
 40
0.0426
 50
359.9999999999951115
 51
90.0
  0
LINE
  5
E333
  8
0
 10
1005.9110445093490398
 20
-8.7752543505741016
 30
0.0
 11
1005.9582884228600506
 21
-8.7202364302845936
 31
0.0
  0
LINE
  5
E334
  8
0
 10
1005.9624250316029475
 20
-9.3428554126800556
 30
0.0
 11
1005.9110445093490398
 21
-9.2914641115750101
 31
0.0
  0
LINE
  5
E335
  8
0
 10
1004.5805240313389959
 20
-9.4822544379561862
 30
0.0
 11
1004.5805240313389959
 21
-10.7073544379561501
 31
0.0
  0
LINE
  5
E336
  8
0
 10
1004.5805240313389959
 20
-8.5844760835561829
 30
0.0
 11
1004.5805240313389959
 21
-7.359376083556171
 31
0.0
  0
ARC
  5
E337
  8
0
 10
1004.7073240313389988
 20
-9.4822544379561577
 30
0.0
 40
0.1268
 50
90.0
 51
180.0000000000032117
  0
ARC
  5
E338
  8
0
 10
1004.7073240313389988
 20
-8.5844760835561829
 30
0.0
 40
0.1268
 50
179.9999999999984084
 51
270.0
  0
LINE
  5
E339
  8
0
 10
1004.5257959245790289
 20
-8.6359770994526457
 30
0.0
 11
1004.5257959245790289
 21
-7.4108748968791778
 31
0.0
  0
LINE
  5
E33A
  8
0
 10
1004.5257959245790289
 20
-9.430741362696466
 30
0.0
 11
1004.5257959245790289
 21
-10.6558424417361799
 31
0.0
  0
ARC
  5
E33B
  8
0
 10
1004.6525959245790318
 20
-9.430741362696466
 30
0.0
 40
0.1268
 50
90.0
 51
180.0000000000015916
  0
ARC
  5
E33C
  8
0
 10
1004.6525959245790318
 20
-8.6359770994526457
 30
0.0
 40
0.1268
 50
180.0000000000048885
 51
270.0
  0
ARC
  5
E33D
  8
0
 10
1004.5379240313390028
 20
-10.7073544379561501
 30
0.0
 40
0.0426
 50
270.0
 51
0.0
  0
ARC
  5
E33E
  8
0
 10
1004.4831959245790358
 20
-10.6558424417361799
 30
0.0
 40
0.0426
 50
270.0
 51
0.0
  0
ARC
  5
E33F
  8
0
 10
1004.4831959245790358
 20
-7.4108748968791778
 30
0.0
 40
0.0426
 50
0.0
 51
90.0
  0
ARC
  5
E340
  8
0
 10
1004.5379240313390028
 20
-7.359376083556171
 30
0.0
 40
0.0426
 50
359.9999999999951115
 51
90.0
  0
LINE
  5
E341
  8
0
 10
1004.5680467802179692
 20
-10.7374771868347203
 30
0.0
 11
1004.5133186734580022
 21
-10.6859651906147199
 31
0.0
  0
LINE
  5
E342
  8
0
 10
1004.5133186734580022
 20
-7.3807521480006377
 30
0.0
 11
1004.5680467802179692
 21
-7.3292533346776301
 31
0.0
  0
ARC
  5
E343
  8
0
 10
1002.9285572209610109
 20
-8.6059158303620649
 30
0.0
 40
2.6235921980404511
 50
324.7711988283364803
 51
343.3997986458131777
  0
ARC
  5
E344
  8
0
 10
1005.0346342652170506
 20
-10.0931758086630303
 30
0.0
 40
0.0453170460444161
 50
288.1130445903766031
 51
324.7711988283375035
  0
ARC
  5
E345
  8
0
 10
1004.2634661959949653
 20
-7.5748910596211507
 30
0.0
 40
2.6790247057801988
 50
276.7967838875807729
 51
287.0444155659924945
  0
LINE
  5
E346
  8
0
 10
1005.0615530643090096
 20
-10.1296314380998904
 30
0.0
 11
1004.5812803392369688
 21
-9.4684259282227856
 31
0.0
  0
LINE
  5
E347
  8
0
 10
1005.9750148238459815
 20
-8.754276083556185
 30
0.0
 11
1005.9750148238459815
 21
-9.3124544379561822
 31
0.0
  0
ARC
  5
E348
  8
0
 10
1005.9320148238459751
 20
-8.7542760835561886
 30
0.0
 40
0.043
 50
0.0000000000046818
 51
90.0
  0
ARC
  5
E349
  8
0
 10
1005.9320148238459751
 20
-9.3124544379561822
 30
0.0
 40
0.043
 50
270.0
 51
0.0
  0
ARC
  5
E34A
  8
0
 10
1003.4127092159890253
 20
-10.1990677572337507
 30
0.0
 40
2.661051595531124
 50
36.827155623306183
 51
63.9691751113749589
  0
ARC
  5
E34B
  8
0
 10
995.5101975191576003
 20
-8.3678860609442083
 30
0.0
 40
10.0430372191851607
 50
358.0405693826622837
 51
358.5243296187445026
  0
ARC
  5
E34C
  8
0
 10
1005.513915908637955
 20
-8.6255918818317632
 30
0.0
 40
0.036
 50
358.5243296187445026
 51
36.8033711423515726
  0
LINE
  5
E34D
  8
0
 10
1002.5933055497209807
 20
-9.26134136269647
 30
0.0
 11
1002.5933055497209807
 21
-8.8053770994526417
 31
0.0
  0
LINE
  5
E34E
  8
0
 10
1002.5848124863459816
 20
-9.3554544379561833
 30
0.0
 11
1003.8095032788539811
 21
-9.3554544379561833
 31
0.0
  0
LINE
  5
E34F
  8
0
 10
1002.5848124863459816
 20
-8.7112760835561858
 30
0.0
 11
1003.8095032788539811
 21
-8.7112760835561858
 31
0.0
  0
LINE
  5
E350
  8
0
 10
1002.635905549721997
 20
-8.7627770994526486
 30
0.0
 11
1003.8642313856139481
 21
-8.7627770994526486
 31
0.0
  0
LINE
  5
E351
  8
0
 10
1002.635905549721997
 20
-9.3039413626964631
 30
0.0
 11
1003.8642313856139481
 21
-9.3039413626964631
 31
0.0
  0
ARC
  5
E352
  8
0
 10
1002.635905549721997
 20
-9.26134136269647
 30
0.0
 40
0.0426
 50
180.0
 51
270.0
  0
ARC
  5
E353
  8
0
 10
1002.635905549721997
 20
-8.8053770994526417
 30
0.0
 40
0.0426
 50
90.0
 51
180.0000000000048885
  0
LINE
  5
E354
  8
0
 10
1002.6057828008430306
 20
-8.7752543505741016
 30
0.0
 11
1002.5585388873320198
 21
-8.7202364302845936
 31
0.0
  0
LINE
  5
E355
  8
0
 10
1002.5544022785890093
 20
-9.3428554126800556
 30
0.0
 11
1002.6057828008430306
 21
-9.2914641115750101
 31
0.0
  0
LINE
  5
E356
  8
0
 10
1003.9363032788529608
 20
-9.4822544379561862
 30
0.0
 11
1003.9363032788529608
 21
-10.7073544379561501
 31
0.0
  0
LINE
  5
E357
  8
0
 10
1003.9363032788529608
 20
-8.5844760835561829
 30
0.0
 11
1003.9363032788529608
 21
-7.359376083556171
 31
0.0
  0
ARC
  5
E358
  8
0
 10
1003.8095032788539811
 20
-9.4822544379561577
 30
0.0
 40
0.1268
 50
359.9999999999968168
 51
90.0
  0
ARC
  5
E359
  8
0
 10
1003.8095032788539811
 20
-8.5844760835561829
 30
0.0
 40
0.1268
 50
270.0
 51
0.0000000000016284
  0
LINE
  5
E35A
  8
0
 10
1003.991031385613951
 20
-8.6359770994526457
 30
0.0
 11
1003.991031385613951
 21
-7.4108748968791778
 31
0.0
  0
LINE
  5
E35B
  8
0
 10
1003.991031385613951
 20
-9.430741362696466
 30
0.0
 11
1003.991031385613951
 21
-10.6558424417361799
 31
0.0
  0
ARC
  5
E35C
  8
0
 10
1003.8642313856139481
 20
-9.430741362696466
 30
0.0
 40
0.1268
 50
359.9999999999984084
 51
90.0
  0
ARC
  5
E35D
  8
0
 10
1003.8642313856139481
 20
-8.6359770994526457
 30
0.0
 40
0.1268
 50
270.0
 51
359.9999999999951115
  0
ARC
  5
E35E
  8
0
 10
1003.9789032788529539
 20
-10.7073544379561501
 30
0.0
 40
0.0426
 50
180.0
 51
270.0
  0
ARC
  5
E35F
  8
0
 10
1004.0336313856130346
 20
-10.6558424417361799
 30
0.0
 40
0.0426
 50
180.0
 51
270.0
  0
ARC
  5
E360
  8
0
 10
1004.0336313856130346
 20
-7.4108748968791778
 30
0.0
 40
0.0426
 50
90.0
 51
180.0
  0
ARC
  5
E361
  8
0
 10
1003.9789032788529539
 20
-7.359376083556171
 30
0.0
 40
0.0426
 50
90.0
 51
180.0000000000048885
  0
LINE
  5
E362
  8
0
 10
1003.9487805299739875
 20
-10.7374771868347203
 30
0.0
 11
1004.0035086367349777
 21
-10.6859651906147199
 31
0.0
  0
LINE
  5
E363
  8
0
 10
1004.0035086367349777
 20
-7.3807521480006377
 30
0.0
 11
1003.9487805299739875
 21
-7.3292533346776301
 31
0.0
  0
ARC
  5
E364
  8
0
 10
1005.588270089231969
 20
-8.6059158303620649
 30
0.0
 40
2.6235921980404511
 50
196.6002013541867939
 51
215.2288011716634912
  0
ARC
  5
E365
  8
0
 10
1003.4821930449750198
 20
-10.0931758086630303
 30
0.0
 40
0.0453170460444161
 50
215.2288011716624965
 51
251.8869554096233969
  0
ARC
  5
E366
  8
0
 10
1004.2533611141969914
 20
-7.5748910596211507
 30
0.0
 40
2.6790247057801988
 50
252.9555844340073918
 51
263.2032161124192271
  0
LINE
  5
E367
  8
0
 10
1003.4552742458829471
 20
-10.1296314380998904
 30
0.0
 11
1003.935546970954988
 21
-9.4684259282227856
 31
0.0
  0
LINE
  5
E368
  8
0
 10
1002.5418124863459752
 20
-8.754276083556185
 30
0.0
 11
1002.5418124863459752
 21
-9.3124544379561822
 31
0.0
  0
ARC
  5
E369
  8
0
 10
1002.5848124863459816
 20
-8.7542760835561886
 30
0.0
 40
0.043
 50
90.0
 51
179.9999999999953104
  0
ARC
  5
E36A
  8
0
 10
1002.5848124863459816
 20
-9.3124544379561822
 30
0.0
 40
0.043
 50
180.0
 51
270.0
  0
ARC
  5
E36B
  8
0
 10
1005.1041180942039546
 20
-10.1990677572337507
 30
0.0
 40
2.661051595531124
 50
116.0308248886250055
 51
143.1728443766938028
  0
ARC
  5
E36C
  8
0
 10
1013.0066297910350386
 20
-8.3678860609442083
 30
0.0
 40
10.0430372191851607
 50
181.4756703812554122
 51
181.9594306173374889
  0
ARC
  5
E36D
  8
0
 10
1003.0029114015540017
 20
-8.6255918818317632
 30
0.0
 40
0.036
 50
143.1966288576483919
 51
181.4756703812554122
  0
LINE
  5
E3B0
  8
0
 10
998.352901846307077
 20
-7.5853109297833479
 30
0.0
 11
998.352901846307077
 21
-17.9833872309231104
 31
0.0
  0
ENDSEC
  0
EOF
