  0
SECTION
  2
HEADER
  9
$ACADVER
  1
AC1009
  9
$INSBASE
 10
889.3642961439201144
 20
40.546435076835067
 30
0.0
  9
$EXTMIN
 10
880.3190109735814985
 20
40.5384682155645422
 30
-0.0000000000112498
  9
$EXTMAX
 10
891.0599133932269069
 20
46.4498703263641275
 30
0.0000000000002956
  9
$LIMMIN
 10
0.0
 20
0.0
  9
$LIMMAX
 10
11.6929133858000007
 20
8.2677165353999982
  9
$ORTHOMODE
 70
     0
  9
$REGENMODE
 70
     1
  9
$FILLMODE
 70
     1
  9
$QTEXTMODE
 70
     0
  9
$MIRRTEXT
 70
     0
  9
$DRAGMODE
 70
     2
  9
$LTSCALE
 40
0.6431102362
  9
$OSMODE
 70
  4095
  9
$ATTMODE
 70
     1
  9
$TEXTSIZE
 40
0.2
  9
$TRACEWID
 40
0.05
  9
$TEXTSTYLE
  7
STANDARD
  9
$CLAYER
  8
0
  9
$CELTYPE
  6
BYLAYER
  9
$CECOLOR
 62
   256
  9
$DIMSCALE
 40
1.0
  9
$DIMASZ
 40
0.1875
  9
$DIMEXO
 40
0.0625
  9
$DIMDLI
 40
0.4443307087
  9
$DIMRND
 40
0.0
  9
$DIMDLE
 40
0.0
  9
$DIMEXE
 40
0.125
  9
$DIMTP
 40
0.01
  9
$DIMTM
 40
0.01
  9
$DIMTXT
 40
1.0
  9
$DIMCEN
 40
0.1052362205
  9
$DIMTSZ
 40
0.0
  9
$DIMTOL
 70
     1
  9
$DIMLIM
 70
     0
  9
$DIMTIH
 70
     0
  9
$DIMTOH
 70
     1
  9
$DIMSE1
 70
     0
  9
$DIMSE2
 70
     0
  9
$DIMTAD
 70
     0
  9
$DIMZIN
 70
     0
  9
$DIMBLK
  1

  9
$DIMASO
 70
     1
  9
$DIMSHO
 70
     1
  9
$DIMPOST
  1
\X
  9
$DIMAPOST
  1

  9
$DIMALT
 70
     1
  9
$DIMALTD
 70
     2
  9
$DIMALTF
 40
25.3999999999999986
  9
$DIMLFAC
 40
1.0
  9
$DIMTOFL
 70
     0
  9
$DIMTVP
 40
0.0
  9
$DIMTIX
 70
     0
  9
$DIMSOXD
 70
     0
  9
$DIMSAH
 70
     0
  9
$DIMBLK1
  1

  9
$DIMBLK2
  1

  9
$DIMSTYLE
  2
STANDARD
  9
$DIMCLRD
 70
     0
  9
$DIMCLRE
 70
     0
  9
$DIMCLRT
 70
     0
  9
$DIMTFAC
 40
1.0
  9
$DIMGAP
 40
0.09
  9
$LUNITS
 70
     2
  9
$LUPREC
 70
     4
  9
$SKETCHINC
 40
0.1
  9
$FILLETRAD
 40
0.0
  9
$AUNITS
 70
     0
  9
$AUPREC
 70
     0
  9
$MENU
  1
.
  9
$ELEVATION
 40
0.0
  9
$PELEVATION
 40
0.0
  9
$THICKNESS
 40
0.0
  9
$LIMCHECK
 70
     0
  9
$BLIPMODE
 70
     0
  9
$CHAMFERA
 40
0.0
  9
$CHAMFERB
 40
0.0
  9
$SKPOLY
 70
     0
  9
$TDCREATE
 40
2458172.5207638889551163
  9
$TDUPDATE
 40
2460159.5049768518656492
  9
$TDINDWG
 40
0.2419303704
  9
$TDUSRTIMER
 40
0.2419303704
  9
$USRTIMER
 70
     1
  9
$ANGBASE
 50
0.0
  9
$ANGDIR
 70
     0
  9
$PDMODE
 70
     0
  9
$PDSIZE
 40
0.3125
  9
$PLINEWID
 40
0.0
  9
$COORDS
 70
     1
  9
$SPLFRAME
 70
     0
  9
$SPLINETYPE
 70
     6
  9
$SPLINESEGS
 70
     8
  9
$ATTDIA
 70
     1
  9
$ATTREQ
 70
     1
  9
$HANDLING
 70
     1
  9
$HANDSEED
  5
110B4
  9
$SURFTAB1
 70
     6
  9
$SURFTAB2
 70
     6
  9
$SURFTYPE
 70
     6
  9
$SURFU
 70
     6
  9
$SURFV
 70
     6
  9
$UCSNAME
  2

  9
$UCSORG
 10
0.0
 20
0.0
 30
0.0
  9
$UCSXDIR
 10
1.0
 20
0.0
 30
0.0
  9
$UCSYDIR
 10
0.0
 20
1.0
 30
0.0
  9
$PUCSNAME
  2

  9
$PUCSORG
 10
0.0
 20
0.0
 30
0.0
  9
$PUCSXDIR
 10
1.0
 20
0.0
 30
0.0
  9
$PUCSYDIR
 10
0.0
 20
1.0
 30
0.0
  9
$USERI1
 70
     0
  9
$USERI2
 70
     0
  9
$USERI3
 70
     0
  9
$USERI4
 70
     0
  9
$USERI5
 70
     0
  9
$USERR1
 40
0.0
  9
$USERR2
 40
0.0
  9
$USERR3
 40
0.0
  9
$USERR4
 40
0.0
  9
$USERR5
 40
0.0
  9
$WORLDVIEW
 70
     1
  9
$SHADEDGE
 70
     3
  9
$SHADEDIF
 70
    70
  9
$TILEMODE
 70
     1
  9
$MAXACTVP
 70
    64
  9
$PLIMCHECK
 70
     0
  9
$PEXTMIN
 10
1.0000000000000000E+20
 20
1.0000000000000000E+20
 30
1.0000000000000000E+20
  9
$PEXTMAX
 10
-1.0000000000000000E+20
 20
-1.0000000000000000E+20
 30
-1.0000000000000000E+20
  9
$PLIMMIN
 10
0.0
 20
0.0
  9
$PLIMMAX
 10
12.0
 20
9.0
  9
$UNITMODE
 70
     0
  9
$VISRETAIN
 70
     1
  9
$PLINEGEN
 70
     0
  9
$PSLTSCALE
 70
     1
  0
ENDSEC
  0
SECTION
  2
TABLES
  0
TABLE
  2
VPORT
 70
     1
  0
VPORT
  2
*ACTIVE
 70
     0
 10
0.0
 20
0.0
 11
1.0
 21
1.0
 12
511.8683257087948846
 22
1.607721138700867
 13
0.0
 23
0.0
 14
1.0
 24
1.0
 15
0.0
 25
0.0
 16
0.0
 26
0.0
 36
25.5757211105568096
 17
373.821136474609375
 27
41.8864481322634603
 37
0.0
 40
5.9622893599599971
 41
2.7227011494252871
 42
50.0
 43
0.0
 44
0.0
 50
0.0
 51
0.0
 71
     0
 72
   100
 73
     1
 74
     1
 75
     0
 76
     0
 77
     0
 78
     0
  0
ENDTAB
  0
TABLE
  2
LTYPE
 70
     2
  0
LTYPE
  2
CONTINUOUS
 70
     0
  3
Solid line
 72
    65
 73
     0
 40
0.0
  0
LTYPE
  2
PHANTOM2
 70
     0
  3
___ _ _ ___ _ _ ___ _ _ ___ _ _
 72
    65
 73
     6
 40
1.25
 49
0.625
 49
-0.125
 49
0.125
 49
-0.125
 49
0.125
 49
-0.125
  0
ENDTAB
  0
TABLE
  2
LAYER
 70
     2
  0
LAYER
  2
0
 70
     0
 62
   255
  6
CONTINUOUS
  0
LAYER
  2
DEFPOINTS
 70
     0
 62
     7
  6
CONTINUOUS
  0
ENDTAB
  0
TABLE
  2
STYLE
 70
     1
  0
STYLE
  2
STANDARD
 70
     0
 40
0.0
 41
0.8
 50
0.0
 71
     0
 42
0.2
  3
txt
  4

  0
ENDTAB
  0
TABLE
  2
VIEW
 70
     0
  0
ENDTAB
  0
TABLE
  2
UCS
 70
     0
  0
ENDTAB
  0
TABLE
  2
APPID
 70
    10
  0
APPID
  2
ACAD
 70
     0
  0
APPID
  2
ACAD_MLEADERVER
 70
     0
  0
APPID
  2
ACAD_EXEMPT_FROM_CAD_STANDARDS
 70
     0
  0
APPID
  2
ACAD_DSTYLE_DIMJAG
 70
     0
  0
APPID
  2
ACAD_DSTYLE_DIMTALN
 70
     0
  0
APPID
  2
ACAD_NAV_VCDISPLAY
 70
     0
  0
APPID
  2
ACAECLAYERSTANDARD
 70
     0
  0
APPID
  2
ACCMTRANSPARENCY
 70
     0
  0
APPID
  2
DCO15
 70
     0
  0
APPID
  2
ACDBATTR
 70
     0
  0
ENDTAB
  0
TABLE
  2
DIMSTYLE
 70
     1
  0
DIMSTYLE
  2
STANDARD
 70
     0
  3

  4

  5

  6

  7

 40
1.0
 41
0.1875
 42
0.0625
 43
0.38
 44
0.125
 45
0.0
 46
0.0
 47
0.01
 48
0.01
140
0.15625
141
0.09
142
0.0
143
25.3999999999999986
144
1.0
145
0.0
146
1.0
147
0.09
 71
     1
 72
     0
 73
     1
 74
     1
 75
     0
 76
     0
 77
     0
 78
     4
170
     0
171
     2
172
     0
173
     0
174
     0
175
     0
176
     0
177
     0
178
     0
  0
ENDTAB
  0
ENDSEC
  0
SECTION
  2
BLOCKS
  0
BLOCK
  8
0
  2
$MODEL_SPACE
 70
     0
 10
0.0
 20
0.0
 30
0.0
  3
$MODEL_SPACE
  1

  0
ENDBLK
  5
21
  8
0
  0
BLOCK
 67
     1
  8
0
  2
$PAPER_SPACE
 70
     0
 10
0.0
 20
0.0
 30
0.0
  3
$PAPER_SPACE
  1

  0
ENDBLK
  5
1D
 67
     1
  8
0
  0
BLOCK
  8
0
  2
_FILLED
 70
     0
 10
0.0
 20
0.0
 30
0.0
  3
_FILLED
  1

  0
SOLID
  5
B17D
  8
0
  6
BYBLOCK
 62
     0
 10
0.0
 20
0.0
 30
0.0
 11
-1.0
 21
0.1666666667
 31
0.0
 12
-1.0
 22
-0.1666666667
 32
0.0
 13
-1.0
 23
-0.1666666667
 33
0.0
  0
ENDBLK
  5
B17E
  8
0
  6
BYBLOCK
 62
     0
  0
ENDSEC
  0
SECTION
  2
ENTITIES
  0
ATTDEF
  5
829
  8
DEFPOINTS
 10
889.3646446681424322
 20
40.5446049724635031
 30
0.0
 40
0.001
  1
K-EX27105T-3
  3

  2
MODELNUMBER
 70
     0
1001
ACDBATTR
1070
     0
1070
     1
  0
ATTDEF
  5
82A
  8
DEFPOINTS
 10
889.3646446681424322
 20
40.5429383057968309
 30
0.0
 40
0.001
  1
OCCASION
  3

  2
TRADENAME
 70
     0
1001
ACDBATTR
1070
     0
1070
     1
  0
ATTDEF
  5
82B
  8
DEFPOINTS
 10
889.3646446681424322
 20
40.5412716391301728
 30
0.0
 40
0.001
  1
BATH FAUCET
  3

  2
PRODUCT
 70
     0
1001
ACDBATTR
1070
     0
1070
     1
  0
LINE
  5
1094A
  8
0
 10
888.9549145581254379
 20
43.2159601162350668
 30
0.0
 11
889.6348778895519445
 21
43.2159601162350668
 31
0.0
  0
LINE
  5
1094B
  8
0
 10
888.9549840519357531
 20
43.1962750768350716
 30
0.0
 11
889.6346179457141261
 21
43.1962750768350716
 31
0.0
  0
LINE
  5
1094C
  8
0
 10
888.0858634458151073
 20
40.546435076835067
 30
0.0
 11
890.642728842025349
 21
40.546435076835067
 31
0.0
  0
LINE
  5
1094D
  8
0
 10
887.998928567318444
 20
40.7564976148350624
 30
0.0
 11
890.7336343531616194
 21
40.7564976148350624
 31
0.0
  0
LINE
  5
1094E
  8
0
 10
891.0057540736997908
 20
43.9944682265350693
 30
0.0
 11
887.5838479239507706
 21
43.9944682265350693
 31
0.0
  0
LINE
  5
1094F
  8
0
 10
888.3564802922779791
 20
43.7927271162350706
 30
0.0
 11
887.6175718463957764
 21
43.7927271162350706
 31
0.0
  0
ARC
  5
10950
  8
0
 10
887.6702669239899706
 20
44.0385520371187127
 30
0.0
 40
0.0393700791641478
 50
90.0028231098964824
 51
133.9999993063383954
  0
LINE
  5
10951
  8
0
 10
887.6429181692958537
 20
44.0668725023350589
 30
0.0
 11
887.5958452314930582
 21
44.0214146956556931
 31
0.0
  0
ARC
  5
10952
  8
0
 10
887.6231938072354524
 20
43.9930943587557834
 30
0.0
 40
0.0393698625507069
 50
133.9999416886911945
 51
177.9966742119962078
  0
LINE
  5
10953
  8
0
 10
887.5838480075620964
 20
43.9944706310107421
 30
0.0
 11
887.5782017676958731
 21
43.8320971950350682
 31
0.0
  0
ARC
  5
10954
  8
0
 10
887.6175718463957764
 20
43.8320971950350682
 30
0.0
 40
0.0393700787000011
 50
180.0000000000007958
 51
270.0
  0
ARC
  5
10955
  8
0
 10
888.9549164979069928
 20
43.2356451555739696
 30
0.0
 40
0.0196850394344795
 50
180.8472017438735975
 51
269.9943540217765872
  0
ARC
  5
10956
  8
0
 10
888.3641909946787791
 20
43.2269097819665191
 30
0.0
 40
0.5711050475813751
 50
0.8472015457004376
 51
34.1282555011732001
  0
ARC
  5
10957
  8
0
 10
888.3813068237917605
 20
43.2201260540472489
 30
0.0
 40
0.5609493038473287
 50
35.6828495455704768
 51
68.5426797922181805
  0
ARC
  5
10958
  8
0
 10
888.2799210384724802
 20
42.895388775267989
 30
0.0
 40
0.9005983663724919
 50
70.0972738366147468
 51
85.1234392522207912
  0
LINE
  5
10959
  8
0
 10
888.992363797309622
 20
44.0251759442790203
 30
0.0
 11
889.0334312556300347
 21
44.0651820908865375
 31
0.0
  0
LINE
  5
1095A
  8
0
 10
888.9710634012780019
 20
43.6984353535843724
 30
0.0
 11
888.9788078654141827
 21
43.9941845089739303
 31
0.0
  0
ARC
  5
1095B
  8
0
 10
889.0236994654753744
 20
43.9930089810633689
 30
0.0
 40
0.0449069885641677
 50
134.2499999382293936
 51
178.5000000098754924
  0
ARC
  5
1095C
  8
0
 10
889.0647669237957871
 20
44.0330151276709003
 30
0.0
 40
0.0449069885641677
 50
89.9999999999478888
 51
134.2499999382293936
  0
ARC
  5
1095D
  8
0
 10
888.9135011629284691
 20
43.6940868676892791
 30
0.0
 40
0.0577262558413616
 50
317.6947050614390946
 51
4.3201507463857434
  0
ARC
  5
1095E
  8
0
 10
888.926649211909421
 20
43.6806660660409207
 30
0.0
 40
0.0389839326867493
 50
234.2484713553157007
 51
319.2761970199260873
  0
ARC
  5
1095F
  8
0
 10
888.5761596778545481
 20
43.2047337941572565
 30
0.0
 40
0.5520806200288694
 50
53.5874567237899981
 51
64.4339781453790721
  0
ARC
  5
10960
  8
0
 10
888.4088884699043547
 20
42.7979484042804188
 30
0.0
 40
0.9915297011216422
 50
65.8588277354071465
 51
84.5598718111420169
  0
ARC
  5
10961
  8
0
 10
888.2726538182000695
 20
40.8087521185485471
 30
0.0
 40
2.9851519955562331
 50
85.5765294152035665
 51
88.3909982563124856
  0
ARC
  5
10962
  8
0
 10
888.954987976292955
 20
43.17659003732917
 30
0.0
 40
0.0196850398970672
 50
90.0114223344400131
 51
179.9999994007235955
  0
LINE
  5
10963
  8
0
 10
888.9353029363958285
 20
43.1765900376057701
 30
0.0
 11
888.9353029363958285
 21
42.396162159203989
 31
0.0
  0
ARC
  5
10964
  8
0
 10
875.8737697256924548
 20
42.4408221784800475
 30
0.0
 40
13.0616095612918404
 50
359.3527489677927065
 51
359.8040949248011202
  0
ARC
  5
10965
  8
0
 10
884.7165582308853118
 20
42.3409239396197066
 30
0.0
 40
4.2182567917988818
 50
358.1827628313196783
 51
359.3527489677927065
  0
ARC
  5
10966
  8
0
 10
886.6782069908365429
 20
42.2558726924890777
 30
0.0
 40
2.2550127979234489
 50
350.0782086612538251
 51
358.762123412841504
  0
ARC
  5
10967
  8
0
 10
888.1031495788067787
 20
40.7309446831113533
 30
0.0
 40
0.0294093126749099
 50
119.6721645643349063
 51
204.7822074699589905
  0
LINE
  5
10968
  8
0
 10
888.0764486376517652
 20
40.7186171767350729
 30
0.0
 11
888.142123452529745
 21
40.5647131430350569
 31
0.0
  0
ARC
  5
10969
  8
0
 10
888.1698481363613382
 20
40.5766007972891103
 30
0.0
 40
0.0301657822247856
 50
203.2084488129179078
 51
269.8840497175444852
  0
LINE
  5
1096A
  8
0
 10
888.9955883979251894
 20
43.1962750768350716
 30
0.0
 11
888.9955883979251894
 21
43.2159601162350668
 31
0.0
  0
LINE
  5
1096B
  8
0
 10
889.294800998825167
 20
43.7927271163350724
 30
0.0
 11
889.0120699067252872
 21
43.7927271163350724
 31
0.0
  0
ARC
  5
1096C
  8
0
 10
889.0120699067252872
 20
43.8320971950350824
 30
0.0
 40
0.0393700787000029
 50
196.2609910555376018
 51
270.0
  0
ARC
  5
1096D
  8
0
 10
887.1689073054334358
 20
42.3326878715415589
 30
0.0
 40
1.824881819327661
 50
300.2629130574658234
 51
313.0628302095652202
  0
ARC
  5
1096E
  8
0
 10
887.2218887897453214
 20
42.2759969506494926
 30
0.0
 40
1.7472873724163041
 50
313.0628302095655044
 51
327.1599693996474798
  0
ARC
  5
1096F
  8
0
 10
887.4850667195182723
 20
42.1061299910641225
 30
0.0
 40
1.4340503907580791
 50
327.1599693996474798
 51
338.8382522630827793
  0
ARC
  5
10970
  8
0
 10
887.4667660634156618
 20
42.1132142952049406
 30
0.0
 40
1.453674390832959
 50
338.8382522630827793
 51
350.2616079566773806
  0
LINE
  5
10971
  8
0
 10
889.4058926332252213
 20
43.1962750768350716
 30
0.0
 11
889.4058926332252213
 21
42.1766953464348973
 31
0.0
  0
ARC
  5
10972
  8
0
 10
892.9350717248756837
 20
42.1766953464348973
 30
0.0
 40
3.5291790916503518
 50
180.0
 51
186.8605095996636862
  0
ARC
  5
10973
  8
0
 10
893.1064767820747647
 20
42.1973177786219793
 30
0.0
 40
3.7018202754471439
 50
186.8605095996636862
 51
198.8975424346863008
  0
ARC
  5
10974
  8
0
 10
890.7831041628024877
 20
41.4019608689209733
 30
0.0
 40
1.2460814982573369
 50
198.8975424346863008
 51
211.1948011862772034
  0
ARC
  5
10975
  8
0
 10
889.6768226514692515
 20
40.7321101603517874
 30
0.0
 40
0.0471929328238444
 50
343.452282188716481
 51
31.1948011862771786
  0
LINE
  5
10976
  8
0
 10
889.7220609882251665
 20
40.7186689626350571
 30
0.0
 11
889.7006968694253146
 21
40.5647131430350569
 31
0.0
  0
ARC
  5
10977
  8
0
 10
889.6729738826685434
 20
40.5712743132559623
 30
0.0
 40
0.0284888214811895
 50
299.3204979170910747
 51
346.6848631073788169
  0
LINE
  5
10978
  8
0
 10
888.7003395329253408
 20
42.7569955785877127
 30
0.0
 11
888.7003395329253408
 21
43.6815177011213507
 31
0.0
  0
LINE
  5
10979
  8
0
 10
888.7003395329253408
 20
44.0779221162350723
 30
0.0
 11
888.7003395329253408
 21
44.7604350768350727
 31
0.0
  0
ARC
  5
1097A
  8
0
 10
888.0867315837024307
 20
40.574072289802217
 30
0.0
 40
0.0276508445437599
 50
203.0956323358851989
 51
268.2008212307035251
  0
LINE
  5
1097B
  8
0
 10
888.0612969155670271
 20
40.56322577603855
 30
0.0
 11
887.9923735620253638
 21
40.7255958968350598
 31
0.0
  0
ARC
  5
1097C
  8
0
 10
888.0178718816442824
 20
40.7363331778933571
 30
0.0
 40
0.0276668334802083
 50
133.2115451510204878
 51
202.8336938529666895
  0
ARC
  5
1097D
  8
0
 10
886.6343630258860458
 20
42.2090256856799826
 30
0.0
 40
1.9929568267921109
 50
313.2115451510205162
 51
325.8011593683038996
  0
ARC
  5
1097E
  8
0
 10
886.5059739028531567
 20
42.2962750458512318
 30
0.0
 40
2.1481863915130508
 50
325.8011593683038996
 51
338.4848762142445935
  0
ARC
  5
1097F
  8
0
 10
886.2115149320253522
 20
42.4123553140751071
 30
0.0
 40
2.4646997627502638
 50
338.4848762142445935
 51
350.6846422597051856
  0
ARC
  5
10980
  8
0
 10
884.9660683799642129
 20
42.616647809058307
 30
0.0
 40
3.7267903052815128
 50
350.6846422597051856
 51
357.9068664709649283
  0
ARC
  5
10981
  8
0
 10
609.1425504543399256
 20
52.6975373853620681
 30
0.0
 40
279.7344666034542229
 50
357.9068664709649283
 51
357.9635293554160853
  0
LINE
  5
10982
  8
0
 10
888.7641125945307294
 20
43.6301551546922397
 30
0.0
 11
888.7641125945307294
 21
42.8983347005463003
 31
0.0
  0
ARC
  5
10983
  8
0
 10
877.7441033127436185
 20
42.8983347005463003
 30
0.0
 40
11.0200092817871695
 50
359.2588041362550939
 51
0.0
  0
ARC
  5
10984
  8
0
 10
880.9581386737685307
 20
42.8567546289974928
 30
0.0
 40
7.8057049707009041
 50
354.5450757020984724
 51
359.2588041362550939
  0
ARC
  5
10985
  8
0
 10
886.4331663804766777
 20
42.3339163400391811
 30
0.0
 40
2.3057696742066618
 50
339.8879415965068915
 51
354.5450757020984724
  0
ARC
  5
10986
  8
0
 10
886.4890855196605344
 20
42.2700711927462933
 30
0.0
 40
2.2316783517193368
 50
327.1108079581586026
 51
340.9335360839185114
  0
ARC
  5
10987
  8
0
 10
886.6868673660203513
 20
42.1400218000134217
 30
0.0
 40
1.994978431951228
 50
318.132785963424908
 51
327.1626951777212184
  0
LINE
  5
10988
  8
0
 10
889.5055715685039104
 20
44.7604350768350727
 30
0.0
 11
889.5055715714651114
 21
44.0779221162350723
 31
0.0
  0
LINE
  5
10989
  8
0
 10
888.7641125217686522
 20
44.7604350768350727
 30
0.0
 11
888.7641125658252577
 21
44.0779221162350723
 31
0.0
  0
LINE
  5
1098A
  8
0
 10
890.2331217053725823
 20
43.7927271162350706
 30
0.0
 11
890.9720301512547849
 21
43.7927271162350706
 31
0.0
  0
ARC
  5
1098B
  8
0
 10
890.9193318074974286
 20
44.038555173155423
 30
0.0
 40
0.0393700924160857
 50
45.9934111045405203
 51
90.7247143107442469
  0
LINE
  5
1098C
  8
0
 10
890.9466838283547077
 20
44.0668725023350589
 30
0.0
 11
890.9937567661575031
 21
44.0214146956556931
 31
0.0
  0
ARC
  5
1098D
  8
0
 10
890.9664081904152226
 20
43.9930943587557834
 30
0.0
 40
0.0393698625507069
 50
2.0033257880045641
 51
46.00005831130877
  0
LINE
  5
1098E
  8
0
 10
891.0057539900885786
 20
43.9944706310107421
 30
0.0
 11
891.0114002299549156
 21
43.8320971950350682
 31
0.0
  0
ARC
  5
1098F
  8
0
 10
890.9720301512547849
 20
43.8320971950350682
 30
0.0
 40
0.0393700787000011
 50
270.0
 51
359.9999999999984084
  0
ARC
  5
10990
  8
0
 10
889.6345827102703652
 20
43.2357475024449585
 30
0.0
 40
0.0197895877629568
 50
270.854649143352276
 51
358.8609100411089798
  0
ARC
  5
10991
  8
0
 10
890.2254110029716685
 20
43.2269097819665191
 30
0.0
 40
0.5711050475813751
 50
145.8717444988268142
 51
179.1527984542995
  0
ARC
  5
10992
  8
0
 10
890.2082951738588008
 20
43.2201260540472489
 30
0.0
 40
0.5609493038473287
 50
111.4573202077818053
 51
144.317150454429509
  0
ARC
  5
10993
  8
0
 10
890.3096809591780811
 20
42.895388775267989
 30
0.0
 40
0.9005983663724919
 50
94.8765607477792088
 51
109.9027261633851964
  0
LINE
  5
10994
  8
0
 10
889.5972382003408256
 20
44.0251759442790203
 30
0.0
 11
889.5561707420206403
 21
44.0651820908865375
 31
0.0
  0
LINE
  5
10995
  8
0
 10
889.6185385963724457
 20
43.6984353535843724
 30
0.0
 11
889.6107941322363786
 21
43.9941845089739303
 31
0.0
  0
ARC
  5
10996
  8
0
 10
889.5659025321751869
 20
43.9930089810633689
 30
0.0
 40
0.0449069885641677
 50
1.499999990124502
 51
45.750000061771118
  0
ARC
  5
10997
  8
0
 10
889.5248350738547742
 20
44.0330151276709003
 30
0.0
 40
0.0449069885641677
 50
45.750000061771118
 51
90.0000000000521254
  0
ARC
  5
10998
  8
0
 10
889.6761008347223196
 20
43.6940868676892791
 30
0.0
 40
0.0577262558413616
 50
175.6798492536142078
 51
222.3052949385607064
  0
ARC
  5
10999
  8
0
 10
889.6629527857411404
 20
43.6806660660409207
 30
0.0
 40
0.0389839326867493
 50
220.7238029800739127
 51
305.7515286446841856
  0
ARC
  5
1099A
  8
0
 10
890.0134423197961269
 20
43.2047337941572565
 30
0.0
 40
0.5520806200288694
 50
115.5660218546208995
 51
126.4125432762100019
  0
ARC
  5
1099B
  8
0
 10
890.1807135277463203
 20
42.7979484042804188
 30
0.0
 40
0.9915297011216422
 50
95.4401281888579831
 51
114.1411722645927966
  0
ARC
  5
1099C
  8
0
 10
890.3169481794503781
 20
40.8087521185485471
 30
0.0
 40
2.9851519955562331
 50
91.6090017436875144
 51
94.4234705847964051
  0
ARC
  5
1099D
  8
0
 10
889.63461402135772
 20
43.17659003732917
 30
0.0
 40
0.0196850398970672
 50
0.0000005992755331
 51
89.9885776655599869
  0
LINE
  5
1099E
  8
0
 10
889.6542990612546191
 20
43.1765900376057701
 30
0.0
 11
889.6542990612546191
 21
42.396162159203989
 31
0.0
  0
ARC
  5
1099F
  8
0
 10
902.7158322719579928
 20
42.4408221784800475
 30
0.0
 40
13.0616095612918404
 50
180.1959050751979987
 51
180.6472510322064124
  0
ARC
  5
109A0
  8
0
 10
893.8730437667653632
 20
42.3409239396197066
 30
0.0
 40
4.2182567917988818
 50
180.6472510322064124
 51
181.8172371686802933
  0
ARC
  5
109A1
  8
0
 10
891.9113950068140184
 20
42.2558726924890777
 30
0.0
 40
2.2550127979234489
 50
181.2378765871577002
 51
189.9217913387452086
  0
ARC
  5
109A2
  8
0
 10
890.619010691738481
 20
40.7309446831113533
 30
0.0
 40
0.0294093126749099
 50
335.2177925300409811
 51
60.3278354356650865
  0
LINE
  5
109A3
  8
0
 10
890.6457116328932671
 20
40.7186171767350729
 30
0.0
 11
890.5800368180155147
 21
40.5647131430350569
 31
0.0
  0
ARC
  5
109A4
  8
0
 10
890.5523121341838078
 20
40.5766007972891103
 30
0.0
 40
0.0301657822247856
 50
270.1159502824555148
 51
336.7915511870818932
  0
LINE
  5
109A5
  8
0
 10
889.5940135997252582
 20
43.1962750768350716
 30
0.0
 11
889.5940135997252582
 21
43.2159601162350668
 31
0.0
  0
LINE
  5
109A6
  8
0
 10
889.294800998825167
 20
43.7927271163350724
 30
0.0
 11
889.5775320909252741
 21
43.7927271163350724
 31
0.0
  0
ARC
  5
109A7
  8
0
 10
889.5775320909252741
 20
43.8320971950350824
 30
0.0
 40
0.0393700787000029
 50
270.0
 51
343.7390089444622845
  0
ARC
  5
109A8
  8
0
 10
891.8188879958162261
 20
42.9131555629742891
 30
0.0
 40
2.460925399645165
 50
228.5817062053947097
 51
241.2064185715705094
  0
ARC
  5
109A9
  8
0
 10
891.3481647360860052
 20
42.3802718633558797
 30
0.0
 40
1.749908437842558
 50
214.9594158834109123
 51
228.5969442762605013
  0
ARC
  5
109AA
  8
0
 10
891.0684348289709078
 20
42.1923087135579777
 30
0.0
 40
1.412965143620188
 50
203.3803530460089064
 51
215.2123439039370965
  0
ARC
  5
109AB
  8
0
 10
891.7776163721907778
 20
42.4560693010668899
 30
0.0
 40
2.1689417743297561
 50
195.7501441082833935
 51
202.3415120899867929
  0
LINE
  5
109AC
  8
0
 10
889.944315494925263
 20
42.7569955785877127
 30
0.0
 11
889.944315494925263
 21
43.7147183244873929
 31
0.0
  0
ARC
  5
109AD
  8
0
 10
892.7189219218273593
 20
42.5512464820463521
 30
0.0
 40
2.7655432423894339
 50
181.4652298054706989
 51
191.1941079226122042
  0
ARC
  5
109AE
  8
0
 10
1169.5021045735109055
 20
52.6975373853620681
 30
0.0
 40
279.7344666034542229
 50
182.036470644583801
 51
182.0931335290351001
  0
ARC
  5
109AF
  8
0
 10
892.042166638474896
 20
42.3672656039718305
 30
0.0
 40
2.066529674336123
 50
189.8326579696031047
 51
212.9623458777936946
  0
ARC
  5
109B0
  8
0
 10
892.2071307744899968
 20
42.4742404988830913
 30
0.0
 40
2.2631429859721881
 50
212.9623458777936946
 51
229.3655262110158048
  0
ARC
  5
109B1
  8
0
 10
890.7153368294603979
 20
40.7358525599245027
 30
0.0
 40
0.027586548639819
 50
335.9098743396982059
 51
49.3655262110163306
  0
LINE
  5
109B2
  8
0
 10
890.7405207148252657
 20
40.7245924718350665
 30
0.0
 11
890.6680897814006812
 21
40.5625961970496576
 31
0.0
  0
ARC
  5
109B3
  8
0
 10
890.6423470475785962
 20
40.5750136769552796
 30
0.0
 40
0.0285811502887847
 50
270.7653947038808724
 51
334.2488098949417008
  0
LINE
  5
109B4
  8
0
 10
889.942702162323485
 20
44.7604350768350727
 30
0.0
 11
889.942702162323485
 21
44.0779221162350723
 31
0.0
  0
LINE
  5
109B5
  8
0
 10
880.364285184923574
 20
44.8111193258350724
 30
0.0
 11
881.4937774755236433
 21
44.4441250338350713
 31
0.0
  0
ARC
  5
109B6
  8
0
 10
888.2549890637806129
 20
44.7604350765920103
 30
0.0
 40
1.68771309854306
 50
0.0000000082513257
 51
89.9999999917470461
  0
LINE
  5
109B7
  8
0
 10
882.0929051026237175
 20
46.44814817513506
 30
0.0
 11
888.2549890640235617
 21
46.44814817513506
 31
0.0
  0
LINE
  5
109B8
  8
0
 10
882.0929051025184435
 20
46.0096440838350631
 30
0.0
 11
888.2549890640235617
 21
46.0096440838350631
 31
0.0
  0
LINE
  5
109B9
  8
0
 10
882.0929051011407864
 20
45.2049350768350635
 30
0.0
 11
888.2549890640235617
 21
45.2049350768350635
 31
0.0
  0
ARC
  5
109BA
  8
0
 10
881.5022936917407606
 20
44.4703352530868301
 30
0.0
 40
0.02755905535176
 50
252.000000514866997
 51
341.9999996197219048
  0
LINE
  5
109BB
  8
0
 10
881.5285039108593992
 20
44.4618190364602484
 30
0.0
 11
881.6701604840479831
 21
44.8977931298493829
 31
0.0
  0
ARC
  5
109BC
  8
0
 10
882.0929051011407864
 20
44.7604350833323323
 30
0.0
 40
0.4444999935027472
 50
89.999999808859755
 51
162.0000007336836916
  0
ARC
  5
109BD
  8
0
 10
882.0929051025184435
 20
44.7604350771356891
 30
0.0
 40
1.2492090065993771
 50
89.9999999950755836
 51
162.0000000105762012
  0
LINE
  5
109BE
  8
0
 10
880.9048367365063541
 20
45.1464618894818486
 30
0.0
 11
880.7631801659989605
 21
44.7104877942249601
 31
0.0
  0
ARC
  5
109BF
  8
0
 10
880.8067986072716167
 20
44.6963153035453971
 30
0.0
 40
0.0458631432755911
 50
162.0000000105762012
 51
198.9342130019861088
  0
ARC
  5
109C0
  8
0
 10
882.098082572092153
 20
44.75330890146477
 30
0.0
 40
1.694847181732438
 50
90.1750291198464851
 51
161.824970879495595
  0
LINE
  5
109C1
  8
0
 10
880.4877945629497162
 20
45.2819671058265527
 30
0.0
 11
880.3461379926123982
 21
44.8459930114008003
 31
0.0
  0
ARC
  5
109C2
  8
0
 10
880.3723526530069421
 20
44.8374758507449513
 30
0.0
 40
0.0275635710073173
 50
162.0009861673420062
 51
252.9811757090776041
  0
ARC
  5
109C3
  8
0
 10
880.8464274534688911
 20
44.7210354237319265
 30
0.0
 40
0.1969611922749873
 50
180.7512817308295041
 51
203.8564031925965878
  0
LINE
  5
109C4
  8
0
 10
880.6662942382471329
 20
44.6413752954598877
 30
0.0
 11
881.2017195692797031
 21
44.4670896196350682
 31
0.0
  0
ARC
  5
109C5
  8
0
 10
881.0980086163682472
 20
44.6420795820674812
 30
0.0
 40
0.203414475163052
 50
300.6538659291271074
 51
323.0770238152206275
  0
ARC
  5
109C6
  8
0
 10
888.2546956499860471
 20
44.7592898188942883
 30
0.0
 40
0.4456453545330627
 50
0.147243807257371
 51
89.962276309977014
  0
ARC
  5
109C7
  8
0
 10
888.2542222178501561
 20
44.7585847999371609
 30
0.0
 40
0.5098936610410753
 50
0.2079130097262566
 51
89.9138309235933235
  0
LINE
  5
109C8
  8
0
 10
888.2549890640235617
 20
45.2684778843350628
 30
0.0
 11
882.0929051026237175
 21
45.2684778843350628
 31
0.0
  0
ARC
  5
109C9
  8
0
 10
882.0929051026026855
 20
44.7604350768990216
 30
0.0
 40
0.5080428074360457
 50
89.9999999976550384
 51
162.0000000082582119
  0
LINE
  5
109CA
  8
0
 10
881.6097276800112468
 20
44.9174289381970695
 30
0.0
 11
881.4680711097704489
 21
44.4814548438198969
 31
0.0
  0
ARC
  5
109CB
  8
0
 10
881.4382531306517876
 20
44.4911432925326125
 30
0.0
 40
0.0313524786447878
 50
280.4771638924855779
 51
342.0000000082537213
  0
ARC
  5
109CC
  8
0
 10
888.2543245226133877
 20
44.7583955522094499
 30
0.0
 40
1.25124870809546
 50
0.0933916688590236
 51
89.9695700625596828
  0
LINE
  5
109CD
  8
0
 10
887.6702649841251969
 20
44.0779221162350723
 30
0.0
 11
890.9198297727723457
 21
44.0779221162350581
 31
0.0
  0
LINE
  5
109CE
  8
0
 10
889.3642961439201144
 20
40.7564976148350624
 30
0.0
 11
889.4605152576623368
 21
40.7564976148350624
 31
0.0
  0
ENDSEC
  0
EOF
