  0
SECTION
  2
HEADER
  9
$ACADVER
  1
AC1009
  9
$INSBASE
 10
6761.7363967108149154
 20
354.1998615933679275
 30
0.0
  9
$EXTMIN
 10
6754.2150301769861471
 20
354.1772028400396266
 30
-0.0000000349181948
  9
$EXTMAX
 10
6769.1915668366382306
 20
360.111935919028781
 30
0.0000000814935746
  9
$LIMMIN
 10
0.0
 20
0.0
  9
$LIMMAX
 10
11.6929133858000007
 20
8.2677165353999982
  9
$ORTHOMODE
 70
     0
  9
$REGENMODE
 70
     1
  9
$FILLMODE
 70
     1
  9
$QTEXTMODE
 70
     0
  9
$MIRRTEXT
 70
     0
  9
$DRAGMODE
 70
     2
  9
$LTSCALE
 40
0.6431102362
  9
$OSMODE
 70
  4095
  9
$ATTMODE
 70
     1
  9
$TEXTSIZE
 40
0.2
  9
$TRACEWID
 40
0.05
  9
$TEXTSTYLE
  7
STANDARD
  9
$CLAYER
  8
0
  9
$CELTYPE
  6
BYLAYER
  9
$CECOLOR
 62
   256
  9
$DIMSCALE
 40
1.0
  9
$DIMASZ
 40
0.1875
  9
$DIMEXO
 40
0.0625
  9
$DIMDLI
 40
0.4443307087
  9
$DIMRND
 40
0.0
  9
$DIMDLE
 40
0.0
  9
$DIMEXE
 40
0.125
  9
$DIMTP
 40
0.01
  9
$DIMTM
 40
0.01
  9
$DIMTXT
 40
2.0
  9
$DIMCEN
 40
0.1052362205
  9
$DIMTSZ
 40
0.0
  9
$DIMTOL
 70
     1
  9
$DIMLIM
 70
     0
  9
$DIMTIH
 70
     1
  9
$DIMTOH
 70
     1
  9
$DIMSE1
 70
     0
  9
$DIMSE2
 70
     0
  9
$DIMTAD
 70
     0
  9
$DIMZIN
 70
     0
  9
$DIMBLK
  1

  9
$DIMASO
 70
     1
  9
$DIMSHO
 70
     1
  9
$DIMPOST
  1
\X
  9
$DIMAPOST
  1

  9
$DIMALT
 70
     1
  9
$DIMALTD
 70
     2
  9
$DIMALTF
 40
25.3999999999999986
  9
$DIMLFAC
 40
1.0
  9
$DIMTOFL
 70
     0
  9
$DIMTVP
 40
0.0
  9
$DIMTIX
 70
     0
  9
$DIMSOXD
 70
     0
  9
$DIMSAH
 70
     0
  9
$DIMBLK1
  1

  9
$DIMBLK2
  1

  9
$DIMSTYLE
  2
STANDARD
  9
$DIMCLRD
 70
     0
  9
$DIMCLRE
 70
     0
  9
$DIMCLRT
 70
     0
  9
$DIMTFAC
 40
1.0
  9
$DIMGAP
 40
0.09
  9
$LUNITS
 70
     2
  9
$LUPREC
 70
     4
  9
$SKETCHINC
 40
0.1
  9
$FILLETRAD
 40
0.0277
  9
$AUNITS
 70
     0
  9
$AUPREC
 70
     0
  9
$MENU
  1
.
  9
$ELEVATION
 40
0.0
  9
$PELEVATION
 40
0.0
  9
$THICKNESS
 40
0.0
  9
$LIMCHECK
 70
     0
  9
$BLIPMODE
 70
     0
  9
$CHAMFERA
 40
0.0
  9
$CHAMFERB
 40
0.0
  9
$SKPOLY
 70
     0
  9
$TDCREATE
 40
2458060.468368056230247
  9
$TDUPDATE
 40
2460307.5807986110448837
  9
$TDINDWG
 40
0.9624607639
  9
$TDUSRTIMER
 40
0.9624607639
  9
$USRTIMER
 70
     1
  9
$ANGBASE
 50
0.0
  9
$ANGDIR
 70
     0
  9
$PDMODE
 70
     0
  9
$PDSIZE
 40
0.3125
  9
$PLINEWID
 40
0.0
  9
$COORDS
 70
     1
  9
$SPLFRAME
 70
     0
  9
$SPLINETYPE
 70
     6
  9
$SPLINESEGS
 70
     8
  9
$ATTDIA
 70
     1
  9
$ATTREQ
 70
     1
  9
$HANDLING
 70
     1
  9
$HANDSEED
  5
39B31
  9
$SURFTAB1
 70
     6
  9
$SURFTAB2
 70
     6
  9
$SURFTYPE
 70
     6
  9
$SURFU
 70
     6
  9
$SURFV
 70
     6
  9
$UCSNAME
  2

  9
$UCSORG
 10
0.0
 20
0.0
 30
0.0
  9
$UCSXDIR
 10
1.0
 20
0.0
 30
0.0
  9
$UCSYDIR
 10
0.0
 20
1.0
 30
0.0
  9
$PUCSNAME
  2

  9
$PUCSORG
 10
0.0
 20
0.0
 30
0.0
  9
$PUCSXDIR
 10
1.0
 20
0.0
 30
0.0
  9
$PUCSYDIR
 10
0.0
 20
1.0
 30
0.0
  9
$USERI1
 70
     0
  9
$USERI2
 70
     0
  9
$USERI3
 70
     0
  9
$USERI4
 70
     0
  9
$USERI5
 70
     0
  9
$USERR1
 40
0.0
  9
$USERR2
 40
0.0
  9
$USERR3
 40
0.0
  9
$USERR4
 40
0.0
  9
$USERR5
 40
0.0
  9
$WORLDVIEW
 70
     1
  9
$SHADEDGE
 70
     3
  9
$SHADEDIF
 70
    70
  9
$TILEMODE
 70
     1
  9
$MAXACTVP
 70
    64
  9
$PLIMCHECK
 70
     0
  9
$PEXTMIN
 10
1.0000000000000000E+20
 20
1.0000000000000000E+20
 30
1.0000000000000000E+20
  9
$PEXTMAX
 10
-1.0000000000000000E+20
 20
-1.0000000000000000E+20
 30
-1.0000000000000000E+20
  9
$PLIMMIN
 10
0.0
 20
0.0
  9
$PLIMMAX
 10
12.0
 20
9.0
  9
$UNITMODE
 70
     0
  9
$VISRETAIN
 70
     1
  9
$PLINEGEN
 70
     0
  9
$PSLTSCALE
 70
     1
  0
ENDSEC
  0
SECTION
  2
TABLES
  0
TABLE
  2
VPORT
 70
     1
  0
VPORT
  2
*ACTIVE
 70
     0
 10
0.0
 20
0.0
 11
1.0
 21
1.0
 12
2850.3379420615001436
 22
224.5649642769951981
 13
0.0
 23
0.0
 14
1.0
 24
1.0
 15
0.0
 25
0.0
 16
0.0
 26
0.0
 36
60.4960186965801583
 17
3911.3653564453120453
 27
132.5796051025390057
 37
0.0
 40
5.9881991427639027
 41
2.8481203007518792
 42
50.0
 43
0.0
 44
0.0
 50
0.0
 51
0.0
 71
     0
 72
   100
 73
     1
 74
     1
 75
     0
 76
     0
 77
     0
 78
     0
  0
ENDTAB
  0
TABLE
  2
LTYPE
 70
     2
  0
LTYPE
  2
CONTINUOUS
 70
     0
  3
Solid line
 72
    65
 73
     0
 40
0.0
  0
LTYPE
  2
PHANTOM2
 70
     0
  3
___ _ _ ___ _ _ ___ _ _ ___ _ _
 72
    65
 73
     6
 40
1.25
 49
0.625
 49
-0.125
 49
0.125
 49
-0.125
 49
0.125
 49
-0.125
  0
ENDTAB
  0
TABLE
  2
LAYER
 70
     2
  0
LAYER
  2
0
 70
     0
 62
   255
  6
CONTINUOUS
  0
LAYER
  2
DEFPOINTS
 70
     0
 62
     7
  6
CONTINUOUS
  0
ENDTAB
  0
TABLE
  2
STYLE
 70
     1
  0
STYLE
  2
STANDARD
 70
     0
 40
0.0
 41
0.8
 50
0.0
 71
     0
 42
0.2
  3
txt
  4

  0
ENDTAB
  0
TABLE
  2
VIEW
 70
     0
  0
ENDTAB
  0
TABLE
  2
UCS
 70
     0
  0
ENDTAB
  0
TABLE
  2
APPID
 70
    11
  0
APPID
  2
ACAD
 70
     0
  0
APPID
  2
ACAD_MLEADERVER
 70
     0
  0
APPID
  2
ACAD_EXEMPT_FROM_CAD_STANDARDS
 70
     0
  0
APPID
  2
ACAD_NAV_VCDISPLAY
 70
     0
  0
APPID
  2
ACAECLAYERSTANDARD
 70
     0
  0
APPID
  2
ACCMTRANSPARENCY
 70
     0
  0
APPID
  2
ACAD_DSTYLE_DIMJAG
 70
     0
  0
APPID
  2
ACAD_DSTYLE_DIMTALN
 70
     0
  0
APPID
  2
ACDBATTR
 70
     0
  0
APPID
  2
ACADANNOTATIVE
 70
     0
  0
APPID
  2
DCO15
 70
     0
  0
ENDTAB
  0
TABLE
  2
DIMSTYLE
 70
     1
  0
DIMSTYLE
  2
STANDARD
 70
     0
  3

  4

  5

  6

  7

 40
1.0
 41
0.1875
 42
0.0625
 43
0.38
 44
0.125
 45
0.0
 46
0.0
 47
0.01
 48
0.01
140
0.15625
141
0.09
142
0.0
143
25.3999999999999986
144
1.0
145
0.0
146
1.0
147
0.09
 71
     1
 72
     0
 73
     1
 74
     1
 75
     0
 76
     0
 77
     0
 78
     4
170
     0
171
     2
172
     0
173
     0
174
     0
175
     0
176
     0
177
     0
178
     0
  0
ENDTAB
  0
ENDSEC
  0
SECTION
  2
BLOCKS
  0
BLOCK
  8
0
  2
$MODEL_SPACE
 70
     0
 10
0.0
 20
0.0
 30
0.0
  3
$MODEL_SPACE
  1

  0
ENDBLK
  5
21
  8
0
  0
BLOCK
 67
     1
  8
0
  2
$PAPER_SPACE
 70
     0
 10
0.0
 20
0.0
 30
0.0
  3
$PAPER_SPACE
  1

  0
ENDBLK
  5
1D
 67
     1
  8
0
  0
BLOCK
  8
0
  2
_FILLED
 70
     0
 10
0.0
 20
0.0
 30
0.0
  3
_FILLED
  1

  0
SOLID
  5
2853B
  8
0
  6
BYBLOCK
 62
     0
 10
0.0
 20
0.0
 30
0.0
 11
-1.0
 21
0.1666666667
 31
0.0
 12
-1.0
 22
-0.1666666667
 32
0.0
 13
-1.0
 23
-0.1666666667
 33
0.0
  0
ENDBLK
  5
2853C
  8
0
  6
BYBLOCK
 62
     0
  0
ENDSEC
  0
SECTION
  2
ENTITIES
  0
ATTDEF
  5
2842F
  8
DEFPOINTS
 10
6761.7365607206957066
 20
354.1980527340214735
 30
0.0
 40
0.001
  1
K-EX27105T-9
  3

  2
MODELNUMBER
 70
     0
1001
ACDBATTR
1070
     0
1070
     1
  0
ATTDEF
  5
28430
  8
DEFPOINTS
 10
6761.736434911039396
 20
354.1963858936422866
 30
0.0
 40
0.001
  1
OCCASION
  3

  2
TRADENAME
 70
     0
1001
ACDBATTR
1070
     0
1070
     1
  0
ATTDEF
  5
28431
  8
DEFPOINTS
 10
6761.7365607206957066
 20
354.1947194006882
 30
0.0
 40
0.001
  1
BATH FAUCET
  3

  2
PRODUCT
 70
     0
1001
ACDBATTR
1070
     0
1070
     1
  0
LINE
  5
39344
  8
0
 10
6761.7363967110868543
 20
360.1015746916717148
 30
0.0
 11
6761.736396713375143
 21
358.4994218515677744
 31
0.0
  0
LINE
  5
39345
  8
0
 10
6760.4538675442063322
 20
354.1998615933679275
 30
0.0
 11
6763.0189264435921359
 21
354.1998615933679275
 31
0.0
  0
LINE
  5
39346
  8
0
 10
6760.3661123752690401
 20
354.4099241313678021
 30
0.0
 11
6763.1066816774928157
 21
354.4099241313678021
 31
0.0
  0
LINE
  5
39348
  8
0
 10
6760.4283889477410412
 20
354.2166927791657258
 30
0.0
 11
6760.3593672574161246
 21
354.3784929316437911
 31
0.0
  0
ARC
  5
39349
  8
0
 10
6760.3856567132688724
 20
354.3888508750387132
 30
0.0
 40
0.0287413166000812
 50
132.7099669241254958
 51
179.9999848709117032
  0
ARC
  5
3934A
  8
0
 10
6759.105161756938287
 20
355.8824680899217014
 30
0.0
 40
1.938652142766103
 50
310.5756861770983051
 51
334.6776737129425214
  0
ARC
  5
3934B
  8
0
 10
6758.5536681762159787
 20
356.1434208763836864
 30
0.0
 40
2.54876813693377
 50
334.6776737129425214
 51
356.6135324205425263
  0
ARC
  5
3934C
  8
0
 10
6708.2067298145720997
 20
358.0765170849152241
 30
0.0
 40
52.9322827591946918
 50
357.7439967089821948
 51
358.3256108483898856
  0
LINE
  5
3934D
  8
0
 10
6761.1164115944320656
 20
359.6417145375717155
 30
0.0
 11
6761.1164115944320656
 21
356.5298651999485742
 31
0.0
  0
ARC
  5
3934E
  8
0
 10
6761.7369171204118175
 20
360.0589935415864034
 30
0.0
 40
0.0425843300940644
 50
90.7002106190293773
 51
105.8362417195039029
  0
ARC
  5
3934F
  8
0
 10
6762.0429271967468594
 20
359.0301571934348885
 30
0.0
 40
1.1159618502197859
 50
106.5364462757628985
 51
145.463497128949399
  0
ARC
  5
39350
  8
0
 10
6761.1602275064360583
 20
359.6385167003643915
 30
0.0
 40
0.0439324516445007
 50
146.3965524863212124
 51
175.8257563069225
  0
LINE
  5
39351
  8
0
 10
6761.3465892891499607
 20
356.3366529441514103
 30
0.0
 11
6761.3465892891499607
 21
358.1231442889787786
 31
0.0
  0
ARC
  5
39352
  8
0
 10
6760.9444311551678766
 20
354.224482380986899
 30
0.0
 40
0.0256748992536332
 50
197.7551771166423009
 51
253.5250637670800131
  0
LINE
  5
39353
  8
0
 10
6760.9199791963246753
 20
354.2166528113677941
 30
0.0
 11
6760.8772148251246108
 21
354.3786484229677853
 31
0.0
  0
ARC
  5
39354
  8
0
 10
6760.9202317535482507
 20
354.388314414443073
 30
0.0
 40
0.0440895398272428
 50
150.6388843058865064
 51
192.6641331005164091
  0
ARC
  5
39355
  8
0
 10
6759.0636788439151132
 20
355.6598383847727973
 30
0.0
 40
2.2063206763922238
 50
325.4926724190946175
 51
341.1663936019891139
  0
ARC
  5
39356
  8
0
 10
6758.0007975126945894
 20
356.0235928797761176
 30
0.0
 40
3.329723171987883
 50
341.1464535343234274
 51
355.3850289514024894
  0
ARC
  5
39357
  8
0
 10
6752.318111765212052
 20
356.4630248872393281
 30
0.0
 40
9.0293618970698812
 50
355.5069768985878227
 51
359.1980811633883945
  0
LINE
  5
39359
  8
0
 10
6763.0444031002652991
 20
354.2166882330420208
 30
0.0
 11
6763.113460858234248
 21
354.3784929316437911
 31
0.0
  0
ARC
  5
3935A
  8
0
 10
6763.0871358764688921
 20
354.3888498846606012
 30
0.0
 40
0.0287429872340735
 50
0.001989331164234
 51
47.2893359918937932
  0
ARC
  5
3935B
  8
0
 10
6764.3676322229275684
 20
355.8824680899217014
 30
0.0
 40
1.938652142766103
 50
205.322326287057507
 51
229.4243138229016949
  0
ARC
  5
3935C
  8
0
 10
6764.9191258036498766
 20
356.1434208763836864
 30
0.0
 40
2.54876813693377
 50
183.3864675794575021
 51
205.322326287057507
  0
ARC
  5
3935D
  8
0
 10
6815.2662309010311219
 20
358.0765232297250122
 30
0.0
 40
52.9324496075853119
 50
181.6743905264428918
 51
182.2560028326890915
  0
LINE
  5
3935E
  8
0
 10
6762.3563823811336988
 20
359.6417145375717155
 30
0.0
 11
6762.3563823811336988
 21
356.5298651999485742
 31
0.0
  0
ARC
  5
3935F
  8
0
 10
6761.4298677921478884
 20
359.0301581770157782
 30
0.0
 40
1.115960461393078
 50
34.5364906419311808
 51
73.4636164626771091
  0
ARC
  5
39360
  8
0
 10
6762.3125665325569571
 20
359.6385167295177894
 30
0.0
 40
0.0439323862634437
 50
4.174211793874651
 51
33.6034585235325594
  0
LINE
  5
39361
  8
0
 10
6762.1262046907158947
 20
356.3366529441514103
 30
0.0
 11
6762.1262046907158947
 21
358.1231445124847141
 31
0.0
  0
ARC
  5
39362
  8
0
 10
6762.5283628246970693
 20
354.224482380986899
 30
0.0
 40
0.0256748992536332
 50
286.4749362329200153
 51
342.2448228833545727
  0
LINE
  5
39363
  8
0
 10
6762.5528147835411801
 20
354.2166528113677941
 30
0.0
 11
6762.5955791547403351
 21
354.3786484229677853
 31
0.0
  0
ARC
  5
39364
  8
0
 10
6762.5525622263166952
 20
354.388314414443073
 30
0.0
 40
0.0440895398272428
 50
347.3358668994836194
 51
29.3611156941134688
  0
ARC
  5
39365
  8
0
 10
6764.4091151359489231
 20
355.6598383847727973
 30
0.0
 40
2.2063206763922238
 50
198.8336063980108861
 51
214.507327580905411
  0
ARC
  5
39366
  8
0
 10
6765.471996467169447
 20
356.0235928797761176
 30
0.0
 40
3.329723171987883
 50
184.6149710485973969
 51
198.8535464656764873
  0
ARC
  5
39367
  8
0
 10
6771.1546822146538034
 20
356.4630248872393281
 30
0.0
 40
9.0293618970698812
 50
180.8019188366081949
 51
184.4930231014122057
  0
ARC
  5
39368
  8
0
 10
6761.7363967130750098
 20
358.3761607395676947
 30
0.0
 40
0.1232611120001477
 50
84.8155215665575071
 51
95.184478386769257
  0
ARC
  5
39369
  8
0
 10
6761.8659522407679106
 20
356.4656121853656146
 30
0.0
 40
2.0381672054212219
 50
93.9582491430942639
 51
111.3495030806554951
  0
ARC
  5
3936A
  8
0
 10
6761.1316706590041576
 20
358.3505488234915219
 30
0.0
 40
0.0154376329859999
 50
120.0288940004266038
 51
171.2769349599502107
  0
ARC
  5
3936B
  8
0
 10
6761.2673997684787537
 20
358.3534763017601108
 30
0.0
 40
0.1512910435270494
 50
183.6260288370849025
 51
205.0594175863027999
  0
ARC
  5
3936C
  8
0
 10
6761.3777743143218686
 20
358.4255456268080025
 30
0.0
 40
0.2824103780838556
 50
208.8225998774485106
 51
230.3876613022223978
  0
ARC
  5
3936D
  8
0
 10
6761.585769608091141
 20
358.7159065992369733
 30
0.0
 40
0.6391982332826901
 50
232.6198858813770869
 51
249.1542619613387046
  0
ARC
  5
3936E
  8
0
 10
6761.3791008126981978
 20
358.1773532335453751
 30
0.0
 40
0.0623717276241238
 50
250.5275104295861013
 51
262.4808135143991876
  0
ARC
  5
3936F
  8
0
 10
6761.7668934224429904
 20
362.1402614347882718
 30
0.0
 40
4.0441737084706171
 50
264.3813190714005827
 51
269.5679341352782217
  0
ARC
  5
39370
  8
0
 10
6761.7486980792527902
 20
356.8931538229700777
 30
0.0
 40
1.5327823002638621
 50
90.4598331077717859
 51
100.6679767994415045
  0
ARC
  5
39371
  8
0
 10
6761.5633218622160712
 20
357.8450377949910717
 30
0.0
 40
0.5630654992773046
 50
100.0612939947394011
 51
117.5001493399434054
  0
ARC
  5
39372
  8
0
 10
6761.7360254235727552
 20
359.6845085678024247
 30
0.0
 40
1.563992475706266
 50
266.0460854810041269
 51
270.0136019298346923
  0
ARC
  5
39373
  8
0
 10
6761.71823979886085
 20
359.4271881120599801
 30
0.0
 40
1.306058093760299
 50
257.9553334183310085
 51
266.0460854810041269
  0
ARC
  5
39374
  8
0
 10
6761.5740661710660788
 20
358.7514951092134083
 30
0.0
 40
0.6151550115212518
 50
246.6142038439635087
 51
257.9553334183310085
  0
ARC
  5
39375
  8
0
 10
6761.4220310249056638
 20
358.3999235202260252
 30
0.0
 40
0.2321181100994516
 50
227.2389919616730083
 51
246.6142038439635087
  0
ARC
  5
39376
  8
0
 10
6761.3072539286631581
 20
358.2758062054678021
 30
0.0
 40
0.0630651904414504
 50
182.9219448277993934
 51
227.2389919616348095
  0
ARC
  5
39377
  8
0
 10
6761.2945607733418001
 20
358.2723275470560225
 30
0.0
 40
0.0502907372139686
 50
154.5015220050009077
 51
179.6993519477090047
  0
ARC
  5
39378
  8
0
 10
6761.3314724053198006
 20
358.2526795590347888
 30
0.0
 40
0.0920837305374435
 50
127.5724367193766966
 51
153.3539446462548028
  0
ARC
  5
39379
  8
0
 10
6761.4360182256741609
 20
358.1167888620473718
 30
0.0
 40
0.263536668924801
 50
120.2322487511477931
 51
127.5724367193766966
  0
ARC
  5
3937A
  8
0
 10
6761.7349388258144245
 20
357.4196515500520945
 30
0.0
 40
0.9571955611570547
 50
89.9127338058681431
 51
100.1522263912731034
  0
ARC
  5
3937B
  8
0
 10
6761.6435460650627647
 20
357.9300325214508121
 30
0.0
 40
0.4386964071718979
 50
100.1522263912731034
 51
115.1060287881645934
  0
ARC
  5
3937C
  8
0
 10
6761.5009637868151913
 20
358.2343297366671209
 30
0.0
 40
0.1026510214590273
 50
115.1060287881645934
 51
138.5302087400270921
  0
ARC
  5
3937D
  8
0
 10
6761.4560807790476247
 20
358.2739967001555783
 30
0.0
 40
0.0427515024411398
 50
138.5302087400270921
 51
173.2954592265554936
  0
ARC
  5
3937E
  8
0
 10
6761.4453963891810417
 20
358.2771140917735124
 30
0.0
 40
0.0318299557911389
 50
176.6250584763542975
 51
198.5439956476124905
  0
ARC
  5
3937F
  8
0
 10
6761.6201812063782199
 20
358.3347779454089164
 30
0.0
 40
0.2158808407566413
 50
198.3005218101201876
 51
220.4190690472651966
  0
ARC
  5
39380
  8
0
 10
6761.5518400191185719
 20
358.2719947340891053
 30
0.0
 40
0.1231935728640562
 50
218.7967796040639996
 51
250.1167984933950095
  0
ARC
  5
39381
  8
0
 10
6761.6698566158593167
 20
358.5662067249805887
 30
0.0
 40
0.4401403169964714
 50
248.6952922087872082
 51
261.6588532483273752
  0
ARC
  5
39382
  8
0
 10
6761.7608770173392259
 20
359.1575734192625191
 30
0.0
 40
1.038464270302109
 50
261.4232664942775273
 51
266.5837639750685071
  0
ARC
  5
39383
  8
0
 10
6761.7441576423179868
 20
357.3388776703047256
 30
0.0
 40
0.9559556457486406
 50
90.465161101652896
 51
98.7038628636812945
  0
ARC
  5
39384
  8
0
 10
6761.6735098074141206
 20
357.8346663383431974
 30
0.0
 40
0.4552152899759863
 50
99.3573956975319561
 51
111.0784314036702938
  0
ARC
  5
39385
  8
0
 10
6761.5573780473487204
 20
358.1359664870270763
 30
0.0
 40
0.1323091653936671
 50
111.0784314036702938
 51
135.0541927030699867
  0
ARC
  5
39386
  8
0
 10
6761.4850085878160826
 20
358.208199175864479
 30
0.0
 40
0.0300599599698661
 50
135.0541927030699867
 51
175.4601499348777907
  0
ARC
  5
39387
  8
0
 10
6761.4898415088036927
 20
358.2078154343594747
 30
0.0
 40
0.0349080918610866
 50
175.4601499348777907
 51
210.2122475032290083
  0
ARC
  5
39388
  8
0
 10
6761.3207401768549971
 20
358.2771042902256795
 30
0.0
 40
0.0670268337171198
 50
137.9370864790132032
 51
172.4577675344704915
  0
ARC
  5
39389
  8
0
 10
6761.3059264968742355
 20
358.282435165205527
 30
0.0
 40
0.0517495217405532
 50
176.1586992802565135
 51
211.9539908715630077
  0
ARC
  5
3938A
  8
0
 10
6761.685445297735896
 20
359.2051525534380971
 30
0.0
 40
1.0693053349858781
 50
256.5959289070825093
 51
262.1427348311441961
  0
ARC
  5
3938B
  8
0
 10
6761.5786614639991967
 20
358.7570621677925828
 30
0.0
 40
0.6086668858139869
 50
246.5732527482317948
 51
256.5959289070825093
  0
ARC
  5
3938C
  8
0
 10
6761.4290201694948337
 20
358.4117039597081771
 30
0.0
 40
0.2322830273500084
 50
231.7476480581293004
 51
246.5732527482317948
  0
ARC
  5
3938D
  8
0
 10
6761.3485777920777764
 20
358.3096719053679067
 30
0.0
 40
0.10235413834803
 50
212.2545703581837984
 51
231.7476480581293004
  0
ARC
  5
3938E
  8
0
 10
6761.4248191684546327
 20
358.2403103159514899
 30
0.0
 40
0.1474698421685441
 50
123.2908439914536984
 51
132.1158592988001885
  0
ARC
  5
3938F
  8
0
 10
6761.3754538098128251
 20
358.2929113383681852
 30
0.0
 40
0.0753568944012364
 50
131.0948293556228066
 51
155.424999824483109
  0
ARC
  5
39390
  8
0
 10
6761.5251109766204536
 20
358.5395966308742004
 30
0.0
 40
0.3411681343602227
 50
237.6634808169825988
 51
256.5179644722463195
  0
ARC
  5
39391
  8
0
 10
6761.4001983844191273
 20
358.3422830042807163
 30
0.0
 40
0.1076390720789576
 50
213.5573630989019875
 51
237.6634808169825988
  0
ARC
  5
39392
  8
0
 10
6761.3466952650296662
 20
358.3067929781340126
 30
0.0
 40
0.0434352891665388
 50
156.3009061645634858
 51
213.5573630989019875
  0
LINE
  5
39393
  8
0
 10
6761.3033258469749853
 20
358.3444823149678768
 30
0.0
 11
6761.3033258469749853
 21
358.3091841959379167
 31
0.0
  0
ARC
  5
39394
  8
0
 10
6761.7661856541690213
 20
356.8863147491480277
 30
0.0
 40
1.53519348875918
 50
91.1118389015360464
 51
95.6332125878254686
  0
ARC
  5
39395
  8
0
 10
6761.6979642379310462
 20
357.6304954275619252
 30
0.0
 40
0.7879269813714679
 50
96.008192988883593
 51
107.5502272921367961
  0
ARC
  5
39396
  8
0
 10
6761.5256702588048938
 20
358.1752764118289178
 30
0.0
 40
0.2165501039414734
 50
107.5502272921367961
 51
129.9949761570076987
  0
ARC
  5
39397
  8
0
 10
6761.4178158853856075
 20
358.3038351396602934
 30
0.0
 40
0.0487409493423899
 50
129.9949761570055955
 51
164.2971125450966099
  0
ARC
  5
39398
  8
0
 10
6761.406401894899318
 20
358.3070440883635115
 30
0.0
 40
0.0368844519418537
 50
164.2971125450966099
 51
196.5786106353249068
  0
ARC
  5
39399
  8
0
 10
6761.8171000246857147
 20
358.462676013173791
 30
0.0
 40
0.4759914122567707
 50
200.4306822787970077
 51
204.7882511305678861
  0
ARC
  5
3939A
  8
0
 10
6761.4626611442708963
 20
358.3055414106278818
 30
0.0
 40
0.0885281156374307
 50
208.6403227740287889
 51
238.5550264779691929
  0
ARC
  5
3939B
  8
0
 10
6761.5706067092305602
 20
358.4820728967795276
 30
0.0
 40
0.2954474491883392
 50
238.5550264779691929
 51
243.5152799193143949
  0
ARC
  5
3939C
  8
0
 10
6761.733557577485044
 20
357.3397237178900241
 30
0.0
 40
1.046858951725862
 50
89.8446106992362843
 51
99.2108063525211179
  0
ARC
  5
3939D
  8
0
 10
6761.6576033644760173
 20
357.8081194236410738
 30
0.0
 40
0.5723449059486942
 50
99.2108063525211179
 51
111.4691893563550025
  0
ARC
  5
3939E
  8
0
 10
6761.5072464222857889
 20
358.1904255180568271
 30
0.0
 40
0.1615345362011096
 50
111.4691893563550025
 51
133.265808244229504
  0
ARC
  5
3939F
  8
0
 10
6761.4292796565123354
 20
358.2732608241875027
 30
0.0
 40
0.0477781978858429
 50
133.265808244229504
 51
162.3490804610759994
  0
ARC
  5
393A0
  8
0
 10
6761.4173563499089141
 20
358.2770547858243049
 30
0.0
 40
0.0352658285960827
 50
162.3490804610759994
 51
189.9107396852542138
  0
ARC
  5
393A1
  8
0
 10
6761.4249414569330838
 20
358.2783800640488039
 30
0.0
 40
0.0429658422922803
 50
189.9107396852542138
 51
198.3157546424561986
  0
ARC
  5
393A2
  8
0
 10
6761.7362163506268189
 20
357.4678065937437168
 30
0.0
 40
0.8196949249848398
 50
90.2625863311323826
 51
94.1223844069645992
  0
ARC
  5
393A3
  8
0
 10
6761.7242179242675775
 20
357.6098663056827718
 30
0.0
 40
0.6771122082957448
 50
95.2654356766771002
 51
99.6354014540609967
  0
ARC
  5
393A4
  8
0
 10
6761.695017749651015
 20
357.7862967448115228
 30
0.0
 40
0.4982841868240625
 50
100.5172480306664937
 51
105.7569562437920041
  0
ARC
  5
393A5
  8
0
 10
6761.6189535987596173
 20
358.0425931822429106
 30
0.0
 40
0.2308154262384159
 50
107.7543563201465986
 51
116.7494824733127956
  0
ARC
  5
393A6
  8
0
 10
6761.5594515768998463
 20
358.157678951285277
 30
0.0
 40
0.101203180087873
 50
118.5211347626981961
 51
133.7536249957121015
  0
ARC
  5
393A7
  8
0
 10
6761.5089577501366875
 20
358.2067354838271172
 30
0.0
 40
0.0304915539905256
 50
140.6241682430193123
 51
175.6818243409099125
  0
ARC
  5
393A8
  8
0
 10
6761.558798292308893
 20
358.2071224451514126
 30
0.0
 40
0.0232289464101794
 50
141.7260506392603077
 51
175.2862476648066092
  0
ARC
  5
393A9
  8
0
 10
6761.592950830726295
 20
358.1764099804821058
 30
0.0
 40
0.0693852737098829
 50
117.8147665279421972
 51
134.1306181972938987
  0
ARC
  5
393AA
  8
0
 10
6761.6397616695312536
 20
358.0915637693066742
 30
0.0
 40
0.1663188923931135
 50
107.7850725966762013
 51
116.9006076854278007
  0
ARC
  5
393AB
  8
0
 10
6761.6981711775815711
 20
357.9050052144170877
 30
0.0
 40
0.3619122324649907
 50
100.4364312382008961
 51
105.7233535220156
  0
ARC
  5
393AC
  8
0
 10
6761.7238417192511406
 20
357.7652794276812074
 30
0.0
 40
0.503986270190795
 50
95.3485075264692057
 51
99.6415910450646578
  0
ARC
  5
393AD
  8
0
 10
6761.7359866056158353
 20
357.6383111595426953
 30
0.0
 40
0.631548223943792
 50
90.3199717025672868
 51
93.9870158752430029
  0
ARC
  5
393AE
  8
0
 10
6761.7357242897887772
 20
357.6809456599535793
 30
0.0
 40
0.5870876870780064
 50
90.3186029758032163
 51
99.148080907851039
  0
ARC
  5
393AF
  8
0
 10
6761.677351371399709
 20
358.0072495825762076
 30
0.0
 40
0.2555393074217889
 50
99.4111505380366935
 51
114.9329251108362939
  0
ARC
  5
393B0
  8
0
 10
6761.5872230423183282
 20
358.1938133502150095
 30
0.0
 40
0.048137246490557
 50
116.5722720016394049
 51
161.5704925613786997
  0
ARC
  5
393B1
  8
0
 10
6761.623420331451598
 20
358.2042125345939212
 30
0.0
 40
0.0252271533768075
 50
109.1548994143169011
 51
168.9878651084077035
  0
ARC
  5
393B2
  8
0
 10
6761.6860142280111177
 20
358.0933772444815872
 30
0.0
 40
0.1522730101233669
 50
98.2676878558955025
 51
116.0763880414916969
  0
ARC
  5
393B3
  8
0
 10
6761.7340326104904307
 20
357.8573235304339732
 30
0.0
 40
0.3930580597038642
 50
90.2292818440289466
 51
99.237402018759866
  0
ARC
  5
393B4
  8
0
 10
6761.7362372976249389
 20
357.8468675779831187
 30
0.0
 40
0.401703376716723
 50
89.9772622455658109
 51
98.928708548769805
  0
ARC
  5
393B5
  8
0
 10
6761.7034023199457806
 20
358.0444265718493853
 30
0.0
 40
0.2013645724877212
 50
100.3943559603709019
 51
110.9645612646080934
  0
ARC
  5
393B6
  8
0
 10
6761.6555698361780742
 20
358.1692651910319114
 30
0.0
 40
0.0676760264457006
 50
110.9645612646080934
 51
133.4405623051152077
  0
ARC
  5
393B7
  8
0
 10
6761.6189694773220253
 20
358.2079141404379925
 30
0.0
 40
0.0144470159483019
 50
133.4405623051129055
 51
175.5648144560985884
  0
ARC
  5
393B8
  8
0
 10
6761.682023852268685
 20
358.2042064200538221
 30
0.0
 40
0.0151984013477483
 50
110.5544038433918956
 51
161.4904451056148105
  0
ARC
  5
393B9
  8
0
 10
6761.7135357479501181
 20
358.1429880357612774
 30
0.0
 40
0.0839664439779386
 50
100.2498799889196022
 51
116.0300200986329031
  0
ARC
  5
393BA
  8
0
 10
6761.7352985999814337
 20
358.0318789263388908
 30
0.0
 40
0.1972294163316739
 50
89.680992967792136
 51
98.7152190441678954
  0
ARC
  5
393BB
  8
0
 10
6761.7363201339157968
 20
358.131316631593279
 30
0.0
 40
0.0850143639649635
 50
89.9483891543235075
 51
96.8583940953136846
  0
ARC
  5
393BC
  8
0
 10
6761.7354808886138926
 20
358.0456873213921085
 30
0.0
 40
0.1815953701396675
 50
89.7110438825271217
 51
98.5853815169053149
  0
ARC
  5
393BD
  8
0
 10
6761.7182648547886856
 20
358.1387885009041838
 30
0.0
 40
0.0868655194956938
 50
101.0923757039115003
 51
113.4234841090494967
  0
ARC
  5
393BE
  8
0
 10
6761.6939302096307074
 20
358.1949593706656856
 30
0.0
 40
0.0256499858073208
 50
113.4234841090494967
 51
135.8183048019866987
  0
ARC
  5
393BF
  8
0
 10
6761.6810132089849503
 20
358.207512578183298
 30
0.0
 40
0.0076379918953665
 50
135.8183048019843966
 51
168.5306323734575926
  0
ARC
  5
393C0
  8
0
 10
6761.7260909027872913
 20
358.1846448140436792
 30
0.0
 40
0.0306128655582223
 50
102.7226623347638963
 51
115.0565817610620059
  0
ARC
  5
393C1
  8
0
 10
6761.7174491398709506
 20
358.2031294538987254
 30
0.0
 40
0.0102079157452014
 50
115.0565817610620059
 51
144.6781873706314911
  0
LINE
  5
393C2
  8
0
 10
6761.6772908426746653
 20
358.285380782767902
 30
0.0
 11
6761.692074799774673
 21
358.2683309310373829
 31
0.0
  0
LINE
  5
393C3
  8
0
 10
6761.7324597051747332
 20
358.2874929103679165
 30
0.0
 11
6761.7324597051747332
 21
358.2698495353678254
 31
0.0
  0
LINE
  5
393C4
  8
0
 10
6761.7324597051747332
 20
358.2680242703677891
 30
0.0
 11
6761.7324597051747332
 21
358.2503784429678717
 31
0.0
  0
LINE
  5
393C5
  8
0
 10
6761.642385202974765
 20
358.2605660246679236
 30
0.0
 11
6761.6709367513749385
 21
358.2452842898679251
 31
0.0
  0
LINE
  5
393C6
  8
0
 10
6761.6620794123737141
 20
358.284121263367922
 30
0.0
 11
6761.6768633694746313
 21
358.2670714116679278
 31
0.0
  0
LINE
  5
393C7
  8
0
 10
6761.6108842816738616
 20
358.2774263614679171
 30
0.0
 11
6761.639431862075071
 21
358.262146750567922
 31
0.0
  0
LINE
  5
393C8
  8
0
 10
6761.6040651839748534
 20
358.2762097591677843
 30
0.0
 11
6761.6326127643760628
 21
358.2609301481678017
 31
0.0
  0
LINE
  5
393C9
  8
0
 10
6761.6355661052748474
 20
358.2593494222678032
 30
0.0
 11
6761.664117653642279
 21
358.2440676875855843
 31
0.0
  0
LINE
  5
393CA
  8
0
 10
6761.5597050417745777
 20
358.2658565449677894
 30
0.0
 11
6761.6000955637746301
 21
358.2533751872678067
 31
0.0
  0
LINE
  5
393CB
  8
0
 10
6761.5889600238733692
 20
358.2499341161686743
 30
0.0
 11
6761.5485695018751358
 21
358.2624154738679181
 31
0.0
  0
LINE
  5
393CC
  8
0
 10
6761.5150657969752501
 20
358.2487074360677752
 30
0.0
 11
6761.5645116566756769
 21
358.2398857485678718
 31
0.0
  0
LINE
  5
393CD
  8
0
 10
6761.5605746487754004
 20
358.2377785314678249
 30
0.0
 11
6761.511128789175018
 21
358.2466002189677852
 31
0.0
  0
LINE
  5
393CE
  8
0
 10
6761.4894636314738818
 20
358.2307800535679121
 30
0.0
 11
6761.5446381105748515
 21
358.2262115595677869
 31
0.0
  0
LINE
  5
393CF
  8
0
 10
6761.5405622201469669
 20
358.2215109691701969
 30
0.0
 11
6761.4853877409750567
 21
358.2260794630677765
 31
0.0
  0
LINE
  5
393D0
  8
0
 10
6761.4785527525746147
 20
358.2090313470678211
 30
0.0
 11
6761.5356479133752146
 21
358.2090313470678211
 31
0.0
  0
LINE
  5
393D1
  8
0
 10
6761.541554595098205
 20
358.2090313470678211
 30
0.0
 11
6761.5986576919749496
 21
358.2090313470678211
 31
0.0
  0
LINE
  5
393D2
  8
0
 10
6761.5656899852747301
 20
358.236865898967892
 30
0.0
 11
6761.6151427177755977
 21
358.2280429852679049
 31
0.0
  0
LINE
  5
393D3
  8
0
 10
6761.5696269931750066
 20
358.2389731160678821
 30
0.0
 11
6761.6190797256749647
 21
358.2301502023677813
 31
0.0
  0
LINE
  5
393D4
  8
0
 10
6761.6045657236763873
 20
358.2090313470678211
 30
0.0
 11
6761.6676116531752996
 21
358.2090313470797014
 31
0.0
  0
LINE
  5
393D5
  8
0
 10
6761.673527738975281
 20
358.2090313470678211
 30
0.0
 11
6761.7091203223753837
 21
358.209031347067878
 31
0.0
  0
LINE
  5
393D6
  8
0
 10
6761.7015526771747318
 20
358.2240312225678736
 30
0.0
 11
6761.7193489688761474
 21
358.2145060575679167
 31
0.0
  0
LINE
  5
393D7
  8
0
 10
6761.7083717748737399
 20
358.2252478248677789
 30
0.0
 11
6761.7261680665751555
 21
358.215722659867879
 31
0.0
  0
LINE
  5
393D8
  8
0
 10
6761.7054137319737492
 20
358.2268310674677991
 30
0.0
 11
6761.6738907672752248
 21
358.2437032026679162
 31
0.0
  0
LINE
  5
393D9
  8
0
 10
6761.6670716695753072
 20
358.2424866003678972
 30
0.0
 11
6761.6985946342747411
 21
358.2256144651677801
 31
0.0
  0
ARC
  5
393DA
  8
0
 10
6761.7362163506268189
 20
358.9478228956920134
 30
0.0
 40
0.8196949249848398
 50
265.8776155930353866
 51
269.737413668867589
  0
ARC
  5
393DB
  8
0
 10
6761.7242179242675775
 20
358.8057631837529016
 30
0.0
 40
0.6771122082957448
 50
260.3645985459389749
 51
264.7345643233228998
  0
ARC
  5
393DC
  8
0
 10
6761.695017749651015
 20
358.6293327446242074
 30
0.0
 40
0.4982841868240625
 50
254.2430437562080101
 51
259.4827519693334921
  0
ARC
  5
393DD
  8
0
 10
6761.6189535987596173
 20
358.3730363071928195
 30
0.0
 40
0.2308154262384159
 50
243.2505175266871049
 51
252.2456436798534014
  0
ARC
  5
393DE
  8
0
 10
6761.5594515768998463
 20
358.2579505381503964
 30
0.0
 40
0.101203180087873
 50
226.2463750042878985
 51
241.4788652373017044
  0
ARC
  5
393DF
  8
0
 10
6761.5089577501366875
 20
358.208894005608613
 30
0.0
 40
0.0304915539905256
 50
184.3181756590900875
 51
219.3758317569806877
  0
ARC
  5
393E0
  8
0
 10
6761.558798292308893
 20
358.2085070442843175
 30
0.0
 40
0.0232289464101794
 50
184.7137523351902075
 51
218.2739493607396071
  0
ARC
  5
393E1
  8
0
 10
6761.592950830726295
 20
358.2392195089536244
 30
0.0
 40
0.0693852737098829
 50
225.8693818027061013
 51
242.1852334720576891
  0
ARC
  5
393E2
  8
0
 10
6761.6397616695312536
 20
358.3240657201289991
 30
0.0
 40
0.1663188923931135
 50
243.0993923145720998
 51
252.2149274033237987
  0
ARC
  5
393E3
  8
0
 10
6761.6981711775815711
 20
358.5106242750185856
 30
0.0
 40
0.3619122324649907
 50
254.2766464779842863
 51
259.5635687617477743
  0
ARC
  5
393E4
  8
0
 10
6761.7238417192511406
 20
358.6503500617545228
 30
0.0
 40
0.503986270190795
 50
260.358408954935328
 51
264.6514924735308227
  0
ARC
  5
393E5
  8
0
 10
6761.7359866056158353
 20
358.777318329892978
 30
0.0
 40
0.631548223943792
 50
266.0129841247569971
 51
269.6800282974327274
  0
ARC
  5
393E6
  8
0
 10
6761.7357242897887772
 20
358.7346838294820941
 30
0.0
 40
0.5870876870780064
 50
260.8519190921488757
 51
269.6813970241968264
  0
ARC
  5
393E7
  8
0
 10
6761.677351371399709
 20
358.4083799068595226
 30
0.0
 40
0.2555393074217889
 50
245.0670748891637061
 51
260.5888494619633207
  0
ARC
  5
393E8
  8
0
 10
6761.5872230423183282
 20
358.2218161392207207
 30
0.0
 40
0.048137246490557
 50
198.4295074386211866
 51
243.4277279983606093
  0
ARC
  5
393E9
  8
0
 10
6761.623420331451598
 20
358.211416954841809
 30
0.0
 40
0.0252271533768075
 50
191.0121348915922965
 51
250.8451005856830989
  0
ARC
  5
393EA
  8
0
 10
6761.6860142280111177
 20
358.3222522449540861
 30
0.0
 40
0.1522730101233669
 50
243.9236119585081894
 51
261.7323121441045259
  0
ARC
  5
393EB
  8
0
 10
6761.7340326104904307
 20
358.5583059590017001
 30
0.0
 40
0.3930580597038642
 50
260.7625979812401056
 51
269.7707181559711103
  0
ARC
  5
393EC
  8
0
 10
6761.7362372976249389
 20
358.5687619114527251
 30
0.0
 40
0.401703376716723
 50
261.071291451230195
 51
270.0227377544342175
  0
ARC
  5
393ED
  8
0
 10
6761.7034023199457806
 20
358.3712029175864018
 30
0.0
 40
0.2013645724877212
 50
249.0354387353918924
 51
259.6056440396289986
  0
ARC
  5
393EE
  8
0
 10
6761.6555698361780742
 20
358.2463642984038188
 30
0.0
 40
0.0676760264457006
 50
226.5594376948847923
 51
249.0354387353918924
  0
ARC
  5
393EF
  8
0
 10
6761.6189694773220253
 20
358.2077153489976808
 30
0.0
 40
0.0144470159483019
 50
184.4351855439014116
 51
226.5594376948870945
  0
ARC
  5
393F0
  8
0
 10
6761.682023852268685
 20
358.2114230693819081
 30
0.0
 40
0.0151984013477483
 50
198.5095548943851895
 51
249.4455961566081044
  0
ARC
  5
393F1
  8
0
 10
6761.7135357479501181
 20
358.2726414536745096
 30
0.0
 40
0.0839664439779386
 50
243.9699799013669974
 51
259.750120011080412
  0
ARC
  5
393F2
  8
0
 10
6761.7352985999814337
 20
358.3837505630968963
 30
0.0
 40
0.1972294163316739
 50
261.2847809558321046
 51
270.3190070322078782
  0
ARC
  5
393F3
  8
0
 10
6761.7363201339157968
 20
358.2843128578422807
 30
0.0
 40
0.0850143639649635
 50
263.141605904686287
 51
270.051610845676521
  0
ARC
  5
393F4
  8
0
 10
6761.7354808886138926
 20
358.3699421680436217
 30
0.0
 40
0.1815953701396675
 50
261.4146184830947277
 51
270.2889561174728783
  0
ARC
  5
393F5
  8
0
 10
6761.7182648547886856
 20
358.2768409885314895
 30
0.0
 40
0.0868655194956938
 50
246.5765158909503896
 51
258.9076242960884997
  0
ARC
  5
393F6
  8
0
 10
6761.6939302096307074
 20
358.2206701187699878
 30
0.0
 40
0.0256499858073208
 50
224.1816951980133013
 51
246.5765158909503896
  0
ARC
  5
393F7
  8
0
 10
6761.6810132089849503
 20
358.2081169112523185
 30
0.0
 40
0.0076379918953665
 50
191.4693676265424074
 51
224.1816951980156034
  0
ARC
  5
393F8
  8
0
 10
6761.7260909027872913
 20
358.2309846753918805
 30
0.0
 40
0.0306128655582223
 50
244.9434182389379941
 51
257.2773376652360753
  0
ARC
  5
393F9
  8
0
 10
6761.7174491398709506
 20
358.2125000355370048
 30
0.0
 40
0.0102079157452014
 50
215.3218126293685089
 51
244.9434182389379941
  0
LINE
  5
393FA
  8
0
 10
6761.6772908426746653
 20
358.1302487066678282
 30
0.0
 11
6761.692074799774673
 21
358.1472985583981767
 31
0.0
  0
LINE
  5
393FB
  8
0
 10
6761.7324597051747332
 20
358.1281365790679274
 30
0.0
 11
6761.7324597051747332
 21
358.1457799540677911
 31
0.0
  0
LINE
  5
393FC
  8
0
 10
6761.7324597051747332
 20
358.1476052190678274
 30
0.0
 11
6761.7324597051747332
 21
358.1652510464679153
 31
0.0
  0
LINE
  5
393FD
  8
0
 10
6761.642385202974765
 20
358.1550634647679203
 30
0.0
 11
6761.6709367513749385
 21
358.1703451995679188
 31
0.0
  0
LINE
  5
393FE
  8
0
 10
6761.6620794123737141
 20
358.1315082260679219
 30
0.0
 11
6761.6768633694746313
 21
358.1485580777679161
 31
0.0
  0
LINE
  5
393FF
  8
0
 10
6761.6108842816738616
 20
358.1382031279679268
 30
0.0
 11
6761.639431862075071
 21
358.1534827388679219
 31
0.0
  0
LINE
  5
39400
  8
0
 10
6761.6040651839748534
 20
358.139419730267889
 30
0.0
 11
6761.6326127643760628
 21
358.1546993412678717
 31
0.0
  0
LINE
  5
39401
  8
0
 10
6761.6355661052748474
 20
358.156280067167927
 30
0.0
 11
6761.664117653642279
 21
358.1715618018500891
 31
0.0
  0
LINE
  5
39402
  8
0
 10
6761.5597050417745777
 20
358.1497729444678271
 30
0.0
 11
6761.6000955637746301
 21
358.1622543021679235
 31
0.0
  0
LINE
  5
39403
  8
0
 10
6761.5889600238733692
 20
358.1656953732671127
 30
0.0
 11
6761.5485695018751358
 21
358.1532140155679258
 31
0.0
  0
LINE
  5
39404
  8
0
 10
6761.5150657969752501
 20
358.1669220533678981
 30
0.0
 11
6761.5645116566756769
 21
358.1757437408679152
 31
0.0
  0
LINE
  5
39405
  8
0
 10
6761.5605746487754004
 20
358.1778509579677916
 30
0.0
 11
6761.511128789175018
 21
358.1690292704677745
 31
0.0
  0
LINE
  5
39406
  8
0
 10
6761.4894636314738818
 20
358.1848494358678181
 30
0.0
 11
6761.5446381105748515
 21
358.1894179298677727
 31
0.0
  0
LINE
  5
39407
  8
0
 10
6761.5405622201469669
 20
358.1941185202655902
 30
0.0
 11
6761.4853877409750567
 21
358.1895500263677832
 31
0.0
  0
LINE
  5
39408
  8
0
 10
6761.4785527525746147
 20
358.2065981423677954
 30
0.0
 11
6761.5356479133752146
 21
358.2065981423677954
 31
0.0
  0
LINE
  5
39409
  8
0
 10
6761.541554595098205
 20
358.2065981423677954
 30
0.0
 11
6761.5986576919749496
 21
358.2065981423677954
 31
0.0
  0
LINE
  5
3940A
  8
0
 10
6761.5656899852747301
 20
358.1787635904677813
 30
0.0
 11
6761.6151427177755977
 21
358.1875865041678253
 31
0.0
  0
LINE
  5
3940B
  8
0
 10
6761.5696269931750066
 20
358.1766563733677913
 30
0.0
 11
6761.6190797256749647
 21
358.1854792870677784
 31
0.0
  0
LINE
  5
3940C
  8
0
 10
6761.6045657236763873
 20
358.2065981423677954
 30
0.0
 11
6761.6676116531752996
 21
358.206598142355972
 31
0.0
  0
LINE
  5
3940D
  8
0
 10
6761.673527738975281
 20
358.2065981423677954
 30
0.0
 11
6761.7091203223753837
 21
358.2065981423677954
 31
0.0
  0
LINE
  5
3940E
  8
0
 10
6761.7015526771747318
 20
358.1915982668679135
 30
0.0
 11
6761.7193489688761474
 21
358.2011234318679271
 31
0.0
  0
LINE
  5
3940F
  8
0
 10
6761.7083717748737399
 20
358.1903816645677807
 30
0.0
 11
6761.7261680665751555
 21
358.1999068295679081
 31
0.0
  0
LINE
  5
39410
  8
0
 10
6761.7054137319737492
 20
358.1887984219678174
 30
0.0
 11
6761.6738907672752248
 21
358.1719262867679276
 31
0.0
  0
LINE
  5
39411
  8
0
 10
6761.6670716695753072
 20
358.1731428890677762
 30
0.0
 11
6761.6985946342747411
 21
358.1900150242677796
 31
0.0
  0
ARC
  5
39412
  8
0
 10
6761.7365770753240213
 20
357.4678065937437168
 30
0.0
 40
0.8196949249848398
 50
85.8776155930354008
 51
89.7374136688676032
  0
ARC
  5
39413
  8
0
 10
6761.7485755016832627
 20
357.6098663056827718
 30
0.0
 40
0.6771122082957448
 50
80.3645985459390033
 51
84.7345643233229282
  0
ARC
  5
39414
  8
0
 10
6761.7777756762989156
 20
357.7862967448115228
 30
0.0
 40
0.4982841868240625
 50
74.2430437562079533
 51
79.482751969333421
  0
ARC
  5
39415
  8
0
 10
6761.8538398271894039
 20
358.0425931822429106
 30
0.0
 40
0.2308154262384159
 50
63.2505175266871333
 51
72.245643679853444
  0
ARC
  5
39416
  8
0
 10
6761.9133418490491749
 20
358.157678951285277
 30
0.0
 40
0.101203180087873
 50
46.2463750042878772
 51
61.4788652373017825
  0
ARC
  5
39417
  8
0
 10
6761.9638356758132431
 20
358.2067354838271172
 30
0.0
 40
0.0304915539905256
 50
4.3181756590900866
 51
39.3758317569807232
  0
ARC
  5
39418
  8
0
 10
6761.9139951336410377
 20
358.2071224451514126
 30
0.0
 40
0.0232289464101794
 50
4.7137523351901711
 51
38.2739493607396781
  0
ARC
  5
39419
  8
0
 10
6761.8798425952254547
 20
358.1764099804821058
 30
0.0
 40
0.0693852737098829
 50
45.8693818027061013
 51
62.1852334720577389
  0
ARC
  5
3941A
  8
0
 10
6761.8330317564186771
 20
358.0915637693066742
 30
0.0
 40
0.1663188923931135
 50
63.0993923145721283
 51
72.2149274033237702
  0
ARC
  5
3941B
  8
0
 10
6761.7746222483674501
 20
357.9050052144170877
 30
0.0
 40
0.3619122324649907
 50
74.2766464779843716
 51
79.5635687617990328
  0
ARC
  5
3941C
  8
0
 10
6761.7489517067006091
 20
357.7652794276812074
 30
0.0
 40
0.503986270190795
 50
80.358408954935328
 51
84.6514924735307943
  0
ARC
  5
3941D
  8
0
 10
6761.7368068203340954
 20
357.6383111595426953
 30
0.0
 40
0.631548223943792
 50
86.0129841247569971
 51
89.6800282974327274
  0
ARC
  5
3941E
  8
0
 10
6761.7370691361629724
 20
357.6809456599535793
 30
0.0
 40
0.5870876870780064
 50
80.8519190921489752
 51
89.6813970241968264
  0
ARC
  5
3941F
  8
0
 10
6761.7954420545520406
 20
358.0072495825762076
 30
0.0
 40
0.2555393074217889
 50
65.0670748891637203
 51
80.5888494619633065
  0
ARC
  5
39420
  8
0
 10
6761.8855703836334214
 20
358.1938133502150095
 30
0.0
 40
0.048137246490557
 50
18.4295074386212789
 51
63.4277279983606093
  0
ARC
  5
39421
  8
0
 10
6761.8493730944992421
 20
358.2042125345939212
 30
0.0
 40
0.0252271533768075
 50
11.0121348915922592
 51
70.8451005856831131
  0
ARC
  5
39422
  8
0
 10
6761.786779197938813
 20
358.0933772444815872
 30
0.0
 40
0.1522730101233669
 50
63.9236119585082534
 51
81.7323121441044833
  0
ARC
  5
39423
  8
0
 10
6761.738760815457681
 20
357.8573235304339732
 30
0.0
 40
0.3930580597038642
 50
80.762597981240134
 51
89.7707181559710392
  0
ARC
  5
39424
  8
0
 10
6761.7365561283259012
 20
357.8468675779831187
 30
0.0
 40
0.401703376716723
 50
81.0712914512302234
 51
90.0227377544341749
  0
ARC
  5
39425
  8
0
 10
6761.7693911060032406
 20
358.0444265718493853
 30
0.0
 40
0.2013645724877212
 50
69.0354387353919066
 51
79.6056440396290839
  0
ARC
  5
39426
  8
0
 10
6761.8172235897718565
 20
358.1692651910319114
 30
0.0
 40
0.0676760264457006
 50
46.5594376948848279
 51
69.0354387353919066
  0
ARC
  5
39427
  8
0
 10
6761.8538239486260863
 20
358.2079141404379925
 30
0.0
 40
0.0144470159483019
 50
4.4351855439014054
 51
46.5594376948870732
  0
ARC
  5
39428
  8
0
 10
6761.7907695736821552
 20
358.2042064200538221
 30
0.0
 40
0.0151984013477483
 50
18.5095548943851895
 51
69.4455961566080759
  0
ARC
  5
39429
  8
0
 10
6761.7592576780007221
 20
358.1429880357612774
 30
0.0
 40
0.0839664439779386
 50
63.9699799013670827
 51
79.7501200110803836
  0
ARC
  5
3942A
  8
0
 10
6761.7374948259675875
 20
358.0318789263388908
 30
0.0
 40
0.1972294163316739
 50
81.2847809558321046
 51
90.3190070322078782
  0
ARC
  5
3942B
  8
0
 10
6761.7364732920332244
 20
358.131316631593279
 30
0.0
 40
0.0850143639649635
 50
83.1416059046863296
 51
90.0516108456764925
  0
ARC
  5
3942C
  8
0
 10
6761.7373125373360381
 20
358.0456873213921085
 30
0.0
 40
0.1815953701396675
 50
81.4146184830946851
 51
90.2889561174728641
  0
ARC
  5
3942D
  8
0
 10
6761.7545285711594261
 20
358.1387885009041838
 30
0.0
 40
0.0868655194956938
 50
66.5765158909504606
 51
78.9076242960884855
  0
ARC
  5
3942E
  8
0
 10
6761.7788632163183138
 20
358.1949593706656856
 30
0.0
 40
0.0256499858073208
 50
44.1816951980132799
 51
66.5765158909504606
  0
ARC
  5
3942F
  8
0
 10
6761.7917802169658898
 20
358.207512578183298
 30
0.0
 40
0.0076379918953665
 50
11.4693676265423701
 51
44.1816951980156105
  0
ARC
  5
39430
  8
0
 10
6761.7467025231626394
 20
358.1846448140436792
 30
0.0
 40
0.0306128655582223
 50
64.9434182389379941
 51
77.2773376652361037
  0
ARC
  5
39431
  8
0
 10
6761.7553442860789801
 20
358.2031294538987254
 30
0.0
 40
0.0102079157452014
 50
35.3218126293684804
 51
64.9434182389379941
  0
LINE
  5
39432
  8
0
 10
6761.7955025832752654
 20
358.285380782767902
 30
0.0
 11
6761.7807186261761672
 21
358.2683309310373829
 31
0.0
  0
LINE
  5
39433
  8
0
 10
6761.7403337207751974
 20
358.2874929103679165
 30
0.0
 11
6761.7403337207751974
 21
358.2698495353678254
 31
0.0
  0
LINE
  5
39434
  8
0
 10
6761.7403337207751974
 20
358.2680242703677891
 30
0.0
 11
6761.7403337207751974
 21
358.2503784429678717
 31
0.0
  0
LINE
  5
39435
  8
0
 10
6761.8304082229760752
 20
358.2605660246679236
 30
0.0
 11
6761.8018566745749922
 21
358.2452842898679251
 31
0.0
  0
LINE
  5
39436
  8
0
 10
6761.810714013575307
 20
358.284121263367922
 30
0.0
 11
6761.7959300564752994
 21
358.2670714116679278
 31
0.0
  0
LINE
  5
39437
  8
0
 10
6761.8619091442751596
 20
358.2774263614679171
 30
0.0
 11
6761.8333615638748597
 21
358.262146750567922
 31
0.0
  0
LINE
  5
39438
  8
0
 10
6761.8687282419750773
 20
358.2762097591677843
 30
0.0
 11
6761.8401806615747773
 21
358.2609301481678017
 31
0.0
  0
LINE
  5
39439
  8
0
 10
6761.8372273206750833
 20
358.2593494222678032
 30
0.0
 11
6761.8086757723085611
 21
358.2440676875855843
 31
0.0
  0
LINE
  5
3943A
  8
0
 10
6761.913088384175353
 20
358.2658565449677894
 30
0.0
 11
6761.8726978621753005
 21
358.2533751872678067
 31
0.0
  0
LINE
  5
3943B
  8
0
 10
6761.8838334020783805
 20
358.2499341161686743
 30
0.0
 11
6761.9242239240747949
 21
358.2624154738679181
 31
0.0
  0
LINE
  5
3943C
  8
0
 10
6761.9577276289737711
 20
358.2487074360677752
 30
0.0
 11
6761.9082817692760727
 21
358.2398857485678718
 31
0.0
  0
LINE
  5
3943D
  8
0
 10
6761.9122187771754398
 20
358.2377785314678249
 30
0.0
 11
6761.9616646367749127
 21
358.2466002189677852
 31
0.0
  0
LINE
  5
3943E
  8
0
 10
6761.9833297944751394
 20
358.2307800535679121
 30
0.0
 11
6761.9281553153750792
 21
358.2262115595677869
 31
0.0
  0
LINE
  5
3943F
  8
0
 10
6761.9322312058029638
 20
358.2215109691701969
 30
0.0
 11
6761.987405684974874
 21
358.2260794630677765
 31
0.0
  0
LINE
  5
39440
  8
0
 10
6761.994240673375316
 20
358.2090313470678211
 30
0.0
 11
6761.9371455125738066
 21
358.2090313470678211
 31
0.0
  0
LINE
  5
39441
  8
0
 10
6761.9312388308526351
 20
358.2090313470678211
 30
0.0
 11
6761.8741357339749811
 21
358.2090313470678211
 31
0.0
  0
LINE
  5
39442
  8
0
 10
6761.90710344067611
 20
358.236865898967892
 30
0.0
 11
6761.857650708176152
 21
358.2280429852679049
 31
0.0
  0
LINE
  5
39443
  8
0
 10
6761.903166432774924
 20
358.2389731160678821
 30
0.0
 11
6761.853713700274966
 21
358.2301502023677813
 31
0.0
  0
LINE
  5
39444
  8
0
 10
6761.8682277022762719
 20
358.2090313470678211
 30
0.0
 11
6761.8051817727746311
 21
358.2090313470797014
 31
0.0
  0
LINE
  5
39445
  8
0
 10
6761.7992656869737402
 20
358.2090313470678211
 30
0.0
 11
6761.763673103576366
 21
358.209031347067878
 31
0.0
  0
LINE
  5
39446
  8
0
 10
6761.7712407487761084
 20
358.2240312225678736
 30
0.0
 11
6761.7534444570746928
 21
358.2145060575679167
 31
0.0
  0
LINE
  5
39447
  8
0
 10
6761.7644216510761908
 20
358.2252478248677789
 30
0.0
 11
6761.7466253593747751
 21
358.215722659867879
 31
0.0
  0
LINE
  5
39448
  8
0
 10
6761.7673796939752719
 20
358.2268310674677991
 30
0.0
 11
6761.7989026586737964
 21
358.2437032026679162
 31
0.0
  0
LINE
  5
39449
  8
0
 10
6761.805721756373714
 20
358.2424866003678972
 30
0.0
 11
6761.7741987916760991
 21
358.2256144651677801
 31
0.0
  0
ARC
  5
3944A
  8
0
 10
6761.7365770753240213
 20
358.9478228956920134
 30
0.0
 40
0.8196949249848398
 50
270.262586331132411
 51
274.1223844069646134
  0
ARC
  5
3944B
  8
0
 10
6761.7485755016832627
 20
358.8057631837529016
 30
0.0
 40
0.6771122082957448
 50
275.2654356766769865
 51
279.6354014540610251
  0
ARC
  5
3944C
  8
0
 10
6761.7777756762989156
 20
358.6293327446242074
 30
0.0
 40
0.4982841868240625
 50
280.5172480306666216
 51
285.7569562437919899
  0
ARC
  5
3944D
  8
0
 10
6761.8538398271894039
 20
358.3730363071928195
 30
0.0
 40
0.2308154262384159
 50
287.7543563201465986
 51
296.7494824733129235
  0
ARC
  5
3944E
  8
0
 10
6761.9133418490491749
 20
358.2579505381503964
 30
0.0
 40
0.101203180087873
 50
298.5211347626981819
 51
313.7536249957120731
  0
ARC
  5
3944F
  8
0
 10
6761.9638356758132431
 20
358.208894005608613
 30
0.0
 40
0.0304915539905256
 50
320.6241682430193123
 51
355.6818243409098841
  0
ARC
  5
39450
  8
0
 10
6761.9139951336410377
 20
358.2085070442843175
 30
0.0
 40
0.0232289464101794
 50
321.7260506392602792
 51
355.2862476648065808
  0
ARC
  5
39451
  8
0
 10
6761.8798425952254547
 20
358.2392195089536244
 30
0.0
 40
0.0693852737098829
 50
297.8147665279421972
 51
314.1306181972939271
  0
ARC
  5
39452
  8
0
 10
6761.8330317564186771
 20
358.3240657201289991
 30
0.0
 40
0.1663188923931135
 50
287.7850725966761729
 51
296.9006076854278717
  0
ARC
  5
39453
  8
0
 10
6761.7746222483674501
 20
358.5106242750185856
 30
0.0
 40
0.3619122324649907
 50
280.4364312382010098
 51
285.7233535220156
  0
ARC
  5
39454
  8
0
 10
6761.7489517067006091
 20
358.6503500617545228
 30
0.0
 40
0.503986270190795
 50
275.3485075264691773
 51
279.641591045064672
  0
ARC
  5
39455
  8
0
 10
6761.7368068203340954
 20
358.777318329892978
 30
0.0
 40
0.631548223943792
 50
270.3199717025672726
 51
273.9870158752430029
  0
ARC
  5
39456
  8
0
 10
6761.7370691361629724
 20
358.7346838294820941
 30
0.0
 40
0.5870876870780064
 50
270.3186029758031736
 51
279.1480809078511243
  0
ARC
  5
39457
  8
0
 10
6761.7954420545520406
 20
358.4083799068595226
 30
0.0
 40
0.2555393074217889
 50
279.4111505380366793
 51
294.9329251108363223
  0
ARC
  5
39458
  8
0
 10
6761.8855703836334214
 20
358.2218161392207207
 30
0.0
 40
0.048137246490557
 50
296.5722720016394192
 51
341.5704925613787282
  0
ARC
  5
39459
  8
0
 10
6761.8493730944992421
 20
358.211416954841809
 30
0.0
 40
0.0252271533768075
 50
289.1548994143169011
 51
348.9878651084076751
  0
ARC
  5
3945A
  8
0
 10
6761.786779197938813
 20
358.3222522449540861
 30
0.0
 40
0.1522730101233669
 50
278.2676878558954741
 51
296.0763880414917821
  0
ARC
  5
3945B
  8
0
 10
6761.738760815457681
 20
358.5583059590017001
 30
0.0
 40
0.3930580597038642
 50
270.2292818440290034
 51
279.2374020187598944
  0
ARC
  5
3945C
  8
0
 10
6761.7365561283259012
 20
358.5687619114527251
 30
0.0
 40
0.401703376716723
 50
269.9772622455657825
 51
278.928708548769805
  0
ARC
  5
3945D
  8
0
 10
6761.7693911060032406
 20
358.3712029175864018
 30
0.0
 40
0.2013645724877212
 50
280.3943559603708877
 51
290.9645612646081076
  0
ARC
  5
3945E
  8
0
 10
6761.8172235897718565
 20
358.2463642984038188
 30
0.0
 40
0.0676760264457006
 50
290.9645612646081076
 51
313.4405623051151792
  0
ARC
  5
3945F
  8
0
 10
6761.8538239486260863
 20
358.2077153489976808
 30
0.0
 40
0.0144470159483019
 50
313.4405623051129055
 51
355.5648144560985884
  0
ARC
  5
39460
  8
0
 10
6761.7907695736821552
 20
358.2114230693819081
 30
0.0
 40
0.0151984013477483
 50
290.5544038433919241
 51
341.4904451056148105
  0
ARC
  5
39461
  8
0
 10
6761.7592576780007221
 20
358.2726414536745096
 30
0.0
 40
0.0839664439779386
 50
280.249879988919588
 51
296.0300200986329173
  0
ARC
  5
39462
  8
0
 10
6761.7374948259675875
 20
358.3837505630968963
 30
0.0
 40
0.1972294163316739
 50
269.6809929677921218
 51
278.7152190441678954
  0
ARC
  5
39463
  8
0
 10
6761.7364732920332244
 20
358.2843128578422807
 30
0.0
 40
0.0850143639649635
 50
269.948389154323479
 51
276.858394095313713
  0
ARC
  5
39464
  8
0
 10
6761.7373125373360381
 20
358.3699421680436217
 30
0.0
 40
0.1815953701396675
 50
269.7110438825271217
 51
278.5853815169052723
  0
ARC
  5
39465
  8
0
 10
6761.7545285711594261
 20
358.2768409885314895
 30
0.0
 40
0.0868655194956938
 50
281.092375703911614
 51
293.4234841090495252
  0
ARC
  5
39466
  8
0
 10
6761.7788632163183138
 20
358.2206701187699878
 30
0.0
 40
0.0256499858073208
 50
293.4234841090495252
 51
315.8183048019866987
  0
ARC
  5
39467
  8
0
 10
6761.7917802169658898
 20
358.2081169112523185
 30
0.0
 40
0.0076379918953665
 50
315.818304801984425
 51
348.5306323734575926
  0
ARC
  5
39468
  8
0
 10
6761.7467025231626394
 20
358.2309846753918805
 30
0.0
 40
0.0306128655582223
 50
282.7226623347639247
 51
295.0565817610619774
  0
ARC
  5
39469
  8
0
 10
6761.7553442860789801
 20
358.2125000355370048
 30
0.0
 40
0.0102079157452014
 50
295.0565817610606132
 51
324.6781873706315196
  0
LINE
  5
3946A
  8
0
 10
6761.7955025832752654
 20
358.1302487066678282
 30
0.0
 11
6761.7807186261761672
 21
358.1472985583981767
 31
0.0
  0
LINE
  5
3946B
  8
0
 10
6761.7403337207751974
 20
358.1281365790679274
 30
0.0
 11
6761.7403337207751974
 21
358.1457799540677911
 31
0.0
  0
LINE
  5
3946C
  8
0
 10
6761.7403337207751974
 20
358.1476052190678274
 30
0.0
 11
6761.7403337207751974
 21
358.1652510464679153
 31
0.0
  0
LINE
  5
3946D
  8
0
 10
6761.8304082229760752
 20
358.1550634647679203
 30
0.0
 11
6761.8018566745749922
 21
358.1703451995679188
 31
0.0
  0
LINE
  5
3946E
  8
0
 10
6761.810714013575307
 20
358.1315082260679219
 30
0.0
 11
6761.7959300564752994
 21
358.1485580777679161
 31
0.0
  0
LINE
  5
3946F
  8
0
 10
6761.8619091442751596
 20
358.1382031279679268
 30
0.0
 11
6761.8333615638748597
 21
358.1534827388679219
 31
0.0
  0
LINE
  5
39470
  8
0
 10
6761.8687282419750773
 20
358.139419730267889
 30
0.0
 11
6761.8401806615747773
 21
358.1546993412678717
 31
0.0
  0
LINE
  5
39471
  8
0
 10
6761.8372273206750833
 20
358.156280067167927
 30
0.0
 11
6761.8086757723085611
 21
358.1715618018500891
 31
0.0
  0
LINE
  5
39472
  8
0
 10
6761.913088384175353
 20
358.1497729444678271
 30
0.0
 11
6761.8726978621753005
 21
358.1622543021679235
 31
0.0
  0
LINE
  5
39473
  8
0
 10
6761.8838334020783805
 20
358.1656953732671127
 30
0.0
 11
6761.9242239240747949
 21
358.1532140155679258
 31
0.0
  0
LINE
  5
39474
  8
0
 10
6761.9577276289737711
 20
358.1669220533678981
 30
0.0
 11
6761.9082817692760727
 21
358.1757437408679152
 31
0.0
  0
LINE
  5
39475
  8
0
 10
6761.9122187771754398
 20
358.1778509579677916
 30
0.0
 11
6761.9616646367749127
 21
358.1690292704677745
 31
0.0
  0
LINE
  5
39476
  8
0
 10
6761.9833297944751394
 20
358.1848494358678181
 30
0.0
 11
6761.9281553153750792
 21
358.1894179298677727
 31
0.0
  0
LINE
  5
39477
  8
0
 10
6761.9322312058029638
 20
358.1941185202655902
 30
0.0
 11
6761.987405684974874
 21
358.1895500263677832
 31
0.0
  0
LINE
  5
39478
  8
0
 10
6761.994240673375316
 20
358.2065981423677954
 30
0.0
 11
6761.9371455125738066
 21
358.2065981423677954
 31
0.0
  0
LINE
  5
39479
  8
0
 10
6761.9312388308526351
 20
358.2065981423677954
 30
0.0
 11
6761.8741357339749811
 21
358.2065981423677954
 31
0.0
  0
LINE
  5
3947A
  8
0
 10
6761.90710344067611
 20
358.1787635904677813
 30
0.0
 11
6761.857650708176152
 21
358.1875865041678253
 31
0.0
  0
LINE
  5
3947B
  8
0
 10
6761.903166432774924
 20
358.1766563733677913
 30
0.0
 11
6761.853713700274966
 21
358.1854792870677784
 31
0.0
  0
LINE
  5
3947C
  8
0
 10
6761.8682277022762719
 20
358.2065981423677954
 30
0.0
 11
6761.8051817727746311
 21
358.206598142355972
 31
0.0
  0
LINE
  5
3947D
  8
0
 10
6761.7992656869737402
 20
358.2065981423677954
 30
0.0
 11
6761.763673103576366
 21
358.2065981423677954
 31
0.0
  0
LINE
  5
3947E
  8
0
 10
6761.7712407487761084
 20
358.1915982668679135
 30
0.0
 11
6761.7534444570746928
 21
358.2011234318679271
 31
0.0
  0
LINE
  5
3947F
  8
0
 10
6761.7644216510761908
 20
358.1903816645677807
 30
0.0
 11
6761.7466253593747751
 21
358.1999068295679081
 31
0.0
  0
LINE
  5
39480
  8
0
 10
6761.7673796939752719
 20
358.1887984219678174
 30
0.0
 11
6761.7989026586737964
 21
358.1719262867679276
 31
0.0
  0
LINE
  5
39481
  8
0
 10
6761.805721756373714
 20
358.1731428890677762
 30
0.0
 11
6761.7741987916760991
 21
358.1900150242677796
 31
0.0
  0
ARC
  5
39482
  8
0
 10
6761.6068411851829296
 20
356.4656121853656146
 30
0.0
 40
2.0381672054212219
 50
68.6504969193444907
 51
86.0417508569056935
  0
ARC
  5
39483
  8
0
 10
6762.3418615256641715
 20
358.3510513339189743
 30
0.0
 40
0.0146380173872919
 50
7.2540381091140249
 51
61.4904651515152381
  0
ARC
  5
39484
  8
0
 10
6762.205378786887195
 20
358.3534816265130871
 30
0.0
 40
0.1513067696758858
 50
334.9411409654227896
 51
356.3723281541250003
  0
ARC
  5
39485
  8
0
 10
6762.0950191116298811
 20
358.4255456268080025
 30
0.0
 40
0.2824103780838556
 50
309.6123386977776022
 51
331.1774001225514894
  0
ARC
  5
39486
  8
0
 10
6761.8870238178587897
 20
358.7159065992369733
 30
0.0
 40
0.6391982332826901
 50
290.8457380386611817
 51
307.3801141186228278
  0
ARC
  5
39487
  8
0
 10
6762.0936926132526423
 20
358.1773532335453751
 30
0.0
 40
0.0623717276241238
 50
277.5191864856008124
 51
289.4724895704139271
  0
ARC
  5
39488
  8
0
 10
6761.7059000045555877
 20
362.1402614209222861
 30
0.0
 40
4.0441736945686424
 50
270.4320657978624922
 51
275.6186809331020982
  0
ARC
  5
39489
  8
0
 10
6761.7240953472855836
 20
356.8931538271025943
 30
0.0
 40
1.5327822960938009
 50
79.3320231936119455
 51
89.5401670670636065
  0
ARC
  5
3948A
  8
0
 10
6761.90947156373295
 20
357.8450377949910717
 30
0.0
 40
0.5630654992773046
 50
62.4998506600565307
 51
79.938706005260542
  0
ARC
  5
3948B
  8
0
 10
6761.7367680023780849
 20
359.6845085678024247
 30
0.0
 40
1.563992475706266
 50
269.986398070165194
 51
273.9539145189958731
  0
ARC
  5
3948C
  8
0
 10
6761.7545536270890807
 20
359.4271881120599801
 30
0.0
 40
1.306058093760299
 50
273.9539145189958731
 51
282.0446665816689915
  0
ARC
  5
3948D
  8
0
 10
6761.8987272548838519
 20
358.7514951092134083
 30
0.0
 40
0.6151550115212518
 50
282.0446665816689915
 51
293.3857961560365197
  0
ARC
  5
3948E
  8
0
 10
6762.0507624010433574
 20
358.3999235202260252
 30
0.0
 40
0.2321181100994516
 50
293.3857961560365197
 51
312.7610080383270201
  0
ARC
  5
3948F
  8
0
 10
6762.165539497285863
 20
358.2758062054678021
 30
0.0
 40
0.0630651904414504
 50
312.7610080383270201
 51
357.078055172200493
  0
ARC
  5
39490
  8
0
 10
6762.1782326526081306
 20
358.2723275470560225
 30
0.0
 40
0.0502907372139686
 50
0.3006480522877095
 51
25.4984779949991314
  0
ARC
  5
39491
  8
0
 10
6762.1413210206319491
 20
358.2526795590347888
 30
0.0
 40
0.0920837305374435
 50
26.6460553537451403
 51
52.4275632806232821
  0
ARC
  5
39492
  8
0
 10
6762.0367752002748603
 20
358.1167888620473718
 30
0.0
 40
0.263536668924801
 50
52.4275632806232821
 51
59.7677512488522069
  0
ARC
  5
39493
  8
0
 10
6761.7378546001364157
 20
357.4196515500520945
 30
0.0
 40
0.9571955611570547
 50
79.8477736087268681
 51
90.0872661941318569
  0
ARC
  5
39494
  8
0
 10
6761.8292473608862565
 20
357.9300325214508121
 30
0.0
 40
0.4386964071718979
 50
64.8939712118353924
 51
79.8477736087268681
  0
ARC
  5
39495
  8
0
 10
6761.9718296391356489
 20
358.2343297366671209
 30
0.0
 40
0.1026510214590273
 50
41.4697912599729221
 51
64.8939712118353924
  0
ARC
  5
39496
  8
0
 10
6762.0167126469013965
 20
358.2739967001555783
 30
0.0
 40
0.0427515024411398
 50
6.704540773444533
 51
41.4697912599729221
  0
ARC
  5
39497
  8
0
 10
6762.0273970367707079
 20
358.2771140917735124
 30
0.0
 40
0.0318299557911389
 50
341.4560043523874242
 51
3.3749415236456959
  0
ARC
  5
39498
  8
0
 10
6761.8526122195726202
 20
358.3347779454089164
 30
0.0
 40
0.2158808407566413
 50
319.5809309527322739
 51
341.6994781898798124
  0
ARC
  5
39499
  8
0
 10
6761.9209534068322682
 20
358.2719947340891053
 30
0.0
 40
0.1231935728640562
 50
289.8832015066050189
 51
321.2032203959360004
  0
ARC
  5
3949A
  8
0
 10
6761.802936810092433
 20
358.5662067249805887
 30
0.0
 40
0.4401403169964714
 50
278.3411467516726248
 51
291.3047077912128202
  0
ARC
  5
3949B
  8
0
 10
6761.7119164086116143
 20
359.1575734192625191
 30
0.0
 40
1.038464270302109
 50
273.4162360249313792
 51
278.5767335057224727
  0
ARC
  5
3949C
  8
0
 10
6761.7176505218203602
 20
357.2018804653517918
 30
0.0
 40
1.0930821055949651
 50
81.8136380757133992
 51
89.0173379589418658
  0
ARC
  5
3949D
  8
0
 10
6761.7992836185358101
 20
357.8346663383431974
 30
0.0
 40
0.4552152899759863
 50
68.921568596329692
 51
80.6426043024680723
  0
ARC
  5
3949E
  8
0
 10
6761.9154153786003008
 20
358.1359664870270763
 30
0.0
 40
0.1323091653936671
 50
44.9458072969300133
 51
68.921568596329692
  0
ARC
  5
3949F
  8
0
 10
6761.9877848381329386
 20
358.208199175864479
 30
0.0
 40
0.0300599599698661
 50
4.5398500651222014
 51
44.9458072969300133
  0
ARC
  5
394A0
  8
0
 10
6761.982951917144419
 20
358.2078154343594747
 30
0.0
 40
0.0349080918610866
 50
329.7877524967681779
 51
4.5398500651222014
  0
ARC
  5
394A1
  8
0
 10
6762.1520532490958431
 20
358.2771042902256795
 30
0.0
 40
0.0670268337171198
 50
7.542232465529449
 51
42.0629135209867684
  0
ARC
  5
394A2
  8
0
 10
6762.1668669290766047
 20
358.282435165205527
 30
0.0
 40
0.0517495217405532
 50
328.0460091284368787
 51
3.8413007197434612
  0
ARC
  5
394A3
  8
0
 10
6761.7873481282149442
 20
359.2051525534380971
 30
0.0
 40
1.0693053349858781
 50
277.8572651688559176
 51
283.4040710929174907
  0
ARC
  5
394A4
  8
0
 10
6761.894131961950734
 20
358.7570621677925828
 30
0.0
 40
0.6086668858139869
 50
283.4040710929174907
 51
293.4267472517681767
  0
ARC
  5
394A5
  8
0
 10
6762.043773256455097
 20
358.4117039597081771
 30
0.0
 40
0.2322830273500084
 50
293.4267472517681767
 51
308.2523519418708133
  0
ARC
  5
394A6
  8
0
 10
6762.1242156338712448
 20
358.3096719053679067
 30
0.0
 40
0.10235413834803
 50
308.2523519418708133
 51
327.7454296418162016
  0
ARC
  5
394A7
  8
0
 10
6762.0479742574952979
 20
358.2403103159514899
 30
0.0
 40
0.1474698421685441
 50
47.8841407011997475
 51
56.7091560085462589
  0
ARC
  5
394A8
  8
0
 10
6762.0973396161361961
 20
358.2929113383681852
 30
0.0
 40
0.0753568944012364
 50
24.5750001755169407
 51
48.9051706443772005
  0
ARC
  5
394A9
  8
0
 10
6761.9476824493285676
 20
358.5395966308742004
 30
0.0
 40
0.3411681343602227
 50
283.4820355277536805
 51
302.3365191830174012
  0
ARC
  5
394AA
  8
0
 10
6762.0725950415317129
 20
358.3422830042807163
 30
0.0
 40
0.1076390720789576
 50
302.3365191830174012
 51
326.4426369010980125
  0
ARC
  5
394AB
  8
0
 10
6762.126098160919355
 20
358.3067929781340126
 30
0.0
 40
0.0434352891665388
 50
326.4426369010980125
 51
23.6990938354364786
  0
LINE
  5
394AC
  8
0
 10
6762.1694675789749454
 20
358.3444823149678768
 30
0.0
 11
6762.1694675789749454
 21
358.3091841959379167
 31
0.0
  0
ARC
  5
394AD
  8
0
 10
6761.7066077758154279
 20
356.8863148003658239
 30
0.0
 40
1.5351934373928
 50
84.3667873743681866
 51
88.8881613656833167
  0
ARC
  5
394AE
  8
0
 10
6761.7748291880197939
 20
357.6304954275619252
 30
0.0
 40
0.7879269813714679
 50
72.4497727078632039
 51
83.991807011116407
  0
ARC
  5
394AF
  8
0
 10
6761.9471231671450369
 20
358.1752764118289178
 30
0.0
 40
0.2165501039414734
 50
50.00502384299228
 51
72.4497727078632039
  0
ARC
  5
394B0
  8
0
 10
6762.0549775405643231
 20
358.3038351396602934
 30
0.0
 40
0.0487409493423899
 50
15.7028874549034292
 51
50.005023842994369
  0
ARC
  5
394B1
  8
0
 10
6762.0663915310497032
 20
358.3070440883635115
 30
0.0
 40
0.0368844519418537
 50
343.4213893646751217
 51
15.7028874549034292
  0
ARC
  5
394B2
  8
0
 10
6761.6556934012651254
 20
358.462676013173791
 30
0.0
 40
0.4759914122567707
 50
335.2117488694321992
 51
339.5693177212029923
  0
ARC
  5
394B3
  8
0
 10
6762.0101322816790343
 20
358.3055414106278818
 30
0.0
 40
0.0885281156374307
 50
301.4449735220308071
 51
331.3596772259712111
  0
ARC
  5
394B4
  8
0
 10
6761.9021867167220989
 20
358.4820728967795276
 30
0.0
 40
0.2954474491883392
 50
296.4847200806855767
 51
301.4449735220308071
  0
ARC
  5
394B5
  8
0
 10
6761.7392358484657962
 20
357.3397237178900241
 30
0.0
 40
1.046858951725862
 50
80.7891936474788963
 51
90.1553893007637157
  0
ARC
  5
394B6
  8
0
 10
6761.8151900614730039
 20
357.8081194236410738
 30
0.0
 40
0.5723449059486942
 50
68.5308106436449691
 51
80.7891936474788963
  0
ARC
  5
394B7
  8
0
 10
6761.9655470036650513
 20
358.1904255180568271
 30
0.0
 40
0.1615345362011096
 50
46.7341917557705102
 51
68.5308106436449691
  0
ARC
  5
394B8
  8
0
 10
6762.0435137694366858
 20
358.2732608241875027
 30
0.0
 40
0.0477781978858429
 50
17.6509195389240112
 51
46.7341917557705102
  0
ARC
  5
394B9
  8
0
 10
6762.0554370760401071
 20
358.2770547858243049
 30
0.0
 40
0.0352658285960827
 50
350.0892603147456725
 51
17.6509195389240112
  0
ARC
  5
394BA
  8
0
 10
6762.0478519690177563
 20
358.2783800640488039
 30
0.0
 40
0.0429658422922803
 50
341.6842453575405898
 51
350.0892603147456725
  0
ARC
  5
394BB
  8
0
 10
6760.3896548243174038
 20
354.3911315588654816
 30
0.0
 40
0.0328187691246438
 50
183.9848700182820096
 51
202.6501740779297904
  0
ARC
  5
394BC
  8
0
 10
6763.0861746315704295
 20
354.3903239583099207
 30
0.0
 40
0.0297407356583107
 50
336.5589420808252044
 51
357.1609455642288822
  0
LINE
  5
394BD
  8
0
 10
6757.0396019940217229
 20
354.1998616370456148
 30
0.0
 11
6754.620868906292344
 21
354.199861549689615
 31
0.0
  0
LINE
  5
394BE
  8
0
 10
6756.7194112837059947
 20
354.5635106248677744
 30
0.0
 11
6754.9422972698130252
 21
354.5635106248677744
 31
0.0
  0
LINE
  5
394BF
  8
0
 10
6757.0609435110563936
 20
354.5241621607951856
 30
0.0
 11
6754.5983693726666388
 21
354.5241621607951856
 31
0.0
  0
ARC
  5
394C0
  8
0
 10
6757.056141527093132
 20
354.4764125043420222
 30
0.0
 40
0.047990506784121
 50
36.1136649939001799
 51
84.2573098235077822
  0
LINE
  5
394C1
  8
0
 10
6757.0949106262323767
 20
354.5046975833276974
 30
0.0
 11
6757.1251021031130222
 21
354.4531810794941862
 31
0.0
  0
ARC
  5
394C2
  8
0
 10
6757.0908161103616294
 20
354.4331420913480883
 30
0.0
 40
0.0397125968040792
 50
0.1928684479253433
 51
30.3048227895753897
  0
LINE
  5
394C3
  8
0
 10
6757.1305284821692112
 20
354.4332757712197122
 30
0.0
 11
6757.1305284821692112
 21
354.3388840018416772
 31
0.0
  0
ARC
  5
394C4
  8
0
 10
6757.0904773153197311
 20
354.3391077379702097
 30
0.0
 40
0.0400517917682317
 50
329.9716687951736844
 51
359.679934355224816
  0
ARC
  5
394C5
  8
0
 10
6738.7491259652488225
 20
364.9861316204559785
 30
0.0
 40
21.2476986195096416
 50
329.5356968374022131
 51
329.8653407864354108
  0
LINE
  5
394C7
  8
0
 10
6757.1251012440870909
 20
354.4531825462614734
 30
0.0
 11
6754.535760874542575
 21
354.4531824744115056
 31
0.0
  0
LINE
  5
394C8
  8
0
 10
6757.125153402594151
 20
354.3190649080286789
 30
0.0
 11
6754.5353174968377061
 21
354.3190648362585193
 31
0.0
  0
LINE
  5
394C9
  8
0
 10
6756.8780380847738343
 20
355.6257562719807197
 30
0.0
 11
6754.7824327621547127
 21
355.6257562719807197
 31
0.0
  0
LINE
  5
394CA
  8
0
 10
6756.6204756023616937
 20
355.7183990624807279
 30
0.0
 11
6755.0402965414132268
 21
355.7183990624807279
 31
0.0
  0
ARC
  5
394CB
  8
0
 10
6756.6164394489942424
 20
355.6684029693893763
 30
0.0
 40
0.0501587465791797
 50
56.1565308305480926
 51
85.3845567795671201
  0
LINE
  5
394CC
  8
0
 10
6756.6443741544153454
 20
355.7100629272807168
 30
0.0
 11
6756.7426113793162585
 21
355.6345814654534934
 31
0.0
  0
ARC
  5
394CD
  8
0
 10
6756.7677715485588124
 20
355.6660118970103781
 30
0.0
 40
0.0402604786877613
 50
231.322606924040997
 51
269.110313269691801
  0
ARC
  5
394CE
  8
0
 10
6756.8767855226651591
 20
355.5862378125331134
 30
0.0
 40
0.0395383048315047
 50
0.0928404231774915
 51
88.1845824619421137
  0
ARC
  5
394CF
  8
0
 10
6746.8616946698330139
 20
356.0018291736201945
 30
0.0
 40
10.0632116834906107
 50
352.2862686915748895
 51
357.6334860441760952
  0
ARC
  5
394D0
  8
0
 10
6756.7945373472748543
 20
354.6564322103964741
 30
0.0
 40
0.0396665699364531
 50
304.9161703441569102
 51
352.2860934070944268
  0
LINE
  5
394D1
  8
0
 10
6756.8172415922153959
 20
354.6239060050806984
 30
0.0
 11
6756.7406987217646019
 21
354.5704768373627189
 31
0.0
  0
ARC
  5
394D2
  8
0
 10
6756.7185144777859023
 20
354.6022594095883278
 30
0.0
 40
0.0387591612159695
 50
271.3258228091858086
 51
304.9150512107797795
  0
ARC
  5
394D3
  8
0
 10
6756.3150467604873484
 20
355.6840386553329836
 30
0.0
 40
0.0352049558591903
 50
47.7337784681533108
 51
77.4246485237068924
  0
LINE
  5
394D4
  8
0
 10
6756.3387247812142959
 20
355.7100912991807036
 30
0.0
 11
6756.3995272909587584
 21
355.6339924900037204
 31
0.0
  0
ARC
  5
394D5
  8
0
 10
6756.4220700692603714
 20
355.6582797778584109
 30
0.0
 40
0.033136825509302
 50
227.1333909248083103
 51
258.9592710066676773
  0
ARC
  5
394D6
  8
0
 10
6756.4795901063662313
 20
355.5958113032895085
 30
0.0
 40
0.0302474843140345
 50
40.9069458502218382
 51
81.8898379783627064
  0
ARC
  5
394D7
  8
0
 10
6756.4698583994004366
 20
355.5873793690755065
 30
0.0
 40
0.0431239603492934
 50
356.9181411857073272
 51
40.9069458502218382
  0
ARC
  5
394D8
  8
0
 10
6739.0391156042578586
 20
356.0611405655404269
 30
0.0
 40
17.4802886588972903
 50
355.3730388988018944
 51
358.4393433774678783
  0
ARC
  5
394D9
  8
0
 10
6756.4243892702152152
 20
354.6531057455952123
 30
0.0
 40
0.0381032161702672
 50
309.8511262075076047
 51
356.8942410905415272
  0
LINE
  5
394DA
  8
0
 10
6756.4488056206137117
 20
354.6238534479807072
 30
0.0
 11
6756.4009822463822275
 21
354.5703419688534836
 31
0.0
  0
ARC
  5
394DB
  8
0
 10
6756.3814020998042906
 20
354.594381550103094
 30
0.0
 40
0.0310045739643673
 50
275.3218581259257007
 51
309.1626835978802887
  0
ARC
  5
394DC
  8
0
 10
6756.5901845428170418
 20
354.4889174889885908
 30
0.0
 40
0.0370971681873538
 50
25.1763713544091701
 51
71.8168145660060304
  0
LINE
  5
394DD
  8
0
 10
6756.6237575752138582
 20
354.5046988508806862
 30
0.0
 11
6756.6425363907555948
 21
354.4531825328710966
 31
0.0
  0
ARC
  5
394DE
  8
0
 10
6756.6122526245280824
 20
354.4379670093970276
 30
0.0
 40
0.0338912769235184
 50
351.8535821014634735
 51
26.6764026260333686
  0
LINE
  5
394DF
  8
0
 10
6756.6458019107567452
 20
354.4331645053615034
 30
0.0
 11
6756.6469509820153689
 21
354.3388839425807078
 31
0.0
  0
ARC
  5
394E0
  8
0
 10
6756.5997665487775521
 20
354.3389252099838131
 30
0.0
 40
0.0471844512818333
 50
335.1080703074935059
 51
359.9498892482059773
  0
LINE
  5
394E1
  8
0
 10
6756.6425677206998444
 20
354.3190648946551846
 30
0.0
 11
6756.6064329285136409
 21
354.2194134102807084
 31
0.0
  0
ARC
  5
394E2
  8
0
 10
6756.570369273608776
 20
354.2367739221605234
 30
0.0
 40
0.0400246746129551
 50
292.7444182656205953
 51
334.2945219491728039
  0
ARC
  5
394E3
  8
0
 10
6756.2931206908297099
 20
354.5636013103048754
 30
0.0
 40
0.0396569911393719
 50
180.131020967193507
 51
263.9917610994859274
  0
ARC
  5
394E4
  8
0
 10
6754.5995790421566198
 20
354.4847396073919867
 30
0.0
 40
0.0394411082134329
 50
91.7575527224305461
 51
149.6009373073077029
  0
LINE
  5
394E5
  8
0
 10
6754.5655602206961703
 20
354.5046975833276974
 30
0.0
 11
6754.5353687438146153
 21
354.4531810794941862
 31
0.0
  0
ARC
  5
394E6
  8
0
 10
6754.5696570944646737
 20
354.4331415495184956
 30
0.0
 40
0.0397149059167277
 50
149.6962188316740878
 51
179.8063610763589111
  0
LINE
  5
394E7
  8
0
 10
6754.5299424153590735
 20
354.4332757712197122
 30
0.0
 11
6754.5299424153590735
 21
354.3388840018416772
 31
0.0
  0
ARC
  5
394E8
  8
0
 10
6754.569993244739635
 20
354.3391075579161793
 30
0.0
 40
0.0400514533004086
 50
180.3198107685988134
 51
210.0283135658906986
  0
ARC
  5
394E9
  8
0
 10
6772.911344881680634
 20
364.9861316204559785
 30
0.0
 40
21.2476986195096416
 50
210.1346592135645892
 51
210.4643034362445917
  0
ARC
  5
394EB
  8
0
 10
6755.0419074553419705
 20
355.6744283514435097
 30
0.0
 40
0.0440002099177231
 50
92.098153652434064
 51
125.916488665573695
  0
LINE
  5
394EC
  8
0
 10
6755.0160966925141111
 20
355.7100629272807168
 30
0.0
 11
6754.9178594676122884
 21
355.6345814654534934
 31
0.0
  0
ARC
  5
394ED
  8
0
 10
6754.8926992983697346
 20
355.6660118970103781
 30
0.0
 40
0.0402604786877613
 50
270.889686730308199
 51
308.677393075959003
  0
ARC
  5
394EE
  8
0
 10
6754.7836852850577998
 20
355.5862379012842212
 30
0.0
 40
0.0395382148829832
 50
91.8153648281297166
 51
179.9072879771163116
  0
ARC
  5
394EF
  8
0
 10
6764.7987530921400321
 20
356.0018265936390094
 30
0.0
 40
10.0631884611347893
 50
182.366504718103613
 51
187.7137343938535139
  0
ARC
  5
394F0
  8
0
 10
6754.8659334996546022
 20
354.6564322103964741
 30
0.0
 40
0.0396665699364531
 50
187.713906592905488
 51
235.0838296558430898
  0
LINE
  5
394F1
  8
0
 10
6754.8432292547140605
 20
354.6239060050806984
 30
0.0
 11
6754.9197721251630355
 21
354.5704768373627189
 31
0.0
  0
ARC
  5
394F2
  8
0
 10
6754.9463744789691191
 20
354.6165946867308207
 30
0.0
 40
0.0532404100130943
 50
240.0221804072145915
 51
265.6079260262723096
  0
ARC
  5
394F3
  8
0
 10
6755.3454240864421081
 20
355.6840386553329836
 30
0.0
 40
0.0352049558591903
 50
102.5753514762938039
 51
132.2662215318466963
  0
LINE
  5
394F4
  8
0
 10
6755.321746065714251
 20
355.7100912991807036
 30
0.0
 11
6755.2609435559697886
 21
355.6339924900037204
 31
0.0
  0
ARC
  5
394F5
  8
0
 10
6755.2384007776699946
 20
355.6582797778584109
 30
0.0
 40
0.033136825509302
 50
281.0407289933323227
 51
312.8666090751917181
  0
ARC
  5
394F6
  8
0
 10
6755.1808807405623156
 20
355.5958113032895085
 30
0.0
 40
0.0302474843140345
 50
98.1101620216373362
 51
139.0930541497781121
  0
ARC
  5
394F7
  8
0
 10
6755.1906124475290198
 20
355.5873793690755065
 30
0.0
 40
0.0431239603492934
 50
139.0930541497781121
 51
183.0818588142927013
  0
ARC
  5
394F8
  8
0
 10
6772.6213552426706883
 20
356.0611405655404269
 30
0.0
 40
17.4802886588972903
 50
181.560656622532008
 51
184.6269611011979919
  0
ARC
  5
394F9
  8
0
 10
6755.2360815767133317
 20
354.6531057455952123
 30
0.0
 40
0.0381032161702672
 50
183.1057589094585012
 51
230.1488737924923953
  0
LINE
  5
394FA
  8
0
 10
6755.2116652263139258
 20
354.6238534479807072
 30
0.0
 11
6755.259488600547229
 21
354.5703419688534836
 31
0.0
  0
ARC
  5
394FB
  8
0
 10
6755.2790687471260753
 20
354.594381550103094
 30
0.0
 40
0.0310045739643672
 50
230.8373164021197113
 51
264.6781418740742993
  0
ARC
  5
394FC
  8
0
 10
6755.0702863041096862
 20
354.4889174889885908
 30
0.0
 40
0.0370971681873538
 50
108.1831854339444021
 51
154.8236286455907873
  0
LINE
  5
394FD
  8
0
 10
6755.0367132717137792
 20
354.5046988508806862
 30
0.0
 11
6755.0179344561729522
 21
354.4531825328710966
 31
0.0
  0
ARC
  5
394FE
  8
0
 10
6755.0482182223995551
 20
354.4379670093970276
 30
0.0
 40
0.0338912769235184
 50
153.3235973739666065
 51
188.1464178985364981
  0
LINE
  5
394FF
  8
0
 10
6755.0146689361708923
 20
354.4331645053615034
 30
0.0
 11
6755.0135198649140875
 21
354.3388839425807078
 31
0.0
  0
ARC
  5
39500
  8
0
 10
6755.0607042981491759
 20
354.3389252099838131
 30
0.0
 40
0.0471844512818333
 50
180.0501107517939943
 51
204.8919296925064941
  0
LINE
  5
39501
  8
0
 10
6755.0179031262287026
 20
354.3190648946551846
 30
0.0
 11
6755.0540379184139965
 21
354.2194134102807084
 31
0.0
  0
ARC
  5
39502
  8
0
 10
6755.090101573319771
 20
354.2367739221605234
 30
0.0
 40
0.0400246746129551
 50
205.7054780508271961
 51
247.255581734379291
  0
ARC
  5
39503
  8
0
 10
6755.3673501560979275
 20
354.5636013103048754
 30
0.0
 40
0.0396569911393714
 50
276.0082389005140726
 51
359.8689790328065214
  0
LINE
  5
39504
  8
0
 10
6756.8337682496830894
 20
354.6505693555682228
 30
0.0
 11
6754.8267025972445481
 21
354.6505693555682228
 31
0.0
  0
ARC
  5
39505
  8
0
 10
6761.7358763017628007
 20
360.0589935415864034
 30
0.0
 40
0.0425843300940644
 50
74.1637582804960402
 51
89.2997893809706369
  0
LINE
  5
39506
  8
0
 10
6766.4331914281528952
 20
354.1998616370456148
 30
0.0
 11
6768.8519245158831836
 21
354.199861549689615
 31
0.0
  0
LINE
  5
39507
  8
0
 10
6766.7533821384686235
 20
354.5635106248677744
 30
0.0
 11
6768.530496152359774
 21
354.5635106248677744
 31
0.0
  0
LINE
  5
39508
  8
0
 10
6766.4118499111173151
 20
354.5241621607951856
 30
0.0
 11
6768.8744240495061604
 21
354.5241621607951856
 31
0.0
  0
ARC
  5
39509
  8
0
 10
6766.4166518950823956
 20
354.4764125043420222
 30
0.0
 40
0.047990506784121
 50
95.7426901764922036
 51
143.886335006099813
  0
LINE
  5
3950A
  8
0
 10
6766.3778827959422415
 20
354.5046975833276974
 30
0.0
 11
6766.3476913190606865
 21
354.4531810794941862
 31
0.0
  0
ARC
  5
3950B
  8
0
 10
6766.3819773118129888
 20
354.4331420913480883
 30
0.0
 40
0.0397125968040792
 50
149.695177210424589
 51
179.8071315520747078
  0
LINE
  5
3950C
  8
0
 10
6766.3422649400063165
 20
354.4332757712197122
 30
0.0
 11
6766.3422649400063165
 21
354.3388840018416772
 31
0.0
  0
ARC
  5
3950D
  8
0
 10
6766.382316106853068
 20
354.3391077379702097
 30
0.0
 40
0.0400517917682317
 50
180.320065644771887
 51
210.0283312048262871
  0
ARC
  5
3950E
  8
0
 10
6784.7236674569257957
 20
364.9861316204559785
 30
0.0
 40
21.2476986195096416
 50
210.1346592135645892
 51
210.4643031625977869
  0
LINE
  5
39510
  8
0
 10
6766.3476921780857083
 20
354.4531825462614734
 30
0.0
 11
6768.9370325476320431
 21
354.4531824744115056
 31
0.0
  0
LINE
  5
39511
  8
0
 10
6766.3476400195786482
 20
354.3190649080286789
 30
0.0
 11
6768.937475925336912
 21
354.3190648362585193
 31
0.0
  0
LINE
  5
39512
  8
0
 10
6766.5947553373998744
 20
355.6257562719807197
 30
0.0
 11
6768.6903606600199055
 21
355.6257562719807197
 31
0.0
  0
LINE
  5
39513
  8
0
 10
6766.8523178198129244
 20
355.7183990624807279
 30
0.0
 11
6768.4324968807595724
 21
355.7183990624807279
 31
0.0
  0
ARC
  5
39514
  8
0
 10
6766.8563539731785568
 20
355.6684029693893763
 30
0.0
 40
0.0501587465791797
 50
94.6154432204328657
 51
123.8434691694518932
  0
LINE
  5
39515
  8
0
 10
6766.8284192677601823
 20
355.7100629272807168
 30
0.0
 11
6766.7301820428583596
 21
355.6345814654534934
 31
0.0
  0
ARC
  5
39516
  8
0
 10
6766.7050218736148963
 20
355.6660118970103781
 30
0.0
 40
0.0402604786877613
 50
270.889686730308199
 51
308.677393075959003
  0
ARC
  5
39517
  8
0
 10
6766.5960078995076401
 20
355.5862378125331134
 30
0.0
 40
0.0395383048315047
 50
91.8154175380579005
 51
179.9071595768224938
  0
ARC
  5
39518
  8
0
 10
6776.6110987523416043
 20
356.0018291736201945
 30
0.0
 40
10.0632116834906107
 50
182.3665139558237911
 51
187.7137313084249968
  0
ARC
  5
39519
  8
0
 10
6766.6782560748997639
 20
354.6564322103964741
 30
0.0
 40
0.0396665699364531
 50
187.713906592905488
 51
235.0838296558430898
  0
LINE
  5
3951A
  8
0
 10
6766.6555518299601317
 20
354.6239060050806984
 30
0.0
 11
6766.7320947004081972
 21
354.5704768373627189
 31
0.0
  0
ARC
  5
3951B
  8
0
 10
6766.7542789443868969
 20
354.6022594095883278
 30
0.0
 40
0.0387591612159695
 50
235.0849487892201921
 51
268.6741771908141914
  0
ARC
  5
3951C
  8
0
 10
6767.1577466616881793
 20
355.6840386553329836
 30
0.0
 40
0.0352049558591903
 50
102.5753514762938039
 51
132.2662215318466963
  0
LINE
  5
3951D
  8
0
 10
6767.1340686409603222
 20
355.7100912991807036
 30
0.0
 11
6767.0732661312140408
 21
355.6339924900037204
 31
0.0
  0
ARC
  5
3951E
  8
0
 10
6767.0507233529151563
 20
355.6582797778584109
 30
0.0
 40
0.033136825509302
 50
281.0407289933323227
 51
312.8666090751917181
  0
ARC
  5
3951F
  8
0
 10
6766.9932033158083868
 20
355.5958113032895085
 30
0.0
 40
0.0302474843140345
 50
98.1101620216373362
 51
139.0930541497781121
  0
ARC
  5
39520
  8
0
 10
6767.0029350227750911
 20
355.5873793690755065
 30
0.0
 40
0.0431239603492934
 50
139.0930541497781121
 51
183.0818588142927013
  0
ARC
  5
39521
  8
0
 10
6784.4336778179167595
 20
356.0611405655404269
 30
0.0
 40
17.4802886588972903
 50
181.560656622532008
 51
184.6269611011979919
  0
ARC
  5
39522
  8
0
 10
6767.048404151957584
 20
354.6531057455952123
 30
0.0
 40
0.0381032161702672
 50
183.1057589094585012
 51
230.1488737924923953
  0
LINE
  5
39523
  8
0
 10
6767.0239878015609065
 20
354.6238534479807072
 30
0.0
 11
6767.0718111757923907
 21
354.5703419688534836
 31
0.0
  0
ARC
  5
39524
  8
0
 10
6767.0913913223703275
 20
354.594381550103094
 30
0.0
 40
0.0310045739643673
 50
230.8373164021197113
 51
264.6781418740742993
  0
ARC
  5
39525
  8
0
 10
6766.8826088793575764
 20
354.4889174889885908
 30
0.0
 40
0.0370971681873538
 50
108.1831854339938985
 51
154.8236286455907873
  0
LINE
  5
39526
  8
0
 10
6766.849035846958941
 20
354.5046988508806862
 30
0.0
 11
6766.8302570314190234
 21
354.4531825328710966
 31
0.0
  0
ARC
  5
39527
  8
0
 10
6766.8605407976474453
 20
354.4379670093970276
 30
0.0
 40
0.0338912769235184
 50
153.3235973739666065
 51
188.1464178985364981
  0
LINE
  5
39528
  8
0
 10
6766.826991511416054
 20
354.4331645053615034
 30
0.0
 11
6766.8258424401601587
 21
354.3388839425807078
 31
0.0
  0
ARC
  5
39529
  8
0
 10
6766.8730268733952471
 20
354.3389252099838131
 30
0.0
 40
0.0471844512818333
 50
180.0501107517939943
 51
204.8919296925064941
  0
LINE
  5
3952A
  8
0
 10
6766.8302257014738643
 20
354.3190648946551846
 30
0.0
 11
6766.8663604936600677
 21
354.2194134102807084
 31
0.0
  0
ARC
  5
3952B
  8
0
 10
6766.9024241485658422
 20
354.2367739221605234
 30
0.0
 40
0.0400246746129551
 50
205.7054780508271961
 51
247.255581734379291
  0
ARC
  5
3952C
  8
0
 10
6767.1796727313439987
 20
354.5636013103048754
 30
0.0
 40
0.0396569911393719
 50
276.0082389005140726
 51
359.8689790328065214
  0
ARC
  5
3952D
  8
0
 10
6768.8732143800161793
 20
354.4847396073919867
 30
0.0
 40
0.0394411082134329
 50
30.3990626926922403
 51
88.2424472775694539
  0
LINE
  5
3952E
  8
0
 10
6768.9072332014793574
 20
354.5046975833276974
 30
0.0
 11
6768.9374246783590934
 21
354.4531810794941862
 31
0.0
  0
ARC
  5
3952F
  8
0
 10
6768.903136327709035
 20
354.4331415495184956
 30
0.0
 40
0.0397149059167277
 50
0.1936389236410765
 51
30.3037811683259086
  0
LINE
  5
39530
  8
0
 10
6768.9428510068164542
 20
354.4332757712197122
 30
0.0
 11
6768.9428510068164542
 21
354.3388840018416772
 31
0.0
  0
ARC
  5
39531
  8
0
 10
6768.9028001774331642
 20
354.3391075579161793
 30
0.0
 40
0.0400514533004086
 50
329.9716864341093014
 51
359.6801892314010729
  0
ARC
  5
39532
  8
0
 10
6750.5614485404939842
 20
364.9861316204559785
 30
0.0
 40
21.2476986195096416
 50
329.535696563755323
 51
329.8653407864354108
  0
ARC
  5
39534
  8
0
 10
6768.4308859668326477
 20
355.6744283514435097
 30
0.0
 40
0.0440002099177231
 50
54.0835113344262695
 51
87.9018463475659502
  0
LINE
  5
39535
  8
0
 10
6768.4566967296614166
 20
355.7100629272807168
 30
0.0
 11
6768.5549339545632392
 21
355.6345814654534934
 31
0.0
  0
ARC
  5
39536
  8
0
 10
6768.5800941238048836
 20
355.6660118970103781
 30
0.0
 40
0.0402604786877613
 50
231.322606924040997
 51
269.110313269691801
  0
ARC
  5
39537
  8
0
 10
6768.6891081371159089
 20
355.5862379012842212
 30
0.0
 40
0.0395382148829832
 50
0.0927120228804108
 51
88.1846351718702834
  0
ARC
  5
39538
  8
0
 10
6758.6740403300345861
 20
356.0018265936390094
 30
0.0
 40
10.0631884611347893
 50
352.2862656061465145
 51
357.633495281896387
  0
ARC
  5
39539
  8
0
 10
6768.6068599225191065
 20
354.6564322103964741
 30
0.0
 40
0.0396665699364531
 50
304.9161703441569102
 51
352.2860934070944268
  0
LINE
  5
3953A
  8
0
 10
6768.6295641674596482
 20
354.6239060050806984
 30
0.0
 11
6768.5530212970106732
 21
354.5704768373627189
 31
0.0
  0
ARC
  5
3953B
  8
0
 10
6768.5264189432045896
 20
354.6165946867308207
 30
0.0
 40
0.0532404100130943
 50
274.3920739737276904
 51
299.9778195927854085
  0
ARC
  5
3953C
  8
0
 10
6768.1273693357306911
 20
355.6840386553329836
 30
0.0
 40
0.0352049558591903
 50
47.7337784681533108
 51
77.4246485237068924
  0
LINE
  5
3953D
  8
0
 10
6768.1510473564603672
 20
355.7100912991807036
 30
0.0
 11
6768.2118498662039201
 21
355.6339924900037204
 31
0.0
  0
ARC
  5
3953E
  8
0
 10
6768.2343926445037141
 20
355.6582797778584109
 30
0.0
 40
0.033136825509302
 50
227.1333909248083103
 51
258.9592710066676773
  0
ARC
  5
3953F
  8
0
 10
6768.291912681613212
 20
355.5958113032895085
 30
0.0
 40
0.0302474843140345
 50
40.9069458502218382
 51
81.8898379783627064
  0
ARC
  5
39540
  8
0
 10
6768.2821809746437793
 20
355.5873793690755065
 30
0.0
 40
0.0431239603492934
 50
356.9181411857073272
 51
40.9069458502218382
  0
ARC
  5
39541
  8
0
 10
6750.8514381795039299
 20
356.0611405655404269
 30
0.0
 40
17.4802886588972903
 50
355.3730388988018944
 51
358.4393433774678783
  0
ARC
  5
39542
  8
0
 10
6768.2367118454603769
 20
354.6531057455952123
 30
0.0
 40
0.0381032161702672
 50
309.8511262075076047
 51
356.8942410905415272
  0
LINE
  5
39543
  8
0
 10
6768.2611281958597829
 20
354.6238534479807072
 30
0.0
 11
6768.2133048216282987
 21
354.5703419688534836
 31
0.0
  0
ARC
  5
39544
  8
0
 10
6768.1937246750494523
 20
354.594381550103094
 30
0.0
 40
0.0310045739643672
 50
275.3218581259257007
 51
309.1626835978802887
  0
ARC
  5
39545
  8
0
 10
6768.402507118063113
 20
354.4889174889885908
 30
0.0
 40
0.0370971681873538
 50
25.1763713544091701
 51
71.816814566055541
  0
LINE
  5
39546
  8
0
 10
6768.4360801504590199
 20
354.5046988508806862
 30
0.0
 11
6768.4548589660007565
 21
354.4531825328710966
 31
0.0
  0
ARC
  5
39547
  8
0
 10
6768.4245751997732441
 20
354.4379670093970276
 30
0.0
 40
0.0338912769235184
 50
351.8535821014634735
 51
26.6764026260333686
  0
LINE
  5
39548
  8
0
 10
6768.4581244860019069
 20
354.4331645053615034
 30
0.0
 11
6768.4592735572587117
 21
354.3388839425807078
 31
0.0
  0
ARC
  5
39549
  8
0
 10
6768.4120891240236233
 20
354.3389252099838131
 30
0.0
 40
0.0471844512818333
 50
335.1080703074935059
 51
359.9498892482059773
  0
LINE
  5
3954A
  8
0
 10
6768.4548902959450061
 20
354.3190648946551846
 30
0.0
 11
6768.4187555037588027
 21
354.2194134102807084
 31
0.0
  0
ARC
  5
3954B
  8
0
 10
6768.3826918488530282
 20
354.2367739221605234
 30
0.0
 40
0.0400246746129551
 50
292.7444182656205953
 51
334.2945219491728039
  0
ARC
  5
3954C
  8
0
 10
6768.1054432660766906
 20
354.5636013103048754
 30
0.0
 40
0.0396569911393714
 50
180.131020967193507
 51
263.9917610994859274
  0
LINE
  5
3954D
  8
0
 10
6766.6390251724906193
 20
354.6505693555682228
 30
0.0
 11
6768.6460908249291606
 21
354.6505693555682228
 31
0.0
  0
ARC
  5
3985E
  8
0
 10
6760.4538675442063322
 20
354.2275615933679092
 30
0.0
 40
0.0277
 50
203.1024198284106035
 51
270.0
  0
ARC
  5
3985F
  8
0
 10
6763.0189264435921359
 20
354.2275615933679092
 30
0.0
 40
0.0277
 50
270.0
 51
336.8873565454164805
  0
ARC
  5
39860
  8
0
 10
6766.4331914291542489
 20
354.2275616370455964
 30
0.0
 40
0.0277
 50
210.4643031629572931
 51
269.9999979306414843
  0
ARC
  5
39861
  8
0
 10
6768.8519245168836278
 20
354.2275615496894829
 30
0.0
 40
0.0277
 50
269.9999979306414843
 51
329.5356965638138149
  0
ARC
  5
39862
  8
0
 10
6754.6208689052909904
 20
354.2275615496894829
 30
0.0
 40
0.0277
 50
210.4643034361862135
 51
270.0000020693585157
  0
ARC
  5
39863
  8
0
 10
6757.0396019930212788
 20
354.2275616370455964
 30
0.0
 40
0.0277
 50
270.0000020693585157
 51
329.5356968369413266
  0
ENDSEC
  0
EOF
