  0
SECTION
  2
HEADER
  9
$ACADVER
  1
AC1009
  9
$INSBASE
 10
6825.4416322348861286
 20
188.9560056130640078
 30
0.0
  9
$EXTMIN
 10
6818.0909524176713603
 20
179.9192788477407134
 30
-0.0000000349181948
  9
$EXTMAX
 10
6832.6878085174403168
 20
190.3314083652979036
 30
0.0000000814935746
  9
$LIMMIN
 10
0.0
 20
0.0
  9
$LIMMAX
 10
11.6929133858000007
 20
8.2677165353999982
  9
$ORTHOMODE
 70
     0
  9
$REGENMODE
 70
     1
  9
$FILLMODE
 70
     1
  9
$QTEXTMODE
 70
     0
  9
$MIRRTEXT
 70
     0
  9
$DRAGMODE
 70
     2
  9
$LTSCALE
 40
0.6431102362
  9
$OSMODE
 70
  4095
  9
$ATTMODE
 70
     1
  9
$TEXTSIZE
 40
0.2
  9
$TRACEWID
 40
0.05
  9
$TEXTSTYLE
  7
STANDARD
  9
$CLAYER
  8
0
  9
$CELTYPE
  6
BYLAYER
  9
$CECOLOR
 62
   256
  9
$DIMSCALE
 40
1.0
  9
$DIMASZ
 40
0.1875
  9
$DIMEXO
 40
0.0625
  9
$DIMDLI
 40
0.4443307087
  9
$DIMRND
 40
0.0
  9
$DIMDLE
 40
0.0
  9
$DIMEXE
 40
0.125
  9
$DIMTP
 40
0.01
  9
$DIMTM
 40
0.01
  9
$DIMTXT
 40
2.0
  9
$DIMCEN
 40
0.1052362205
  9
$DIMTSZ
 40
0.0
  9
$DIMTOL
 70
     1
  9
$DIMLIM
 70
     0
  9
$DIMTIH
 70
     1
  9
$DIMTOH
 70
     1
  9
$DIMSE1
 70
     0
  9
$DIMSE2
 70
     0
  9
$DIMTAD
 70
     0
  9
$DIMZIN
 70
     0
  9
$DIMBLK
  1

  9
$DIMASO
 70
     1
  9
$DIMSHO
 70
     1
  9
$DIMPOST
  1
\X
  9
$DIMAPOST
  1

  9
$DIMALT
 70
     1
  9
$DIMALTD
 70
     2
  9
$DIMALTF
 40
25.3999999999999986
  9
$DIMLFAC
 40
1.0
  9
$DIMTOFL
 70
     0
  9
$DIMTVP
 40
0.0
  9
$DIMTIX
 70
     0
  9
$DIMSOXD
 70
     0
  9
$DIMSAH
 70
     0
  9
$DIMBLK1
  1

  9
$DIMBLK2
  1

  9
$DIMSTYLE
  2
STANDARD
  9
$DIMCLRD
 70
     0
  9
$DIMCLRE
 70
     0
  9
$DIMCLRT
 70
     0
  9
$DIMTFAC
 40
1.0
  9
$DIMGAP
 40
0.09
  9
$LUNITS
 70
     2
  9
$LUPREC
 70
     4
  9
$SKETCHINC
 40
0.1
  9
$FILLETRAD
 40
0.0
  9
$AUNITS
 70
     0
  9
$AUPREC
 70
     0
  9
$MENU
  1
.
  9
$ELEVATION
 40
0.0
  9
$PELEVATION
 40
0.0
  9
$THICKNESS
 40
0.0
  9
$LIMCHECK
 70
     0
  9
$BLIPMODE
 70
     0
  9
$CHAMFERA
 40
0.0
  9
$CHAMFERB
 40
0.0
  9
$SKPOLY
 70
     0
  9
$TDCREATE
 40
2458060.468368056230247
  9
$TDUPDATE
 40
2460307.5809259261004627
  9
$TDINDWG
 40
0.9728195602
  9
$TDUSRTIMER
 40
0.9728195602
  9
$USRTIMER
 70
     1
  9
$ANGBASE
 50
0.0
  9
$ANGDIR
 70
     0
  9
$PDMODE
 70
     0
  9
$PDSIZE
 40
0.3125
  9
$PLINEWID
 40
0.0
  9
$COORDS
 70
     1
  9
$SPLFRAME
 70
     0
  9
$SPLINETYPE
 70
     6
  9
$SPLINESEGS
 70
     8
  9
$ATTDIA
 70
     1
  9
$ATTREQ
 70
     1
  9
$HANDLING
 70
     1
  9
$HANDSEED
  5
30701
  9
$SURFTAB1
 70
     6
  9
$SURFTAB2
 70
     6
  9
$SURFTYPE
 70
     6
  9
$SURFU
 70
     6
  9
$SURFV
 70
     6
  9
$UCSNAME
  2

  9
$UCSORG
 10
0.0
 20
0.0
 30
0.0
  9
$UCSXDIR
 10
1.0
 20
0.0
 30
0.0
  9
$UCSYDIR
 10
0.0
 20
1.0
 30
0.0
  9
$PUCSNAME
  2

  9
$PUCSORG
 10
0.0
 20
0.0
 30
0.0
  9
$PUCSXDIR
 10
1.0
 20
0.0
 30
0.0
  9
$PUCSYDIR
 10
0.0
 20
1.0
 30
0.0
  9
$USERI1
 70
     0
  9
$USERI2
 70
     0
  9
$USERI3
 70
     0
  9
$USERI4
 70
     0
  9
$USERI5
 70
     0
  9
$USERR1
 40
0.0
  9
$USERR2
 40
0.0
  9
$USERR3
 40
0.0
  9
$USERR4
 40
0.0
  9
$USERR5
 40
0.0
  9
$WORLDVIEW
 70
     1
  9
$SHADEDGE
 70
     3
  9
$SHADEDIF
 70
    70
  9
$TILEMODE
 70
     1
  9
$MAXACTVP
 70
    64
  9
$PLIMCHECK
 70
     0
  9
$PEXTMIN
 10
1.0000000000000000E+20
 20
1.0000000000000000E+20
 30
1.0000000000000000E+20
  9
$PEXTMAX
 10
-1.0000000000000000E+20
 20
-1.0000000000000000E+20
 30
-1.0000000000000000E+20
  9
$PLIMMIN
 10
0.0
 20
0.0
  9
$PLIMMAX
 10
12.0
 20
9.0
  9
$UNITMODE
 70
     0
  9
$VISRETAIN
 70
     1
  9
$PLINEGEN
 70
     0
  9
$PSLTSCALE
 70
     1
  0
ENDSEC
  0
SECTION
  2
TABLES
  0
TABLE
  2
VPORT
 70
     1
  0
VPORT
  2
*ACTIVE
 70
     0
 10
0.0
 20
0.0
 11
1.0
 21
1.0
 12
2914.0240240222428838
 22
52.54573850398031
 13
0.0
 23
0.0
 14
1.0
 24
1.0
 15
0.0
 25
0.0
 16
0.0
 26
0.0
 36
60.4960186965801583
 17
3911.3653564453120453
 27
132.5796051025390057
 37
0.0
 40
10.5059324861838608
 41
2.8481203007518792
 42
50.0
 43
0.0
 44
0.0
 50
0.0
 51
0.0
 71
     0
 72
   100
 73
     1
 74
     1
 75
     0
 76
     0
 77
     0
 78
     0
  0
ENDTAB
  0
TABLE
  2
LTYPE
 70
     2
  0
LTYPE
  2
CONTINUOUS
 70
     0
  3
Solid line
 72
    65
 73
     0
 40
0.0
  0
LTYPE
  2
PHANTOM2
 70
     0
  3
___ _ _ ___ _ _ ___ _ _ ___ _ _
 72
    65
 73
     6
 40
1.25
 49
0.625
 49
-0.125
 49
0.125
 49
-0.125
 49
0.125
 49
-0.125
  0
ENDTAB
  0
TABLE
  2
LAYER
 70
     2
  0
LAYER
  2
0
 70
     0
 62
   255
  6
CONTINUOUS
  0
LAYER
  2
DEFPOINTS
 70
     0
 62
     7
  6
CONTINUOUS
  0
ENDTAB
  0
TABLE
  2
STYLE
 70
     1
  0
STYLE
  2
STANDARD
 70
     0
 40
0.0
 41
0.8
 50
0.0
 71
     0
 42
0.2
  3
txt
  4

  0
ENDTAB
  0
TABLE
  2
VIEW
 70
     0
  0
ENDTAB
  0
TABLE
  2
UCS
 70
     0
  0
ENDTAB
  0
TABLE
  2
APPID
 70
    11
  0
APPID
  2
ACAD
 70
     0
  0
APPID
  2
ACAD_MLEADERVER
 70
     0
  0
APPID
  2
ACAD_EXEMPT_FROM_CAD_STANDARDS
 70
     0
  0
APPID
  2
ACAD_NAV_VCDISPLAY
 70
     0
  0
APPID
  2
ACAECLAYERSTANDARD
 70
     0
  0
APPID
  2
ACCMTRANSPARENCY
 70
     0
  0
APPID
  2
ACAD_DSTYLE_DIMJAG
 70
     0
  0
APPID
  2
ACAD_DSTYLE_DIMTALN
 70
     0
  0
APPID
  2
ACDBATTR
 70
     0
  0
APPID
  2
ACADANNOTATIVE
 70
     0
  0
APPID
  2
DCO15
 70
     0
  0
ENDTAB
  0
TABLE
  2
DIMSTYLE
 70
     1
  0
DIMSTYLE
  2
STANDARD
 70
     0
  3

  4

  5

  6

  7

 40
1.0
 41
0.1875
 42
0.0625
 43
0.38
 44
0.125
 45
0.0
 46
0.0
 47
0.01
 48
0.01
140
0.15625
141
0.09
142
0.0
143
25.3999999999999986
144
1.0
145
0.0
146
1.0
147
0.09
 71
     1
 72
     0
 73
     1
 74
     1
 75
     0
 76
     0
 77
     0
 78
     4
170
     0
171
     2
172
     0
173
     0
174
     0
175
     0
176
     0
177
     0
178
     0
  0
ENDTAB
  0
ENDSEC
  0
SECTION
  2
BLOCKS
  0
BLOCK
  8
0
  2
$MODEL_SPACE
 70
     0
 10
0.0
 20
0.0
 30
0.0
  3
$MODEL_SPACE
  1

  0
ENDBLK
  5
21
  8
0
  0
BLOCK
 67
     1
  8
0
  2
$PAPER_SPACE
 70
     0
 10
0.0
 20
0.0
 30
0.0
  3
$PAPER_SPACE
  1

  0
ENDBLK
  5
1D
 67
     1
  8
0
  0
BLOCK
  8
0
  2
_FILLED
 70
     0
 10
0.0
 20
0.0
 30
0.0
  3
_FILLED
  1

  0
SOLID
  5
257AF
  8
0
  6
BYBLOCK
 62
     0
 10
0.0
 20
0.0
 30
0.0
 11
-1.0
 21
0.1666666667
 31
0.0
 12
-1.0
 22
-0.1666666667
 32
0.0
 13
-1.0
 23
-0.1666666667
 33
0.0
  0
ENDBLK
  5
257B0
  8
0
  6
BYBLOCK
 62
     0
  0
ENDSEC
  0
SECTION
  2
ENTITIES
  0
ATTDEF
  5
256E4
  8
DEFPOINTS
 10
6825.4426176947727072
 20
188.9553272659495917
 30
0.0
 40
0.001
  1
K-EX27105T-9
  3

  2
MODELNUMBER
 70
     0
1001
ACDBATTR
1070
     0
1070
     1
  0
ATTDEF
  5
256E5
  8
DEFPOINTS
 10
6825.4424918851173061
 20
188.9536604255704901
 30
0.0
 40
0.001
  1
OCCASION
  3

  2
TRADENAME
 70
     0
1001
ACDBATTR
1070
     0
1070
     1
  0
ATTDEF
  5
256E6
  8
DEFPOINTS
 10
6825.4426176947727072
 20
188.9519939326162898
 30
0.0
 40
0.001
  1
BATH FAUCET
  3

  2
PRODUCT
 70
     0
1001
ACDBATTR
1070
     0
1070
     1
  0
LINE
  5
302AD
  8
0
 10
6824.8216471185041883
 20
189.0717829955518141
 30
0.0
 11
6824.8216471185032788
 21
180.3909730250435075
 31
0.0
  0
ARC
  5
302AE
  8
0
 10
6824.1104674094167422
 20
189.3130601790514902
 30
0.0
 40
0.0483167734657641
 50
143.2839382067255087
 51
180.1967213532230971
  0
ARC
  5
302AF
  8
0
 10
6826.3450171164986386
 20
187.63538342939421
 30
0.0
 40
2.8425627037929249
 50
108.8587192227856946
 51
143.1042649375879989
  0
ARC
  5
302B0
  8
0
 10
6825.4416326011732963
 20
190.2825669176160943
 30
0.0
 40
0.0454844976722851
 50
90.0004614035305366
 51
109.8346622484167057
  0
ARC
  5
302B1
  8
0
 10
6825.4191795895512769
 20
190.3504807052646868
 30
0.0
 40
2.7712821435191528
 50
252.9058042093789993
 51
257.5483371734550815
  0
ARC
  5
302B2
  8
0
 10
6824.6168966007699055
 20
187.7448581707880919
 30
0.0
 40
0.0449525714488575
 50
213.902859478821
 51
254.0970696768631001
  0
ARC
  5
302B3
  8
0
 10
6826.9141561447377171
 20
189.3586284790690115
 30
0.0
 40
2.8523718926595301
 50
180.9187050564698893
 51
215.0684776947182968
  0
LINE
  5
302B4
  8
0
 10
6824.0647114776738817
 20
189.3285813036370939
 30
0.0
 11
6824.8238961014621964
 21
189.0807229412280037
 31
0.0
  0
ARC
  5
302B5
  8
0
 10
6824.8691693042937914
 20
189.0645809037490892
 30
0.0
 40
0.0480648340118195
 50
146.9705156702827082
 51
171.3822767404734009
  0
ARC
  5
302B6
  8
0
 10
6825.7481627527422461
 20
188.4581060252955922
 30
0.0
 40
1.115961905479834
 50
106.5363069963003966
 51
145.4634960923106917
  0
ARC
  5
302B7
  8
0
 10
6825.4416282977636001
 20
189.4905461042505124
 30
0.0
 40
0.0389772775850121
 50
73.4513097792807201
 51
106.5363069963003966
  0
LINE
  5
302B8
  8
0
 10
6824.5919636746493779
 20
187.7074538545276994
 30
0.0
 11
6824.8216471185032788
 21
188.024830185064701
 31
0.0
  0
ARC
  5
302B9
  8
0
 10
6824.8099599547122125
 20
189.7498828117277014
 30
0.0
 40
0.1617953838235866
 50
126.9000595720689972
 51
146.2892404559507042
  0
ARC
  5
302BA
  8
0
 10
6824.8215205930619049
 20
189.7421696874089037
 30
0.0
 40
0.1756928888451832
 50
146.2892404559507042
 51
174.0539524433185932
  0
ARC
  5
302BB
  8
0
 10
6824.8126663461607677
 20
189.7430918774037139
 30
0.0
 40
0.166790747385265
 50
174.0539524433185932
 51
199.018021580285307
  0
ARC
  5
302BC
  8
0
 10
6824.7497288298936837
 20
189.7213986070765088
 30
0.0
 40
0.1002195153753045
 50
199.018021580285307
 51
219.6268212508246052
  0
ARC
  5
302BD
  8
0
 10
6824.7462647497568469
 20
189.7185301383090916
 30
0.0
 40
0.095721964456344
 50
219.6268212508246052
 51
252.7154192544045941
  0
ARC
  5
302BE
  8
0
 10
6824.7488774740213557
 20
189.7393404507392063
 30
0.0
 40
0.1164272249850828
 50
254.5308368671834955
 51
280.9797148773151889
  0
ARC
  5
302BF
  8
0
 10
6824.7276962883515807
 20
189.8485145521063941
 30
0.0
 40
0.2276370583441663
 50
280.9797148773151889
 51
303.8191871874603862
  0
ARC
  5
302C0
  8
0
 10
6824.6666829611776848
 20
189.9395891810700903
 30
0.0
 40
0.3372601130980433
 50
303.8191871874603862
 51
317.1501209447465044
  0
ARC
  5
302C1
  8
0
 10
6824.7931780878652717
 20
189.8222486955179988
 30
0.0
 40
0.1647208230065801
 50
317.1501209447465044
 51
344.0780381087704995
  0
ARC
  5
302C2
  8
0
 10
6824.8654096164391376
 20
189.8016430665867063
 30
0.0
 40
0.0896076706061912
 50
344.0780381087704995
 51
25.5140878377485798
  0
ARC
  5
302C3
  8
0
 10
6824.8091900013168924
 20
189.7502177530583936
 30
0.0
 40
0.161065774006176
 50
107.7319508624827051
 51
126.7525692919263065
  0
ARC
  5
302C4
  8
0
 10
6824.8132626767137481
 20
189.7374809012781895
 30
0.0
 40
0.1744379121356795
 50
78.3155657040985744
 51
107.7319508624827051
  0
ARC
  5
302C5
  8
0
 10
6824.8144384865918255
 20
189.7431664504935043
 30
0.0
 40
0.1686320531337825
 50
53.5507587216359511
 51
78.3155657040982334
  0
ARC
  5
302C6
  8
0
 10
6824.8541020184457011
 20
189.7968680690491965
 30
0.0
 40
0.1018708398843262
 50
25.1984368504427003
 51
53.5507587216369174
  0
ARC
  5
302C7
  8
0
 10
6825.7470616413647804
 20
180.9998618659095939
 30
0.0
 40
1.114184090873749
 50
214.5035281578047091
 51
253.4954450963429906
  0
ARC
  5
302C8
  8
0
 10
6824.8627840806821041
 20
180.3920346344808934
 30
0.0
 40
0.0411506582185268
 50
181.4782871509216875
 51
214.5036133508181138
  0
LINE
  5
302C9
  8
0
 10
6826.0616179052049119
 20
189.0717829955518141
 30
0.0
 11
6826.0616179052067309
 21
180.3909730250435075
 31
0.0
  0
ARC
  5
302CA
  8
0
 10
6826.772797614292358
 20
189.3130601790514902
 30
0.0
 40
0.0483167734657641
 50
359.8032786467769029
 51
36.7160617932744771
  0
ARC
  5
302CB
  8
0
 10
6824.5382493399556552
 20
187.6353848851867099
 30
0.0
 40
2.8425606839829971
 50
36.8957289333428804
 51
71.1413091870476393
  0
ARC
  5
302CC
  8
0
 10
6825.4640854341569138
 20
190.3504807052646868
 30
0.0
 40
2.7712821435191528
 50
282.4516628265449185
 51
287.094195790621086
  0
ARC
  5
302CD
  8
0
 10
6826.2663684229410137
 20
187.7448581707880919
 30
0.0
 40
0.0449525714488575
 50
285.9029303231370136
 51
326.0971405211790284
  0
ARC
  5
302CE
  8
0
 10
6823.9691088789713831
 20
189.3586284790690115
 30
0.0
 40
2.8523718926595301
 50
324.9315223052817032
 51
359.0812949435301107
  0
LINE
  5
302CF
  8
0
 10
6826.8185535460352185
 20
189.3285813036370939
 30
0.0
 11
6826.0593689222478133
 21
189.0807229412280037
 31
0.0
  0
ARC
  5
302D0
  8
0
 10
6826.0140957194153088
 20
189.0645809037490892
 30
0.0
 40
0.0480648340118195
 50
8.6177232595266133
 51
33.029484329717242
  0
ARC
  5
302D1
  8
0
 10
6825.1351022709659446
 20
188.4581060252955922
 30
0.0
 40
1.115961905479834
 50
34.5365039076892799
 51
73.4636930036996034
  0
LINE
  5
302D2
  8
0
 10
6826.2913013490597223
 20
187.7074538545276994
 30
0.0
 11
6826.0616179052067309
 21
188.024830185064701
 31
0.0
  0
ARC
  5
302D3
  8
0
 10
6825.4443736384291697
 20
179.9879445487686098
 30
0.0
 40
0.0580342202122322
 50
256.2008138953033267
 51
267.2924711354768874
  0
ARC
  5
302D4
  8
0
 10
6825.1362043797353181
 20
180.9998608942435965
 30
0.0
 40
1.1141827185241731
 50
286.504492610207194
 51
325.4964839659978111
  0
ARC
  5
302D5
  8
0
 10
6826.0204809430279056
 20
180.3920346344808934
 30
0.0
 40
0.0411506582185268
 50
325.4963866491818862
 51
358.5217128490783125
  0
LINE
  5
302D6
  8
0
 10
6819.535470972836265
 20
190.2440437949977081
 30
0.0
 11
6819.535470972836265
 21
190.1724512802657898
 31
0.0
  0
LINE
  5
302D7
  8
0
 10
6819.535470972836265
 20
189.8630007336064978
 30
0.0
 11
6819.535470972836265
 21
189.7337622339119036
 31
0.0
  0
ARC
  5
302D8
  8
0
 10
6819.5256902187029482
 20
190.129763317454092
 30
0.0
 40
0.1146982593547609
 50
74.2998178938225919
 51
85.1082315309875241
  0
ARC
  5
302D9
  8
0
 10
6818.687343225064069
 20
187.7125974861135944
 30
0.0
 40
2.6729225123593272
 50
36.9407642768443623
 51
71.0188996498343528
  0
ARC
  5
302DA
  8
0
 10
6820.7755191922760787
 20
189.2828223002038897
 30
0.0
 40
0.0602448139653886
 50
357.3778496012168944
 51
36.9000920964389181
  0
ARC
  5
302DB
  8
0
 10
6818.1631624765223023
 20
189.3258372345698035
 30
0.0
 40
2.6729303701391571
 50
324.9408406065414852
 51
359.0188228501846197
  0
ARC
  5
302DC
  8
0
 10
6820.3018325486573303
 20
187.8250811642010945
 30
0.0
 40
0.0602347534468451
 50
285.3734647920986731
 51
324.9018109067220053
  0
ARC
  5
302DD
  8
0
 10
6819.5354702700806229
 20
190.3228549866288972
 30
0.0
 40
2.6729062624120021
 50
270.0000150640710217
 51
287.0190298762825023
  0
ARC
  5
302DE
  8
0
 10
6819.5354708790382574
 20
190.1470367533351009
 30
0.0
 40
0.0254145269309329
 50
70.8808469867947935
 51
89.9998115928857061
  0
ARC
  5
302DF
  8
0
 10
6818.695405913103059
 20
187.7236940747035874
 30
0.0
 40
2.5902339913511181
 50
37.1192500133283403
 51
70.8808469867947935
  0
ARC
  5
302E0
  8
0
 10
6820.7405408329850616
 20
189.2714978749908141
 30
0.0
 40
0.0254194864195398
 50
358.8819475232019158
 51
37.1192500133257468
  0
ARC
  5
302E1
  8
0
 10
6818.1763880215039535
 20
189.3215403277926896
 30
0.0
 40
2.5900605700226871
 50
325.1180986157871757
 51
358.8819475232019158
  0
ARC
  5
302E2
  8
0
 10
6820.2802451443312748
 20
187.8548570375770055
 30
0.0
 40
0.0254212840672655
 50
286.8834629363984163
 51
325.1180986157871757
  0
ARC
  5
302E3
  8
0
 10
6819.5395437199576918
 20
190.295324675509903
 30
0.0
 40
2.5758175065914131
 50
269.9094068901492847
 51
286.8834629363984163
  0
ARC
  5
302E4
  8
0
 10
6819.5354849584609838
 20
189.9591433907187081
 30
0.0
 40
0.0599029241082987
 50
72.3215177109693599
 51
90.0196177615147661
  0
ARC
  5
302E5
  8
0
 10
6818.9237043222938155
 20
188.0385640102805951
 30
0.0
 40
2.075566505636516
 50
35.6698900364958078
 51
72.3313092712537582
  0
ARC
  5
302E6
  8
0
 10
6820.559418596980322
 20
189.2126409970715883
 30
0.0
 40
0.0621073033381147
 50
0.3300200235143843
 51
35.6698900364958078
  0
ARC
  5
302E7
  8
0
 10
6818.5460344835310025
 20
189.2010439051670119
 30
0.0
 40
2.0755248161333499
 50
323.6727273353558871
 51
0.3300200235143843
  0
ARC
  5
302E8
  8
0
 10
6820.1698773579819317
 20
188.0070222860545925
 30
0.0
 40
0.0599471550603085
 50
288.0485515939495258
 51
323.6727273353558871
  0
ARC
  5
302E9
  8
0
 10
6819.5372894068541427
 20
189.9808200820284867
 30
0.0
 40
2.132636810273199
 50
269.9511456396809876
 51
287.7781017926461118
  0
ARC
  5
302EA
  8
0
 10
6819.5359373407100065
 20
189.8169862590615935
 30
0.0
 40
0.0460168378600337
 50
69.9485398863217114
 51
90.580686756448884
  0
ARC
  5
302EB
  8
0
 10
6818.8818369963955774
 20
187.9802948705799963
 30
0.0
 40
1.995703256505664
 50
37.6114647533790603
 51
70.3873195821044675
  0
ARC
  5
302EC
  8
0
 10
6820.4245376629760358
 20
189.1688261579604102
 30
0.0
 40
0.0482608394513931
 50
358.3805480451787844
 51
37.6114647533790603
  0
ARC
  5
302ED
  8
0
 10
6818.4769299938752738
 20
189.2238895023226917
 30
0.0
 40
1.996646736709129
 50
325.6204452498416231
 51
358.3805480451787844
  0
ARC
  5
302EE
  8
0
 10
6820.0851208623798811
 20
188.1235809348513897
 30
0.0
 40
0.0480685850309931
 50
286.1657576677492898
 51
325.620445249840202
  0
ARC
  5
302EF
  8
0
 10
6819.5271600907108223
 20
190.0483874793854113
 30
0.0
 40
2.052114606609019
 50
270.2320434589656202
 51
286.1657576677492898
  0
ARC
  5
302F0
  8
0
 10
6819.5355222434400275
 20
189.9921876929969073
 30
0.0
 40
1.874008021342112
 50
269.9958730688720152
 51
285.3016118516717938
  0
ARC
  5
302F1
  8
0
 10
6820.0007121397420633
 20
188.2391363211771989
 30
0.0
 40
0.0619260986669225
 50
298.3028728217944945
 51
314.1776328570097121
  0
ARC
  5
302F2
  8
0
 10
6818.4789501688983364
 20
189.223333721878106
 30
0.0
 40
1.8726997261070779
 50
326.6833476301309247
 51
357.3114018645562169
  0
ARC
  5
302F3
  8
0
 10
6820.2864280507201329
 20
189.1239448788101072
 30
0.0
 40
0.0642068837226739
 50
10.3585310175075502
 51
25.6463504221707588
  0
ARC
  5
302F4
  8
0
 10
6818.8818769585113841
 20
187.9803784648848932
 30
0.0
 40
1.8737086092669919
 50
38.6934795751345888
 51
69.3049364185542061
  0
ARC
  5
302F5
  8
0
 10
6819.5356731789088371
 20
189.6729414221483978
 30
0.0
 40
0.0608211478916427
 50
82.0980133995798838
 51
90.1904859793246487
  0
LINE
  5
302F6
  8
0
 10
6819.535470972836265
 20
188.1181796723562059
 30
0.0
 11
6819.535470972836265
 21
187.9962897020130868
 31
0.0
  0
LINE
  5
302F7
  8
0
 10
6819.535470972836265
 20
187.7195103887272012
 30
0.0
 11
6819.535470972836265
 21
187.6499487242170119
 31
0.0
  0
ARC
  5
302F8
  8
0
 10
6819.5452517269695818
 20
190.129763317454092
 30
0.0
 40
0.1146982593547609
 50
94.8917684690124759
 51
105.7001821061773938
  0
ARC
  5
302F9
  8
0
 10
6820.3835987206093705
 20
187.7125974861135944
 30
0.0
 40
2.6729225123593272
 50
108.9811003501656046
 51
143.0592357231556093
  0
ARC
  5
302FA
  8
0
 10
6818.2954227533973608
 20
189.2828223002038897
 30
0.0
 40
0.0602448139653886
 50
143.0999079035611032
 51
182.6221503987829919
  0
ARC
  5
302FB
  8
0
 10
6820.9077794691511372
 20
189.3258372345698035
 30
0.0
 40
2.6729303701391571
 50
180.9811771498154087
 51
215.0591593934584012
  0
ARC
  5
302FC
  8
0
 10
6818.7691093970161091
 20
187.8250811642010945
 30
0.0
 40
0.0602347534468451
 50
215.0981890932779095
 51
254.6265352079012132
  0
ARC
  5
302FD
  8
0
 10
6819.5354716755919071
 20
190.3228549866288972
 30
0.0
 40
2.6729062624120021
 50
252.9809701237174977
 51
269.9999849359289783
  0
ARC
  5
302FE
  8
0
 10
6819.5354710666351821
 20
190.1470367533351009
 30
0.0
 40
0.0254145269309329
 50
90.0001884071142797
 51
109.1191530132052065
  0
ARC
  5
302FF
  8
0
 10
6820.3755360325703805
 20
187.7236940747035874
 30
0.0
 40
2.5902339913511181
 50
109.1191530132052065
 51
142.8807499866717023
  0
ARC
  5
30300
  8
0
 10
6818.3304011126883779
 20
189.2714978749908141
 30
0.0
 40
0.0254194864195398
 50
142.8807499866742035
 51
181.1180524767979989
  0
ARC
  5
30301
  8
0
 10
6820.894553924167667
 20
189.3215403277926896
 30
0.0
 40
2.5900605700226871
 50
181.1180524767979989
 51
214.8819013842127958
  0
ARC
  5
30302
  8
0
 10
6818.7906968013403457
 20
187.8548570375770055
 30
0.0
 40
0.0254212840672655
 50
214.8819013842114884
 51
253.1165370636016121
  0
ARC
  5
30303
  8
0
 10
6819.5313982257148382
 20
190.295324675509903
 30
0.0
 40
2.5758175065914131
 50
253.1165370636016121
 51
270.0905931098507153
  0
ARC
  5
30304
  8
0
 10
6819.5354569872097272
 20
189.9591433907187081
 30
0.0
 40
0.0599029241082987
 50
89.9803822384852339
 51
107.6784822890305975
  0
ARC
  5
30305
  8
0
 10
6820.147237623379624
 20
188.0385640102805951
 30
0.0
 40
2.075566505636516
 50
107.6686907287461992
 51
144.3301099635042135
  0
ARC
  5
30306
  8
0
 10
6818.5115233486931174
 20
189.2126409970715883
 30
0.0
 40
0.0621073033381147
 50
144.3301099635042135
 51
179.6699799764855925
  0
ARC
  5
30307
  8
0
 10
6820.524907462142437
 20
189.2010439051670119
 30
0.0
 40
2.0755248161333499
 50
179.6699799764855925
 51
216.3272726646441129
  0
ARC
  5
30308
  8
0
 10
6818.9010645876905983
 20
188.0070222860545925
 30
0.0
 40
0.0599471550603085
 50
216.3272726646441129
 51
251.9514484060505026
  0
ARC
  5
30309
  8
0
 10
6819.5336525388192968
 20
189.9808200820284867
 30
0.0
 40
2.132636810273199
 50
252.2218982073538882
 51
270.0488543603190124
  0
ARC
  5
3030A
  8
0
 10
6819.5350046049616139
 20
189.8169862590615935
 30
0.0
 40
0.0460168378600337
 50
89.4193132435511018
 51
110.0514601136783028
  0
ARC
  5
3030B
  8
0
 10
6820.1891049492751335
 20
187.9802948705799963
 30
0.0
 40
1.995703256505664
 50
109.6126804178955041
 51
142.3885352466209042
  0
ARC
  5
3030C
  8
0
 10
6818.6464042826974037
 20
189.1688261579604102
 30
0.0
 40
0.0482608394513931
 50
142.3885352466209042
 51
181.6194519548211872
  0
ARC
  5
3030D
  8
0
 10
6820.5940119517972562
 20
189.2238895023226917
 30
0.0
 40
1.996646736709129
 50
181.6194519548211872
 51
214.3795547501584053
  0
ARC
  5
3030E
  8
0
 10
6818.9858210832917393
 20
188.1235809348513897
 30
0.0
 40
0.0480685850309931
 50
214.379554750159798
 51
253.8342423322507102
  0
ARC
  5
3030F
  8
0
 10
6819.5437818549617077
 20
190.0483874793854113
 30
0.0
 40
2.052114606609019
 50
253.8342423322507102
 51
269.7679565410343798
  0
ARC
  5
30310
  8
0
 10
6819.5354197022306835
 20
189.9921876929969073
 30
0.0
 40
1.874008021342112
 50
254.6983881483282062
 51
270.0041269311279848
  0
ARC
  5
30311
  8
0
 10
6819.0702298059295572
 20
188.2391363211771989
 30
0.0
 40
0.0619260986669225
 50
225.8223671429902879
 51
241.6971271782053918
  0
ARC
  5
30312
  8
0
 10
6820.5919917767741936
 20
189.223333721878106
 30
0.0
 40
1.8726997261070779
 50
182.6885981354438115
 51
213.3166523698691037
  0
ARC
  5
30313
  8
0
 10
6818.7845138949533066
 20
189.1239448788101072
 30
0.0
 40
0.0642068837226739
 50
154.3536495778292021
 51
169.6414689824923983
  0
ARC
  5
30314
  8
0
 10
6820.1890649871611458
 20
187.9803784648848932
 30
0.0
 40
1.8737086092669919
 50
110.6950635814457939
 51
141.306520424865397
  0
ARC
  5
30315
  8
0
 10
6819.5352687667618738
 20
189.6729414221483978
 30
0.0
 40
0.0608211478916427
 50
89.8095140206753513
 51
97.9019866004201162
  0
LINE
  5
30316
  8
0
 10
6820.0373211430496667
 20
188.1891901243959921
 30
0.0
 11
6820.1134259460895919
 21
188.084729794546206
 31
0.0
  0
LINE
  5
30317
  8
0
 10
6820.2951628014779999
 20
187.8342729371867108
 30
0.0
 11
6820.3372082498808595
 21
187.7763288792735921
 31
0.0
  0
LINE
  5
30318
  8
0
 10
6820.8330887025231277
 20
189.3005758660316928
 30
0.0
 11
6820.7649546691436626
 21
189.2785770623603128
 31
0.0
  0
LINE
  5
30319
  8
0
 10
6820.4705109152782825
 20
189.1835084158655889
 30
0.0
 11
6820.3474915806191348
 21
189.1437884982750006
 31
0.0
  0
LINE
  5
3031A
  8
0
 10
6818.7234503650533952
 20
189.1437884982750006
 30
0.0
 11
6818.6004310303942475
 21
189.1835084158655889
 31
0.0
  0
LINE
  5
3031B
  8
0
 10
6818.3059872765279579
 20
189.2785770623603128
 30
0.0
 11
6818.2378532431503118
 21
189.3005758660316928
 31
0.0
  0
LINE
  5
3031C
  8
0
 10
6819.0336208026219538
 20
188.1891901243959921
 30
0.0
 11
6818.9576589512053033
 21
188.0846260483386914
 31
0.0
  0
LINE
  5
3031D
  8
0
 10
6818.7757842077216992
 20
187.8342692685100985
 30
0.0
 11
6818.7337068586402893
 21
187.7763483641656137
 31
0.0
  0
LINE
  5
3031E
  8
0
 10
6831.347793497481689
 20
190.2440437949977081
 30
0.0
 11
6831.347793497481689
 21
190.1724512802657898
 31
0.0
  0
LINE
  5
3031F
  8
0
 10
6831.347793497481689
 20
189.8630007336064978
 30
0.0
 11
6831.347793497481689
 21
189.7337622339119036
 31
0.0
  0
ARC
  5
30320
  8
0
 10
6831.3575742516159153
 20
190.129763317454092
 30
0.0
 40
0.1146982593547609
 50
94.8917684690124759
 51
105.7001821061773938
  0
ARC
  5
30321
  8
0
 10
6832.1959212452547945
 20
187.7125974861135944
 30
0.0
 40
2.6729225123593272
 50
108.9811003501656046
 51
143.0592357231556093
  0
ARC
  5
30322
  8
0
 10
6830.1077452780409658
 20
189.2828223002038897
 30
0.0
 40
0.0602448139653886
 50
143.0999079035611032
 51
182.6221503987829919
  0
ARC
  5
30323
  8
0
 10
6832.7201019937965611
 20
189.3258372345698035
 30
0.0
 40
2.6729303701391571
 50
180.9811771498154087
 51
215.0591593934584012
  0
ARC
  5
30324
  8
0
 10
6830.5814319216624426
 20
187.8250811642010945
 30
0.0
 40
0.0602347534468451
 50
215.0981890932779095
 51
254.6265352079012132
  0
ARC
  5
30325
  8
0
 10
6831.3477942002373311
 20
190.3228549866288972
 30
0.0
 40
2.6729062624120021
 50
252.9809701237174977
 51
269.9999849359289783
  0
ARC
  5
30326
  8
0
 10
6831.3477935912806061
 20
190.1470367533351009
 30
0.0
 40
0.0254145269309329
 50
90.0001884071142797
 51
109.1191530132052065
  0
ARC
  5
30327
  8
0
 10
6832.1878585572158045
 20
187.7236940747035874
 30
0.0
 40
2.5902339913511181
 50
109.1191530132052065
 51
142.8807499866717023
  0
ARC
  5
30328
  8
0
 10
6830.1427236373338019
 20
189.2714978749908141
 30
0.0
 40
0.0254194864195398
 50
142.8807499866742035
 51
181.1180524767979989
  0
ARC
  5
30329
  8
0
 10
6832.7068764488140005
 20
189.3215403277926896
 30
0.0
 40
2.5900605700226871
 50
181.1180524767979989
 51
214.8819013842127958
  0
ARC
  5
3032A
  8
0
 10
6830.6030193259866792
 20
187.8548570375770055
 30
0.0
 40
0.0254212840672655
 50
214.8819013842127958
 51
253.1165370636016121
  0
ARC
  5
3032B
  8
0
 10
6831.3437207503611717
 20
190.295324675509903
 30
0.0
 40
2.5758175065914131
 50
253.1165370636016121
 51
270.0905931098507153
  0
ARC
  5
3032C
  8
0
 10
6831.3477795118560607
 20
189.9591433907187081
 30
0.0
 40
0.0599029241082987
 50
89.9803822384852339
 51
107.6784822890305975
  0
ARC
  5
3032D
  8
0
 10
6831.959560148025048
 20
188.0385640102805951
 30
0.0
 40
2.075566505636516
 50
107.6686907287461992
 51
144.3301099635042135
  0
ARC
  5
3032E
  8
0
 10
6830.3238458733394509
 20
189.2126409970715883
 30
0.0
 40
0.0621073033381147
 50
144.3301099635042135
 51
179.6699799764855925
  0
ARC
  5
3032F
  8
0
 10
6832.337229986787861
 20
189.2010439051670119
 30
0.0
 40
2.0755248161333499
 50
179.6699799764855925
 51
216.3272726646441129
  0
ARC
  5
30330
  8
0
 10
6830.7133871123360223
 20
188.0070222860545925
 30
0.0
 40
0.0599471550603085
 50
216.3272726646441129
 51
251.9514484060505026
  0
ARC
  5
30331
  8
0
 10
6831.3459750634629017
 20
189.9808200820284867
 30
0.0
 40
2.132636810273199
 50
252.2218982073538882
 51
270.0488543603190124
  0
ARC
  5
30332
  8
0
 10
6831.3473271296070379
 20
189.8169862590615935
 30
0.0
 40
0.0460168378600337
 50
89.4193132435511018
 51
110.0514601136783028
  0
ARC
  5
30333
  8
0
 10
6832.0014274739205575
 20
187.9802948705799963
 30
0.0
 40
1.995703256505664
 50
109.6126804178955041
 51
142.3885352466209042
  0
ARC
  5
30334
  8
0
 10
6830.4587268073428277
 20
189.1688261579604102
 30
0.0
 40
0.0482608394513931
 50
142.3885352466209042
 51
181.6194519548211872
  0
ARC
  5
30335
  8
0
 10
6832.4063344764435897
 20
189.2238895023226917
 30
0.0
 40
1.996646736709129
 50
181.6194519548211872
 51
214.3795547501584053
  0
ARC
  5
30336
  8
0
 10
6830.7981436079389823
 20
188.1235809348513897
 30
0.0
 40
0.0480685850309931
 50
214.379554750159798
 51
253.8342423322507102
  0
ARC
  5
30337
  8
0
 10
6831.3561043796071317
 20
190.0483874793854113
 30
0.0
 40
2.052114606609019
 50
253.8342423322507102
 51
269.7679565410343798
  0
ARC
  5
30338
  8
0
 10
6831.3477422268779264
 20
189.9921876929969073
 30
0.0
 40
1.874008021342112
 50
254.6983881483282062
 51
270.0041269311279848
  0
ARC
  5
30339
  8
0
 10
6830.8825523305749812
 20
188.2391363211771989
 30
0.0
 40
0.0619260986669225
 50
225.8223671429902879
 51
241.6971271782053918
  0
ARC
  5
3033A
  8
0
 10
6832.4043143014196175
 20
189.223333721878106
 30
0.0
 40
1.8726997261070779
 50
182.6885981354438115
 51
213.3166523698691037
  0
ARC
  5
3033B
  8
0
 10
6830.5968364195987306
 20
189.1239448788101072
 30
0.0
 40
0.0642068837226739
 50
154.3536495778292021
 51
169.6414689824923983
  0
ARC
  5
3033C
  8
0
 10
6832.0013875118056603
 20
187.9803784648848932
 30
0.0
 40
1.8737086092669919
 50
110.6950635814457939
 51
141.306520424865397
  0
ARC
  5
3033D
  8
0
 10
6831.3475912914082073
 20
189.6729414221483978
 30
0.0
 40
0.0608211478916427
 50
89.8095140206753513
 51
97.9019866004201162
  0
LINE
  5
3033E
  8
0
 10
6831.347793497481689
 20
188.1181796723562059
 30
0.0
 11
6831.347793497481689
 21
187.9962897020130868
 31
0.0
  0
LINE
  5
3033F
  8
0
 10
6831.347793497481689
 20
187.7195103887272012
 30
0.0
 11
6831.347793497481689
 21
187.6499487242170119
 31
0.0
  0
ARC
  5
30340
  8
0
 10
6831.3380127433483722
 20
190.129763317454092
 30
0.0
 40
0.1146982593547609
 50
74.2998178938225919
 51
85.1082315309875241
  0
ARC
  5
30341
  8
0
 10
6830.4996657497085835
 20
187.7125974861135944
 30
0.0
 40
2.6729225123593272
 50
36.9407642768443623
 51
71.0188996498343528
  0
ARC
  5
30342
  8
0
 10
6832.5878417169224122
 20
189.2828223002038897
 30
0.0
 40
0.0602448139653886
 50
357.3778496012168944
 51
36.9000920964389181
  0
ARC
  5
30343
  8
0
 10
6829.9754850011677263
 20
189.3258372345698035
 30
0.0
 40
2.6729303701391571
 50
324.9408406065414852
 51
359.0188228501846197
  0
ARC
  5
30344
  8
0
 10
6832.1141550733018448
 20
187.8250811642010945
 30
0.0
 40
0.0602347534468451
 50
285.3734647920986731
 51
324.9018109067220053
  0
ARC
  5
30345
  8
0
 10
6831.3477927947269563
 20
190.3228549866288972
 30
0.0
 40
2.6729062624120021
 50
270.0000150640710217
 51
287.0190298762825023
  0
ARC
  5
30346
  8
0
 10
6831.3477934036827719
 20
190.1470367533351009
 30
0.0
 40
0.0254145269309329
 50
70.8808469867947935
 51
89.9998115928857061
  0
ARC
  5
30347
  8
0
 10
6830.5077284377475735
 20
187.7236940747035874
 30
0.0
 40
2.5902339913511181
 50
37.1192500133283403
 51
70.8808469867947935
  0
ARC
  5
30348
  8
0
 10
6832.552863357631395
 20
189.2714978749908141
 30
0.0
 40
0.0254194864195398
 50
358.8819475232019158
 51
37.1192500133257468
  0
ARC
  5
30349
  8
0
 10
6829.988710546150287
 20
189.3215403277926896
 30
0.0
 40
2.5900605700226871
 50
325.1180986157871757
 51
358.8819475232019158
  0
ARC
  5
3034A
  8
0
 10
6832.0925676689757893
 20
187.8548570375770055
 30
0.0
 40
0.0254212840672655
 50
286.8834629363984163
 51
325.1180986157884831
  0
ARC
  5
3034B
  8
0
 10
6831.3518662446040253
 20
190.295324675509903
 30
0.0
 40
2.5758175065914131
 50
269.9094068901492847
 51
286.8834629363984163
  0
ARC
  5
3034C
  8
0
 10
6831.3478074831082267
 20
189.9591433907187081
 30
0.0
 40
0.0599029241082987
 50
72.3215177109693599
 51
90.0196177615147661
  0
ARC
  5
3034D
  8
0
 10
6830.7360268469392395
 20
188.0385640102805951
 30
0.0
 40
2.075566505636516
 50
35.6698900364958078
 51
72.3313092712537582
  0
ARC
  5
3034E
  8
0
 10
6832.3717411216248365
 20
189.2126409970715883
 30
0.0
 40
0.0621073033381147
 50
0.3300200235143843
 51
35.6698900364958078
  0
ARC
  5
3034F
  8
0
 10
6830.3583570081764265
 20
189.2010439051670119
 30
0.0
 40
2.0755248161333499
 50
323.6727273353558871
 51
0.3300200235143843
  0
ARC
  5
30350
  8
0
 10
6831.9821998826273557
 20
188.0070222860545925
 30
0.0
 40
0.0599471550603085
 50
288.0485515939495258
 51
323.6727273353558871
  0
ARC
  5
30351
  8
0
 10
6831.3496119314986572
 20
189.9808200820284867
 30
0.0
 40
2.132636810273199
 50
269.9511456396809876
 51
287.7781017926461118
  0
ARC
  5
30352
  8
0
 10
6831.3482598653554305
 20
189.8169862590615935
 30
0.0
 40
0.0460168378600337
 50
69.9485398863217114
 51
90.580686756448884
  0
ARC
  5
30353
  8
0
 10
6830.6941595210428204
 20
187.9802948705799963
 30
0.0
 40
1.995703256505664
 50
37.6114647533790603
 51
70.3873195821044675
  0
ARC
  5
30354
  8
0
 10
6832.2368601876196408
 20
189.1688261579604102
 30
0.0
 40
0.0482608394513931
 50
358.3805480451787844
 51
37.6114647533790603
  0
ARC
  5
30355
  8
0
 10
6830.2892525185197883
 20
189.2238895023226917
 30
0.0
 40
1.996646736709129
 50
325.6204452498416231
 51
358.3805480451787844
  0
ARC
  5
30356
  8
0
 10
6831.8974433870271241
 20
188.1235809348513897
 30
0.0
 40
0.0480685850309931
 50
286.1657576677492898
 51
325.620445249840202
  0
ARC
  5
30357
  8
0
 10
6831.3394826153571557
 20
190.0483874793854113
 30
0.0
 40
2.052114606609019
 50
270.2320434589656202
 51
286.1657576677492898
  0
ARC
  5
30358
  8
0
 10
6831.347844768086361
 20
189.9921876929969073
 30
0.0
 40
1.874008021342112
 50
269.9958730688720152
 51
285.3016118516717938
  0
ARC
  5
30359
  8
0
 10
6831.8130346643893063
 20
188.2391363211771989
 30
0.0
 40
0.0619260986669225
 50
298.3028728217944945
 51
314.1776328570097121
  0
ARC
  5
3035A
  8
0
 10
6830.2912726935437604
 20
189.223333721878106
 30
0.0
 40
1.8726997261070779
 50
326.6833476301309247
 51
357.3114018645562169
  0
ARC
  5
3035B
  8
0
 10
6832.0987505753655569
 20
189.1239448788101072
 30
0.0
 40
0.0642068837226739
 50
10.3585310175075502
 51
25.6463504221707588
  0
ARC
  5
3035C
  8
0
 10
6830.6941994831577176
 20
187.9803784648848932
 30
0.0
 40
1.8737086092669919
 50
38.6934795751345888
 51
69.3049364185542061
  0
ARC
  5
3035D
  8
0
 10
6831.3479957035560801
 20
189.6729414221483978
 30
0.0
 40
0.0608211478916427
 50
82.0980133995798838
 51
90.1904859793246487
  0
LINE
  5
3035E
  8
0
 10
6830.8459433272682872
 20
188.1891901243959921
 30
0.0
 11
6830.7698385242274526
 21
188.084729794546206
 31
0.0
  0
LINE
  5
3035F
  8
0
 10
6830.5881016688408636
 20
187.8342729371867108
 30
0.0
 11
6830.546056220436185
 21
187.7763288792735921
 31
0.0
  0
LINE
  5
30360
  8
0
 10
6830.0501757677939167
 20
189.3005758660316928
 30
0.0
 11
6830.1183098011752008
 21
189.2785770623603128
 31
0.0
  0
LINE
  5
30361
  8
0
 10
6830.412753555038762
 20
189.1835084158655889
 30
0.0
 11
6830.5357728896979097
 21
189.1437884982750006
 31
0.0
  0
LINE
  5
30362
  8
0
 10
6832.1598141052663777
 20
189.1437884982750006
 30
0.0
 11
6832.282833439922797
 21
189.1835084158655889
 31
0.0
  0
LINE
  5
30363
  8
0
 10
6832.5772771937909056
 20
189.2785770623603128
 30
0.0
 11
6832.6454112271685517
 21
189.3005758660316928
 31
0.0
  0
LINE
  5
30364
  8
0
 10
6831.8496436676950907
 20
188.1891901243959921
 30
0.0
 11
6831.9256055191126507
 21
188.0846260483386914
 31
0.0
  0
LINE
  5
30365
  8
0
 10
6832.1074802625962548
 20
187.8342692685100985
 30
0.0
 11
6832.1495576116776647
 21
187.7763483641656137
 31
0.0
  0
LINE
  5
30366
  8
0
 10
6825.4416322348861286
 20
179.9299751135397116
 30
0.0
 11
6825.4416322348861286
 21
190.3280514152868932
 31
0.0
  0
ARC
  5
30367
  8
0
 10
6825.4388908313430875
 20
179.9879445487686098
 30
0.0
 40
0.0580342202122322
 50
272.7075288645231126
 51
283.799186104697128
  0
ARC
  5
30368
  8
0
 10
6825.4416318685989609
 20
190.2825669176160943
 30
0.0
 40
0.0454844976722851
 50
70.1653377515832375
 51
89.9995385964694776
  0
ENDSEC
  0
EOF
