  0
SECTION
  2
HEADER
  9
$ACADVER
  1
AC1009
  9
$INSBASE
 10
6689.7430528584318381
 20
302.3261300028938194
 30
0.0
  9
$EXTMIN
 10
6680.6116402570332866
 20
302.3057008838302977
 30
-0.0000000000112498
  9
$EXTMAX
 10
6691.3319757284489242
 20
308.2320643513086793
 30
0.0000000000002956
  9
$LIMMIN
 10
0.0
 20
0.0
  9
$LIMMAX
 10
11.6929133858000007
 20
8.2677165353999982
  9
$ORTHOMODE
 70
     0
  9
$REGENMODE
 70
     1
  9
$FILLMODE
 70
     1
  9
$QTEXTMODE
 70
     0
  9
$MIRRTEXT
 70
     0
  9
$DRAGMODE
 70
     2
  9
$LTSCALE
 40
0.6431102362
  9
$OSMODE
 70
  4095
  9
$ATTMODE
 70
     1
  9
$TEXTSIZE
 40
0.2
  9
$TRACEWID
 40
0.05
  9
$TEXTSTYLE
  7
STANDARD
  9
$CLAYER
  8
0
  9
$CELTYPE
  6
BYLAYER
  9
$CECOLOR
 62
   256
  9
$DIMSCALE
 40
1.0
  9
$DIMASZ
 40
0.1875
  9
$DIMEXO
 40
0.0625
  9
$DIMDLI
 40
0.4443307087
  9
$DIMRND
 40
0.0
  9
$DIMDLE
 40
0.0
  9
$DIMEXE
 40
0.125
  9
$DIMTP
 40
0.01
  9
$DIMTM
 40
0.01
  9
$DIMTXT
 40
2.0
  9
$DIMCEN
 40
0.1052362205
  9
$DIMTSZ
 40
0.0
  9
$DIMTOL
 70
     1
  9
$DIMLIM
 70
     0
  9
$DIMTIH
 70
     1
  9
$DIMTOH
 70
     1
  9
$DIMSE1
 70
     0
  9
$DIMSE2
 70
     0
  9
$DIMTAD
 70
     0
  9
$DIMZIN
 70
     0
  9
$DIMBLK
  1

  9
$DIMASO
 70
     1
  9
$DIMSHO
 70
     1
  9
$DIMPOST
  1
\X
  9
$DIMAPOST
  1

  9
$DIMALT
 70
     1
  9
$DIMALTD
 70
     2
  9
$DIMALTF
 40
25.3999999999999986
  9
$DIMLFAC
 40
1.0
  9
$DIMTOFL
 70
     0
  9
$DIMTVP
 40
0.0
  9
$DIMTIX
 70
     0
  9
$DIMSOXD
 70
     0
  9
$DIMSAH
 70
     0
  9
$DIMBLK1
  1

  9
$DIMBLK2
  1

  9
$DIMSTYLE
  2
STANDARD
  9
$DIMCLRD
 70
     0
  9
$DIMCLRE
 70
     0
  9
$DIMCLRT
 70
     0
  9
$DIMTFAC
 40
1.0
  9
$DIMGAP
 40
0.09
  9
$LUNITS
 70
     2
  9
$LUPREC
 70
     4
  9
$SKETCHINC
 40
0.1
  9
$FILLETRAD
 40
0.0276
  9
$AUNITS
 70
     0
  9
$AUPREC
 70
     0
  9
$MENU
  1
.
  9
$ELEVATION
 40
0.0
  9
$PELEVATION
 40
0.0
  9
$THICKNESS
 40
0.0
  9
$LIMCHECK
 70
     0
  9
$BLIPMODE
 70
     0
  9
$CHAMFERA
 40
0.0
  9
$CHAMFERB
 40
0.0
  9
$SKPOLY
 70
     0
  9
$TDCREATE
 40
2458060.468368056230247
  9
$TDUPDATE
 40
2460307.5810763891786337
  9
$TDINDWG
 40
0.980608912
  9
$TDUSRTIMER
 40
0.980608912
  9
$USRTIMER
 70
     1
  9
$ANGBASE
 50
0.0
  9
$ANGDIR
 70
     0
  9
$PDMODE
 70
     0
  9
$PDSIZE
 40
0.3125
  9
$PLINEWID
 40
0.0
  9
$COORDS
 70
     1
  9
$SPLFRAME
 70
     0
  9
$SPLINETYPE
 70
     6
  9
$SPLINESEGS
 70
     8
  9
$ATTDIA
 70
     1
  9
$ATTREQ
 70
     1
  9
$HANDLING
 70
     1
  9
$HANDSEED
  5
31906
  9
$SURFTAB1
 70
     6
  9
$SURFTAB2
 70
     6
  9
$SURFTYPE
 70
     6
  9
$SURFU
 70
     6
  9
$SURFV
 70
     6
  9
$UCSNAME
  2

  9
$UCSORG
 10
0.0
 20
0.0
 30
0.0
  9
$UCSXDIR
 10
1.0
 20
0.0
 30
0.0
  9
$UCSYDIR
 10
0.0
 20
1.0
 30
0.0
  9
$PUCSNAME
  2

  9
$PUCSORG
 10
0.0
 20
0.0
 30
0.0
  9
$PUCSXDIR
 10
1.0
 20
0.0
 30
0.0
  9
$PUCSYDIR
 10
0.0
 20
1.0
 30
0.0
  9
$USERI1
 70
     0
  9
$USERI2
 70
     0
  9
$USERI3
 70
     0
  9
$USERI4
 70
     0
  9
$USERI5
 70
     0
  9
$USERR1
 40
0.0
  9
$USERR2
 40
0.0
  9
$USERR3
 40
0.0
  9
$USERR4
 40
0.0
  9
$USERR5
 40
0.0
  9
$WORLDVIEW
 70
     1
  9
$SHADEDGE
 70
     3
  9
$SHADEDIF
 70
    70
  9
$TILEMODE
 70
     1
  9
$MAXACTVP
 70
    64
  9
$PLIMCHECK
 70
     0
  9
$PEXTMIN
 10
1.0000000000000000E+20
 20
1.0000000000000000E+20
 30
1.0000000000000000E+20
  9
$PEXTMAX
 10
-1.0000000000000000E+20
 20
-1.0000000000000000E+20
 30
-1.0000000000000000E+20
  9
$PLIMMIN
 10
0.0
 20
0.0
  9
$PLIMMAX
 10
12.0
 20
9.0
  9
$UNITMODE
 70
     0
  9
$VISRETAIN
 70
     1
  9
$PLINEGEN
 70
     0
  9
$PSLTSCALE
 70
     1
  0
ENDSEC
  0
SECTION
  2
TABLES
  0
TABLE
  2
VPORT
 70
     1
  0
VPORT
  2
*ACTIVE
 70
     0
 10
0.0
 20
0.0
 11
1.0
 21
1.0
 12
2774.6064515474281507
 22
172.6892775150305113
 13
0.0
 23
0.0
 14
1.0
 24
1.0
 15
0.0
 25
0.0
 16
0.0
 26
0.0
 36
60.4960186965801583
 17
3911.3653564453120453
 27
132.5796051025390057
 37
0.0
 40
5.9797541293475538
 41
2.8481203007518792
 42
50.0
 43
0.0
 44
0.0
 50
0.0
 51
0.0
 71
     0
 72
   100
 73
     1
 74
     1
 75
     0
 76
     0
 77
     0
 78
     0
  0
ENDTAB
  0
TABLE
  2
LTYPE
 70
     3
  0
LTYPE
  2
CONTINUOUS
 70
     0
  3
Solid line
 72
    65
 73
     0
 40
0.0
  0
LTYPE
  2
PHANTOM2
 70
     0
  3
___ _ _ ___ _ _ ___ _ _ ___ _ _
 72
    65
 73
     6
 40
1.25
 49
0.625
 49
-0.125
 49
0.125
 49
-0.125
 49
0.125
 49
-0.125
  0
ENDTAB
  0
TABLE
  2
LAYER
 70
     2
  0
LAYER
  2
0
 70
     0
 62
   255
  6
CONTINUOUS
  0
LAYER
  2
DEFPOINTS
 70
     0
 62
     7
  6
CONTINUOUS
  0
ENDTAB
  0
TABLE
  2
STYLE
 70
     1
  0
STYLE
  2
STANDARD
 70
     0
 40
0.0
 41
0.8
 50
0.0
 71
     0
 42
0.2
  3
txt
  4

  0
ENDTAB
  0
TABLE
  2
VIEW
 70
     0
  0
ENDTAB
  0
TABLE
  2
UCS
 70
     0
  0
ENDTAB
  0
TABLE
  2
APPID
 70
    11
  0
APPID
  2
ACAD
 70
     0
  0
APPID
  2
ACAD_MLEADERVER
 70
     0
  0
APPID
  2
ACAD_EXEMPT_FROM_CAD_STANDARDS
 70
     0
  0
APPID
  2
ACAD_NAV_VCDISPLAY
 70
     0
  0
APPID
  2
ACAECLAYERSTANDARD
 70
     0
  0
APPID
  2
ACCMTRANSPARENCY
 70
     0
  0
APPID
  2
ACAD_DSTYLE_DIMJAG
 70
     0
  0
APPID
  2
ACAD_DSTYLE_DIMTALN
 70
     0
  0
APPID
  2
ACDBATTR
 70
     0
  0
APPID
  2
ACADANNOTATIVE
 70
     0
  0
APPID
  2
DCO15
 70
     0
  0
ENDTAB
  0
TABLE
  2
DIMSTYLE
 70
     2
  0
DIMSTYLE
  2
STANDARD
 70
     0
  3

  4

  5

  6

  7

 40
1.0
 41
0.1875
 42
0.0625
 43
0.38
 44
0.125
 45
0.0
 46
0.0
 47
0.01
 48
0.01
140
0.15625
141
0.09
142
0.0
143
25.3999999999999986
144
1.0
145
0.0
146
1.0
147
0.09
 71
     1
 72
     0
 73
     1
 74
     1
 75
     0
 76
     0
 77
     0
 78
     4
170
     0
171
     2
172
     0
173
     0
174
     0
175
     0
176
     0
177
     0
178
     0
  0
ENDTAB
  0
ENDSEC
  0
SECTION
  2
BLOCKS
  0
BLOCK
  8
0
  2
$MODEL_SPACE
 70
     0
 10
0.0
 20
0.0
 30
0.0
  3
$MODEL_SPACE
  1

  0
ENDBLK
  5
21
  8
0
  0
BLOCK
 67
     1
  8
0
  2
$PAPER_SPACE
 70
     0
 10
0.0
 20
0.0
 30
0.0
  3
$PAPER_SPACE
  1

  0
ENDBLK
  5
1D
 67
     1
  8
0
  0
BLOCK
  8
0
  2
_FILLED
 70
     0
 10
0.0
 20
0.0
 30
0.0
  3
_FILLED
  1

  0
SOLID
  5
26C2A
  8
0
  6
BYBLOCK
 62
     0
 10
0.0
 20
0.0
 30
0.0
 11
-1.0
 21
0.1666666667
 31
0.0
 12
-1.0
 22
-0.1666666667
 32
0.0
 13
-1.0
 23
-0.1666666667
 33
0.0
  0
ENDBLK
  5
26C2B
  8
0
  6
BYBLOCK
 62
     0
  0
ENDSEC
  0
SECTION
  2
ENTITIES
  0
ATTDEF
  5
26A5B
  8
DEFPOINTS
 10
6689.7321583133698368
 20
302.3245517151135004
 30
0.0
 40
0.001
  1
K-EX27105T-9
  3

  2
MODELNUMBER
 70
     0
1001
ACDBATTR
1070
     0
1070
     1
  0
ATTDEF
  5
26A5C
  8
DEFPOINTS
 10
6689.7320325037144357
 20
302.3228848747344273
 30
0.0
 40
0.001
  1
OCCASION
  3

  2
TRADENAME
 70
     0
1001
ACDBATTR
1070
     0
1070
     1
  0
ATTDEF
  5
26A5D
  8
DEFPOINTS
 10
6689.7321583133698368
 20
302.321218381780227
 30
0.0
 40
0.001
  1
BATH FAUCET
  3

  2
PRODUCT
 70
     0
1001
ACDBATTR
1070
     0
1070
     1
  0
LINE
  5
314AC
  8
0
 10
6689.0742796482772974
 20
304.5366905046632837
 30
0.0
 11
6689.0742796482772974
 21
306.5401305152045097
 31
0.0
  0
ARC
  5
314AD
  8
0
 10
6409.5164905696919959
 20
314.4772323114376036
 30
0.0
 40
279.7344666034542229
 50
357.9068664709649852
 51
357.9635293554155737
  0
LINE
  5
314AE
  8
0
 10
6689.138052709882686
 20
306.5401305152045097
 30
0.0
 11
6689.138052709882686
 21
304.6780296266218784
 31
0.0
  0
ARC
  5
314AF
  8
0
 10
6678.1180434280959162
 20
304.6780296266218784
 30
0.0
 40
11.0200092817871695
 50
359.2588041362541276
 51
0.0
  0
ARC
  5
314B0
  8
0
 10
6681.3320787891198052
 20
304.6364495550731135
 30
0.0
 40
7.8057049707009041
 50
354.178113124756976
 51
359.2588041362541276
  0
LINE
  5
314B1
  8
0
 10
6690.3182556102783565
 20
304.5366905046632837
 30
0.0
 11
6690.3182556102783565
 21
306.5369225378192937
 31
0.0
  0
ARC
  5
314B2
  8
0
 10
6969.8760446888627484
 20
314.4772323114376036
 30
0.0
 40
279.7344666034542229
 50
182.0364706445843979
 51
182.0931335290349864
  0
LINE
  5
314B3
  8
0
 10
6680.736518461819287
 20
306.590814251910615
 30
0.0
 11
6681.8660107524183331
 21
306.2238199599105997
 31
0.0
  0
ARC
  5
314B4
  8
0
 10
6688.6277886096986549
 20
306.5373764244743029
 30
0.0
 40
1.690467061511485
 50
359.9846162101532059
 51
89.9613421431911746
  0
LINE
  5
314B5
  8
0
 10
6682.4651383795189759
 20
308.2278431012106239
 30
0.0
 11
6688.6289291793764278
 21
308.2278431012106239
 31
0.0
  0
LINE
  5
314B6
  8
0
 10
6682.465138379412565
 20
307.7893390099105773
 30
0.0
 11
6688.6289291793764278
 21
307.7893390099105773
 31
0.0
  0
LINE
  5
314B7
  8
0
 10
6682.46513837803559
 20
306.9846300029105919
 30
0.0
 11
6688.6289291793764278
 21
306.9846300029105919
 31
0.0
  0
ARC
  5
314B8
  8
0
 10
6681.8745269686360189
 20
306.2500301791624224
 30
0.0
 40
0.02755905535176
 50
252.0000005148606874
 51
341.999999619727987
  0
LINE
  5
314B9
  8
0
 10
6681.9007371877551122
 20
306.2415139625358051
 30
0.0
 11
6682.0423937609430141
 21
306.6774880559249254
 31
0.0
  0
ARC
  5
314BA
  8
0
 10
6682.46513837803559
 20
306.5401300094077897
 30
0.0
 40
0.4444999935027472
 50
89.999999808859755
 51
162.0000007336765009
  0
ARC
  5
314BB
  8
0
 10
6682.465138379412565
 20
306.5401300032111749
 30
0.0
 40
1.2492090065993771
 50
89.9999999951016463
 51
162.0000000105698916
  0
LINE
  5
314BC
  8
0
 10
6681.2770700133996797
 20
306.9261568155574196
 30
0.0
 11
6681.1354134428938778
 21
306.4901827203004814
 31
0.0
  0
ARC
  5
314BD
  8
0
 10
6681.1790318841667613
 20
306.476010229620897
 30
0.0
 40
0.0458631432755911
 50
162.0000000105698916
 51
198.9342130019894057
  0
ARC
  5
314BE
  8
0
 10
6682.4703158489883208
 20
306.5330038275403126
 30
0.0
 40
1.694847181732438
 50
90.175029119866025
 51
161.8249708794947992
  0
LINE
  5
314BF
  8
0
 10
6680.8600278398453156
 20
307.061662031902074
 30
0.0
 11
6680.7183712695077702
 21
306.6256879374764139
 31
0.0
  0
ARC
  5
314C0
  8
0
 10
6680.7445859298995856
 20
306.617170776820501
 30
0.0
 40
0.0275635710073173
 50
162.0009861673474916
 51
252.9811757090589879
  0
ARC
  5
314C1
  8
0
 10
6681.2186607303638084
 20
306.5007303498073838
 30
0.0
 40
0.1969611922749873
 50
180.7512817308283957
 51
203.8564031925857023
  0
LINE
  5
314C2
  8
0
 10
6681.0385275151411406
 20
306.4210702215353876
 30
0.0
 11
6681.5739528461754162
 21
306.246784545710625
 31
0.0
  0
ARC
  5
314C3
  8
0
 10
6681.4702418932620276
 20
306.4217745081430166
 30
0.0
 40
0.203414475163052
 50
300.6538659291326212
 51
323.077023815228074
  0
ARC
  5
314C4
  8
0
 10
6688.6286357653370942
 20
306.5389847449698095
 30
0.0
 40
0.4456453545330704
 50
0.1473096721355756
 51
89.9622763099639968
  0
ARC
  5
314C5
  8
0
 10
6688.628162280118886
 20
306.5382795979388106
 30
0.0
 40
0.5098937891947353
 50
0.20798445227075
 51
89.9138249803848311
  0
LINE
  5
314C6
  8
0
 10
6688.6289291793764278
 20
307.0481728104106196
 30
0.0
 11
6682.4651383795189759
 21
307.0481728104106196
 31
0.0
  0
ARC
  5
314C7
  8
0
 10
6682.4651383794980575
 20
306.5401300029745926
 30
0.0
 40
0.5080428074360457
 50
89.9999999976550384
 51
162.0000000082652036
  0
LINE
  5
314C8
  8
0
 10
6681.9819609569067325
 20
306.6971238642726121
 30
0.0
 11
6681.840304386664684
 21
306.2611497698953826
 31
0.0
  0
ARC
  5
314C9
  8
0
 10
6681.8104864075457954
 20
306.270838218608219
 30
0.0
 40
0.0313524786447878
 50
280.4771638924661943
 51
342.0000000082604856
  0
ARC
  5
314CA
  8
0
 10
6688.629236854832925
 20
306.5404376783152998
 30
0.0
 40
1.248901369494384
 50
359.9858847922234872
 51
90.014115210134463
  0
LINE
  5
314CB
  8
0
 10
6688.4586015526383562
 20
302.3261300028938194
 30
0.0
 11
6691.0194402630022523
 21
302.3261300028938194
 31
0.0
  0
ARC
  5
314CC
  8
0
 10
6688.4594696905251112
 20
302.3537672158610121
 30
0.0
 40
0.0276508445437599
 50
203.0956323358780082
 51
268.2008212306905079
  0
LINE
  5
314CD
  8
0
 10
6688.4340350223892528
 20
302.342920702097274
 30
0.0
 11
6688.3651244853099342
 21
302.5052606297846864
 31
0.0
  0
ARC
  5
314CF
  8
0
 10
6687.0071011327081578
 20
303.9887206117388132
 30
0.0
 40
1.9929568267921109
 50
313.2102268980751774
 51
325.8011593682930993
  0
ARC
  5
314D0
  8
0
 10
6686.8787120096758372
 20
304.0759699719100126
 30
0.0
 40
2.1481863915130508
 50
325.8011593682930993
 51
327.8539275863947182
  0
LINE
  5
314D1
  8
0
 10
6688.4375404905576943
 20
302.5361925408938077
 30
0.0
 11
6688.371666674140215
 21
302.5361925408938077
 31
0.0
  0
LINE
  5
314D2
  8
0
 10
6688.8328045030893918
 20
302.68977903439378
 30
0.0
 11
6690.6051805650549795
 21
302.68977903439378
 31
0.0
  0
ARC
  5
314D3
  8
0
 10
6688.8328920325593572
 20
302.7291490176938282
 30
0.0
 40
0.0393700805999904
 50
234.8930214805928927
 51
270.0000139014921956
  0
LINE
  5
314D4
  8
0
 10
6688.8102501064149692
 20
302.6969411548814719
 30
0.0
 11
6688.734411279870983
 21
302.7502553756805241
 31
0.0
  0
ARC
  5
314D5
  8
0
 10
6688.7567504366943467
 20
302.7820325528377907
 30
0.0
 40
0.0388436212987123
 50
187.4572878569551904
 51
234.8930214805928927
  0
ARC
  5
314D6
  8
0
 10
6697.5612080864229938
 20
304.028023833852501
 30
0.0
 40
8.9310273443199613
 50
182.0327412591335872
 51
188.0523094659727121
  0
ARC
  5
314D7
  8
0
 10
6688.6747735662884224
 20
303.7130132156966056
 30
0.0
 40
0.0390132577816189
 50
90.5491597999395736
 51
182.6123406153924122
  0
LINE
  5
314D8
  8
0
 10
6688.5071022475549398
 20
302.6504305703211912
 30
0.0
 11
6690.9600603250582935
 21
302.6504305703211912
 31
0.0
  0
ARC
  5
314D9
  8
0
 10
6688.5071030661238183
 20
302.6110594198758008
 30
0.0
 40
0.0393711504538674
 50
90.0011912388837345
 51
149.6280077058414975
  0
LINE
  5
314DA
  8
0
 10
6688.4731351757827724
 20
302.6309659493056188
 30
0.0
 11
6688.4429436989039459
 21
302.5794494454721075
 31
0.0
  0
ARC
  5
314DB
  8
0
 10
6688.4768991648606971
 20
302.559549693176109
 30
0.0
 40
0.0393570045843061
 50
149.6273746219588929
 51
180.0080883728757897
  0
LINE
  5
314DC
  8
0
 10
6688.4375421606673626
 20
302.5595441371975198
 30
0.0
 11
6688.4375554858352189
 21
302.4651523678195986
 31
0.0
  0
ARC
  5
314DD
  8
0
 10
6688.4770446107413591
 20
302.4651579424494798
 30
0.0
 40
0.0394891252991246
 50
180.0080883728741981
 51
210.1346592135631965
  0
ARC
  5
314DE
  8
0
 10
6706.8189198367672361
 20
313.1123999864337861
 30
0.0
 40
21.2476986195096416
 50
210.1346592135631965
 51
210.4544963369349091
  0
ARC
  5
314DF
  8
0
 10
6688.5320753562309619
 20
302.3601786173283017
 30
0.0
 40
0.0340486406499854
 50
210.4544963369363018
 51
270.0710996557335193
  0
LINE
  5
314E0
  8
0
 10
6688.4429445579280582
 20
302.579450912239281
 30
0.0
 11
6691.0226688231832668
 21
302.579450912239281
 31
0.0
  0
LINE
  5
314E1
  8
0
 10
6688.4428923994209981
 20
302.4453332740066003
 30
0.0
 11
6691.023112200840842
 21
302.4453332740066003
 31
0.0
  0
ARC
  5
314E2
  8
0
 10
6687.0067757794167846
 20
303.9564744301555947
 30
0.0
 40
2.0592777760994911
 50
320.6375292983933036
 51
326.0137054899294071
  0
LINE
  5
314E3
  8
0
 10
6688.6743996437226087
 20
303.7520246815067253
 30
0.0
 11
6690.7635850120486793
 21
303.7520246815067253
 31
0.0
  0
LINE
  5
314E4
  8
0
 10
6688.9299580511960812
 20
303.8446674720066767
 30
0.0
 11
6690.5080268594028894
 21
303.8446674720066767
 31
0.0
  0
ARC
  5
314E5
  8
0
 10
6688.9299600748599914
 20
303.8052932074672867
 30
0.0
 40
0.0393742645914119
 50
90.0029447511848559
 51
127.9045371259766029
  0
LINE
  5
314E6
  8
0
 10
6688.9057705865989192
 20
303.8363608975938064
 30
0.0
 11
6688.8081301933189025
 21
303.7603347256148254
 31
0.0
  0
ARC
  5
314E7
  8
0
 10
6688.7836115853360752
 20
303.7918239675937002
 30
0.0
 40
0.0399090778875236
 50
274.2424693140051204
 51
307.905553170177825
  0
ARC
  5
314E8
  8
0
 10
6688.7763396288755757
 20
303.7134064777561093
 30
0.0
 40
0.0387591978128361
 50
94.8961614752054459
 51
183.1999276126057907
  0
ARC
  5
314E9
  8
0
 10
6700.1587047076636736
 20
304.0964335625075137
 30
0.0
 40
11.4275575328234407
 50
181.9316445196180041
 51
186.6285465487430884
  0
ARC
  5
314EA
  8
0
 10
6688.8481074215587796
 20
302.7811337249727899
 30
0.0
 40
0.0407495311078252
 50
185.3602634557564102
 51
229.2337465775266026
  0
LINE
  5
314EB
  8
0
 10
6688.8214990116020999
 20
302.7502708539938112
 30
0.0
 11
6688.8866246310735733
 21
302.6969600927276929
 31
0.0
  0
ARC
  5
314EC
  8
0
 10
6688.90927394731807
 20
302.7280979265432279
 30
0.0
 40
0.0385054745358604
 50
234.0130873912287086
 51
264.3572964241247973
  0
ARC
  5
314ED
  8
0
 10
6688.8642535182316351
 20
303.7897021130082749
 30
0.0
 40
0.0378763629284874
 50
275.8748320904302886
 51
309.1196278461769111
  0
ARC
  5
314EE
  8
0
 10
6679.8900636744447183
 20
313.8044001627225725
 30
0.0
 40
13.4851473016683894
 50
311.855873746739519
 51
312.3373472437236273
  0
ARC
  5
314EF
  8
0
 10
6688.9924599151827351
 20
303.8161109994584876
 30
0.0
 40
0.0285648208281889
 50
91.3852589354120255
 51
135.0724139231201093
  0
ARC
  5
314F0
  8
0
 10
6689.9222136473526916
 20
303.8231984119944968
 30
0.0
 40
0.0215920479583772
 50
37.5182983922154065
 51
83.8817341092898943
  0
LINE
  5
314F1
  8
0
 10
6689.939339571958044
 20
303.8363482880939159
 30
0.0
 11
6689.9718954639065487
 21
303.7602810812937832
 31
0.0
  0
ARC
  5
314F2
  8
0
 10
6689.9870517927811306
 20
303.7696467923931891
 30
0.0
 40
0.0178165891607029
 50
211.7136027752893881
 51
261.526619011237301
  0
ARC
  5
314F3
  8
0
 10
6691.0185721251164068
 20
302.3537672158610121
 30
0.0
 40
0.0276508445437599
 50
271.7991787693096057
 51
336.9043676641218781
  0
LINE
  5
314F4
  8
0
 10
6691.0440067932513557
 20
302.342920702097274
 30
0.0
 11
6691.1129151832710704
 21
302.5052555717217047
 31
0.0
  0
ARC
  5
314F6
  8
0
 10
6694.7882259531934324
 20
306.3189047883610101
 30
0.0
 40
5.2787249735795978
 50
219.9269983691482935
 51
225.7799343698592907
  0
LINE
  5
314F7
  8
0
 10
6691.0284591430799992
 20
302.5361925408938077
 30
0.0
 11
6691.1063751415003935
 21
302.5361925408938077
 31
0.0
  0
ARC
  5
314F8
  8
0
 10
6690.6050930355831952
 20
302.7291490176938282
 30
0.0
 40
0.0393700805999931
 50
270.127382857713485
 51
305.1069785194032988
  0
LINE
  5
314F9
  8
0
 10
6690.6277349617275831
 20
302.6969411548814719
 30
0.0
 11
6690.7035737882688409
 21
302.7502553756805241
 31
0.0
  0
ARC
  5
314FA
  8
0
 10
6690.6812346314482056
 20
302.7820325528377907
 30
0.0
 40
0.0388436212987123
 50
305.1069785194071073
 51
352.5427121430448096
  0
ARC
  5
314FB
  8
0
 10
6681.8767769817177395
 20
304.028023833852501
 30
0.0
 40
8.9310273443199613
 50
351.9476905340272879
 51
357.9672587408663276
  0
ARC
  5
314FC
  8
0
 10
6690.7632114831267245
 20
303.713013194197913
 30
0.0
 40
0.0390132755084703
 50
357.3876921788016716
 51
89.4514185911788218
  0
ARC
  5
314FD
  8
0
 10
6690.9588504658722741
 20
302.611007833665326
 30
0.0
 40
0.0394412971984039
 50
30.3991369242399401
 51
88.2421800029955676
  0
LINE
  5
314FE
  8
0
 10
6690.9928694244799772
 20
302.6309659493056188
 30
0.0
 11
6691.0230609013606227
 21
302.5794494454721075
 31
0.0
  0
ARC
  5
314FF
  8
0
 10
6690.989105435402962
 20
302.559549693176109
 30
0.0
 40
0.0393570045843061
 50
359.9919116271241819
 51
30.3726253780410893
  0
LINE
  5
31500
  8
0
 10
6691.028462439593568
 20
302.5595441371975198
 30
0.0
 11
6691.0284491144284402
 21
302.4651523678195986
 31
0.0
  0
ARC
  5
31501
  8
0
 10
6690.9889599895223
 20
302.4651579424494798
 30
0.0
 40
0.0394891252991246
 50
329.865340786436775
 51
359.9919116271257735
  0
ARC
  5
31502
  8
0
 10
6672.647084763496423
 20
313.1123999864337861
 30
0.0
 40
21.2476986195096416
 50
329.5455036630650056
 51
329.865340786436775
  0
ARC
  5
31503
  8
0
 10
6690.9339292440317877
 20
302.3601786173283017
 30
0.0
 40
0.0340486406499854
 50
269.9289003442664807
 51
329.5455036630636982
  0
ARC
  5
31504
  8
0
 10
6690.5080249933080268
 20
303.8052932075077024
 30
0.0
 40
0.0393742645431336
 50
52.095462868343418
 51
89.997284536492046
  0
LINE
  5
31505
  8
0
 10
6690.5322144815418142
 20
303.8363608975938064
 30
0.0
 11
6690.6298548748218309
 21
303.7603347256148254
 31
0.0
  0
ARC
  5
31506
  8
0
 10
6690.6543734828055676
 20
303.7918239675937002
 30
0.0
 40
0.0399090778875236
 50
232.0944468298222034
 51
265.7490465304924783
  0
ARC
  5
31507
  8
0
 10
6690.5737315499100077
 20
303.7897021130082749
 30
0.0
 40
0.0378763629284874
 50
230.8803721538230889
 51
264.125167909517188
  0
ARC
  5
31508
  8
0
 10
6699.547921393697834
 20
313.8044001627225725
 30
0.0
 40
13.4851473016683894
 50
227.6626527562762874
 51
228.1441262532605094
  0
ARC
  5
31509
  8
0
 10
6690.4455251529589077
 20
303.8161109994584876
 30
0.0
 40
0.0285648208282009
 50
44.9275860768798907
 51
88.6147410645879319
  0
ARC
  5
3150A
  8
0
 10
6690.0688949872810554
 20
302.6246271321497261
 30
0.0
 40
0.0268336169673862
 50
13.6650252681656603
 51
74.0722790295654505
  0
LINE
  5
3150B
  8
0
 10
6690.0949690387587907
 20
302.6309664411937774
 30
0.0
 11
6690.1048420211509438
 21
302.579450912239281
 31
0.0
  0
ARC
  5
3150C
  8
0
 10
6690.0464371931966525
 20
302.5596974689801186
 30
0.0
 40
0.0616548655734454
 50
359.8577149597427933
 51
18.6863559647825603
  0
LINE
  5
3150D
  8
0
 10
6690.1080918686584482
 20
302.5595443589938895
 30
0.0
 11
6690.1080918686584482
 21
302.4651522659913212
 31
0.0
  0
ARC
  5
3150E
  8
0
 10
6690.0439887299644397
 20
302.4654395730192959
 30
0.0
 40
0.0641037825397584
 50
341.7210829636359222
 51
359.7432049313699167
  0
LINE
  5
3150F
  8
0
 10
6690.1048578966810965
 20
302.4453338653938204
 30
0.0
 11
6690.0858601497593554
 21
302.3456816898938087
 31
0.0
  0
ARC
  5
31510
  8
0
 10
6690.05399309922268
 20
302.355318953231972
 30
0.0
 40
0.0332924278854182
 50
298.7478958827895212
 51
343.1735842224563839
  0
ARC
  5
31511
  8
0
 10
6690.0111748033850745
 20
303.7330621098432175
 30
0.0
 40
0.0193155751901861
 50
41.4884008710845578
 51
79.0292334753175965
  0
ARC
  5
31512
  8
0
 10
6689.9618067752071511
 20
303.7069626531654194
 30
0.0
 40
0.0747531431912556
 50
3.1920078657425539
 51
31.3535929619770712
  0
ARC
  5
31513
  8
0
 10
6657.7482037397203385
 20
304.1540218061834935
 30
0.0
 40
32.2912776593281166
 50
357.5566020346187202
 51
359.214124959330718
  0
ARC
  5
31514
  8
0
 10
6689.8228530301121282
 20
302.824526360387722
 30
0.0
 40
0.1931167347398272
 50
337.3290572858949758
 51
345.8652596739618161
  0
LINE
  5
31515
  8
0
 10
6690.0010483456699149
 20
302.7500918069201816
 30
0.0
 11
6689.9755170679809453
 21
302.6966590581125729
 31
0.0
  0
ARC
  5
31516
  8
0
 10
6689.963328858287241
 20
302.7036496455316978
 30
0.0
 40
0.0140506500913116
 50
279.1820043168212919
 51
330.1634326601773068
  0
ARC
  5
31517
  8
0
 10
6688.6242928468827813
 20
302.607272988068587
 30
0.0
 40
0.045460069782215
 50
108.3135070433069984
 51
148.5870829712935119
  0
LINE
  5
31518
  8
0
 10
6688.5854957087503863
 20
302.6309668694996731
 30
0.0
 11
6688.5596489196268521
 21
302.5794499987937911
 31
0.0
  0
ARC
  5
31519
  8
0
 10
6688.5903941170890903
 20
302.5618240533158882
 30
0.0
 40
0.0354392596005155
 50
150.1747401761834908
 51
183.8615382157587987
  0
LINE
  5
3151A
  8
0
 10
6688.5550353148273643
 20
302.5594373770592256
 30
0.0
 11
6688.5550354290407995
 21
302.4651525092563134
 31
0.0
  0
ARC
  5
3151B
  8
0
 10
6688.6371705673818724
 20
302.4736526017226197
 30
0.0
 40
0.0825738004590605
 50
185.9084560242199871
 51
200.0575385846618985
  0
LINE
  5
3151C
  8
0
 10
6688.559604977125673
 20
302.4453327900939144
 30
0.0
 11
6688.6093415889281459
 21
302.3456811901937726
 31
0.0
  0
ARC
  5
3151D
  8
0
 10
6688.6433538482988297
 20
302.3647435596594164
 30
0.0
 40
0.0389907560017196
 50
209.2686224790328993
 51
262.0238567833944217
  0
ARC
  5
3151E
  8
0
 10
6684.1024583138041635
 20
304.5255205611725273
 30
0.0
 40
4.9689410767094131
 50
352.1244547957455211
 51
356.9394867891527952
  0
ARC
  5
3151F
  8
0
 10
6694.3031584355612722
 20
304.4472887235452845
 30
0.0
 40
3.9793346028527501
 50
182.6943892113895913
 51
188.7102521578752885
  0
LINE
  5
31520
  8
0
 10
6689.8781381864264404
 20
306.5401300029105869
 30
0.0
 11
6689.8781381864264404
 21
304.8261300028938194
 31
0.0
  0
ARC
  5
31521
  8
0
 10
6743.1112149465388939
 20
304.8261300028938763
 30
0.0
 40
53.2330767601121906
 50
180.0
 51
180.6254983332214863
  0
ARC
  5
31522
  8
0
 10
6699.5622852941523888
 20
304.3506872154990788
 30
0.0
 40
9.6815518762153125
 50
180.6254983332214863
 51
182.9960085508201075
  0
LINE
  5
31523
  8
0
 10
6688.7183170018588498
 20
302.7764024549334749
 30
0.0
 11
6690.719668066282793
 21
302.7764024549334749
 31
0.0
  0
ARC
  5
31777
  8
0
 10
6688.3905303446190374
 20
302.5160449847800237
 30
0.0
 40
0.0276
 50
133.2102268977473898
 51
203.0003965776490134
  0
ARC
  5
3177A
  8
0
 10
6691.0875093239601483
 20
302.5160399267174967
 30
0.0
 40
0.0276
 50
336.9996034222197068
 51
45.7799343693511034
  0
ENDSEC
  0
EOF
