  0
SECTION
  2
HEADER
  9
$ACADVER
  1
AC1009
  9
$INSBASE
 10
2665.9115813528278522
 20
153.781401600368298
 30
0.0
  9
$EXTMIN
 10
2664.2901077828769303
 20
144.7338333722591983
 30
-0.0000000349181948
  9
$EXTMAX
 10
2680.4452493458989011
 20
155.2389564981399985
 30
0.0000000814935746
  9
$LIMMIN
 10
0.0
 20
0.0
  9
$LIMMAX
 10
11.6929133858000007
 20
8.2677165353999982
  9
$ORTHOMODE
 70
     1
  9
$REGENMODE
 70
     1
  9
$FILLMODE
 70
     1
  9
$QTEXTMODE
 70
     0
  9
$MIRRTEXT
 70
     0
  9
$DRAGMODE
 70
     2
  9
$LTSCALE
 40
0.6431102362
  9
$OSMODE
 70
  4095
  9
$ATTMODE
 70
     1
  9
$TEXTSIZE
 40
0.2
  9
$TRACEWID
 40
0.05
  9
$TEXTSTYLE
  7
STANDARD
  9
$CLAYER
  8
0
  9
$CELTYPE
  6
BYLAYER
  9
$CECOLOR
 62
   256
  9
$DIMSCALE
 40
1.0
  9
$DIMASZ
 40
0.1875
  9
$DIMEXO
 40
0.0625
  9
$DIMDLI
 40
0.4443307087
  9
$DIMRND
 40
0.0
  9
$DIMDLE
 40
0.0
  9
$DIMEXE
 40
0.125
  9
$DIMTP
 40
0.01
  9
$DIMTM
 40
0.01
  9
$DIMTXT
 40
2.0
  9
$DIMCEN
 40
0.1052362205
  9
$DIMTSZ
 40
0.0
  9
$DIMTOL
 70
     1
  9
$DIMLIM
 70
     0
  9
$DIMTIH
 70
     1
  9
$DIMTOH
 70
     1
  9
$DIMSE1
 70
     0
  9
$DIMSE2
 70
     0
  9
$DIMTAD
 70
     0
  9
$DIMZIN
 70
     0
  9
$DIMBLK
  1

  9
$DIMASO
 70
     1
  9
$DIMSHO
 70
     1
  9
$DIMPOST
  1
\X
  9
$DIMAPOST
  1

  9
$DIMALT
 70
     1
  9
$DIMALTD
 70
     2
  9
$DIMALTF
 40
25.3999999999999986
  9
$DIMLFAC
 40
1.0
  9
$DIMTOFL
 70
     0
  9
$DIMTVP
 40
0.0
  9
$DIMTIX
 70
     0
  9
$DIMSOXD
 70
     0
  9
$DIMSAH
 70
     0
  9
$DIMBLK1
  1

  9
$DIMBLK2
  1

  9
$DIMSTYLE
  2
STANDARD
  9
$DIMCLRD
 70
     0
  9
$DIMCLRE
 70
     0
  9
$DIMCLRT
 70
     0
  9
$DIMTFAC
 40
1.0
  9
$DIMGAP
 40
0.09
  9
$LUNITS
 70
     2
  9
$LUPREC
 70
     4
  9
$SKETCHINC
 40
0.1
  9
$FILLETRAD
 40
0.0
  9
$AUNITS
 70
     0
  9
$AUPREC
 70
     0
  9
$MENU
  1
.
  9
$ELEVATION
 40
0.0
  9
$PELEVATION
 40
0.0
  9
$THICKNESS
 40
0.0
  9
$LIMCHECK
 70
     0
  9
$BLIPMODE
 70
     0
  9
$CHAMFERA
 40
0.0
  9
$CHAMFERB
 40
0.0
  9
$SKPOLY
 70
     0
  9
$TDCREATE
 40
2458060.468368056230247
  9
$TDUPDATE
 40
2460277.7958101849071681
  9
$TDINDWG
 40
0.6890811343
  9
$TDUSRTIMER
 40
0.6890811343
  9
$USRTIMER
 70
     1
  9
$ANGBASE
 50
0.0
  9
$ANGDIR
 70
     0
  9
$PDMODE
 70
     0
  9
$PDSIZE
 40
0.3125
  9
$PLINEWID
 40
0.0
  9
$COORDS
 70
     1
  9
$SPLFRAME
 70
     0
  9
$SPLINETYPE
 70
     6
  9
$SPLINESEGS
 70
     8
  9
$ATTDIA
 70
     1
  9
$ATTREQ
 70
     1
  9
$HANDLING
 70
     1
  9
$HANDSEED
  5
3FC4A
  9
$SURFTAB1
 70
     6
  9
$SURFTAB2
 70
     6
  9
$SURFTYPE
 70
     6
  9
$SURFU
 70
     6
  9
$SURFV
 70
     6
  9
$UCSNAME
  2

  9
$UCSORG
 10
0.0
 20
0.0
 30
0.0
  9
$UCSXDIR
 10
1.0
 20
0.0
 30
0.0
  9
$UCSYDIR
 10
0.0
 20
1.0
 30
0.0
  9
$PUCSNAME
  2

  9
$PUCSORG
 10
0.0
 20
0.0
 30
0.0
  9
$PUCSXDIR
 10
1.0
 20
0.0
 30
0.0
  9
$PUCSYDIR
 10
0.0
 20
1.0
 30
0.0
  9
$USERI1
 70
     0
  9
$USERI2
 70
     0
  9
$USERI3
 70
     0
  9
$USERI4
 70
     0
  9
$USERI5
 70
     0
  9
$USERR1
 40
0.0
  9
$USERR2
 40
0.0
  9
$USERR3
 40
0.0
  9
$USERR4
 40
0.0
  9
$USERR5
 40
0.0
  9
$WORLDVIEW
 70
     1
  9
$SHADEDGE
 70
     3
  9
$SHADEDIF
 70
    70
  9
$TILEMODE
 70
     1
  9
$MAXACTVP
 70
    64
  9
$PLIMCHECK
 70
     0
  9
$PEXTMIN
 10
1.0000000000000000E+20
 20
1.0000000000000000E+20
 30
1.0000000000000000E+20
  9
$PEXTMAX
 10
-1.0000000000000000E+20
 20
-1.0000000000000000E+20
 30
-1.0000000000000000E+20
  9
$PLIMMIN
 10
0.0
 20
0.0
  9
$PLIMMAX
 10
12.0
 20
9.0
  9
$UNITMODE
 70
     0
  9
$VISRETAIN
 70
     1
  9
$PLINEGEN
 70
     0
  9
$PSLTSCALE
 70
     1
  0
ENDSEC
  0
SECTION
  2
TABLES
  0
TABLE
  2
VPORT
 70
     1
  0
VPORT
  2
*ACTIVE
 70
     0
 10
0.0
 20
0.0
 11
1.0
 21
1.0
 12
-631.3254366699875391
 22
-45.2751166406881325
 13
0.0
 23
0.0
 14
1.0
 24
1.0
 15
0.0
 25
0.0
 16
0.0
 26
0.0
 36
96.5995694866707311
 17
3303.693115234375
 27
195.2615115758877096
 37
0.0
 40
10.5907327945730696
 41
2.5251322751322749
 42
50.0
 43
0.0
 44
0.0
 50
0.0
 51
0.0
 71
     0
 72
   100
 73
     1
 74
     1
 75
     0
 76
     0
 77
     0
 78
     0
  0
ENDTAB
  0
TABLE
  2
LTYPE
 70
     2
  0
LTYPE
  2
CONTINUOUS
 70
     0
  3
Solid line
 72
    65
 73
     0
 40
0.0
  0
LTYPE
  2
PHANTOM2
 70
     0
  3
___ _ _ ___ _ _ ___ _ _ ___ _ _
 72
    65
 73
     6
 40
1.25
 49
0.625
 49
-0.125
 49
0.125
 49
-0.125
 49
0.125
 49
-0.125
  0
ENDTAB
  0
TABLE
  2
LAYER
 70
     2
  0
LAYER
  2
0
 70
     0
 62
   255
  6
CONTINUOUS
  0
LAYER
  2
DEFPOINTS
 70
     0
 62
     7
  6
CONTINUOUS
  0
ENDTAB
  0
TABLE
  2
STYLE
 70
     1
  0
STYLE
  2
STANDARD
 70
     0
 40
0.0
 41
0.8
 50
0.0
 71
     0
 42
0.2
  3
txt
  4

  0
ENDTAB
  0
TABLE
  2
VIEW
 70
     0
  0
ENDTAB
  0
TABLE
  2
UCS
 70
     0
  0
ENDTAB
  0
TABLE
  2
APPID
 70
     9
  0
APPID
  2
ACAD
 70
     0
  0
APPID
  2
ACAD_MLEADERVER
 70
     0
  0
APPID
  2
ACAD_EXEMPT_FROM_CAD_STANDARDS
 70
     0
  0
APPID
  2
ACAD_NAV_VCDISPLAY
 70
     0
  0
APPID
  2
ACAECLAYERSTANDARD
 70
     0
  0
APPID
  2
ACCMTRANSPARENCY
 70
     0
  0
APPID
  2
ACAD_DSTYLE_DIMJAG
 70
     0
  0
APPID
  2
ACAD_DSTYLE_DIMTALN
 70
     0
  0
APPID
  2
ACDBATTR
 70
     0
  0
ENDTAB
  0
TABLE
  2
DIMSTYLE
 70
     1
  0
DIMSTYLE
  2
STANDARD
 70
     0
  3

  4

  5

  6

  7

 40
1.0
 41
0.1875
 42
0.0625
 43
0.38
 44
0.125
 45
0.0
 46
0.0
 47
0.01
 48
0.01
140
0.15625
141
0.09
142
0.0
143
25.3999999999999986
144
1.0
145
0.0
146
1.0
147
0.09
 71
     1
 72
     0
 73
     1
 74
     1
 75
     0
 76
     0
 77
     0
 78
     4
170
     0
171
     2
172
     0
173
     0
174
     0
175
     0
176
     0
177
     0
178
     0
  0
ENDTAB
  0
ENDSEC
  0
SECTION
  2
BLOCKS
  0
BLOCK
  8
0
  2
$MODEL_SPACE
 70
     0
 10
0.0
 20
0.0
 30
0.0
  3
$MODEL_SPACE
  1

  0
ENDBLK
  5
21
  8
0
  0
BLOCK
 67
     1
  8
0
  2
$PAPER_SPACE
 70
     0
 10
0.0
 20
0.0
 30
0.0
  3
$PAPER_SPACE
  1

  0
ENDBLK
  5
1D
 67
     1
  8
0
  0
ENDSEC
  0
SECTION
  2
ENTITIES
  0
ATTDEF
  5
3F4C2
  8
DEFPOINTS
 10
2665.9120970848512115
 20
153.7850805723107044
 30
0.0
 40
0.001
  1
K-EX27106T-4
  3

  2
MODELNUMBER
 70
     0
1001
ACDBATTR
1070
     0
1070
     1
  0
ATTDEF
  5
3F4C3
  8
DEFPOINTS
 10
2665.9120970848512115
 20
153.7834139056440108
 30
0.0
 40
0.001
  1
OCCASION
  3

  2
TRADENAME
 70
     0
1001
ACDBATTR
1070
     0
1070
     1
  0
ATTDEF
  5
3F4C4
  8
DEFPOINTS
 10
2665.9120970848512115
 20
153.7817472389774025
 30
0.0
 40
0.001
  1
BATHTUB SHOWER FAUCET
  3

  2
PRODUCT
 70
     0
1001
ACDBATTR
1070
     0
1070
     1
  0
LINE
  5
3F808
  8
0
 10
2665.2703607299267787
 20
153.9057946648989059
 30
0.0
 11
2665.2703607299267787
 21
145.1918894552497932
 31
0.0
  0
ARC
  5
3F809
  8
0
 10
2665.9150069965521652
 20
155.1647830029133104
 30
0.0
 40
0.0647887992911685
 50
93.0308710445152656
 51
106.5394473772091004
  0
ARC
  5
3F80A
  8
0
 10
2666.8660652389530696
 20
152.3954113319375097
 30
0.0
 40
2.992860143304644
 50
108.9012644952553046
 51
143.1254033378675103
  0
ARC
  5
3F80B
  8
0
 10
2664.5157296417191901
 20
154.1627231436903003
 30
0.0
 40
0.0523153409473775
 50
146.8593036976317023
 51
177.4810941567762086
  0
ARC
  5
3F80C
  8
0
 10
2667.461012381304954
 20
154.2126244338026879
 30
0.0
 40
2.9979254769446122
 50
180.9098001210184066
 51
215.1012459877007075
  0
ARC
  5
3F80D
  8
0
 10
2665.9968911003029461
 20
155.6622226735277934
 30
0.0
 40
3.332642202679851
 50
253.1734104754789882
 51
257.4081563761831148
  0
ARC
  5
3F80E
  8
0
 10
2665.0459108894010569
 20
152.5176989937532994
 30
0.0
 40
0.0474645006079876
 50
217.585614840487608
 51
253.1734104754789882
  0
LINE
  5
3F80F
  8
0
 10
2665.2703607299267787
 20
152.8236927828421017
 30
0.0
 11
2665.018045384998004
 21
152.4792751407146056
 31
0.0
  0
LINE
  5
3F810
  8
0
 10
2664.4659269928060894
 20
154.1787416036555101
 30
0.0
 11
2665.2716509944661993
 21
153.9148180790120932
 31
0.0
  0
ARC
  5
3F811
  8
0
 10
2665.9115813275548135
 20
154.3423713674843043
 30
0.0
 40
0.0390000010145155
 50
89.9999628711902631
 51
106.5734011364930041
  0
ARC
  5
3F812
  8
0
 10
2666.2307876250988556
 20
153.2697966722741967
 30
0.0
 40
1.1580661908339549
 50
106.5734011364930041
 51
145.4265988808124064
  0
ARC
  5
3F813
  8
0
 10
2665.3093486423840659
 20
153.9048237099316054
 30
0.0
 40
0.0390000009134753
 50
145.4265988808110137
 51
178.5734007950154023
  0
ARC
  5
3F814
  8
0
 10
2665.412609992560192
 20
153.8714711028299007
 30
0.0
 40
0.0791743092076188
 50
145.9038300317994015
 51
178.3585516498401091
  0
ARC
  5
3F815
  8
0
 10
2666.2759978341068745
 20
153.2075646594327054
 30
0.0
 40
1.1681724010019729
 50
109.2713840144435977
 51
142.67586677193691
  0
ARC
  5
3F816
  8
0
 10
2665.9138822574000187
 20
154.2329557020991899
 30
0.0
 40
0.0807961517046088
 50
91.6318839931431768
 51
106.8584270494364006
  0
ARC
  5
3F817
  8
0
 10
2665.9116679407848096
 20
154.3244785692143921
 30
0.0
 40
1.1637426954084831
 50
253.254097720390007
 51
269.9957369231890993
  0
ARC
  5
3F818
  8
0
 10
2665.5957061967310437
 20
153.2743804995936898
 30
0.0
 40
0.0671398595891788
 50
215.1950102562068139
 51
253.254097720390007
  0
ARC
  5
3F819
  8
0
 10
2666.4683679385511823
 20
153.8898618317618059
 30
0.0
 40
1.1350142838009101
 50
180.813909983171186
 51
215.1950102562068139
  0
ARC
  5
3F81A
  8
0
 10
2665.9116153312697861
 20
154.174253118489105
 30
0.0
 40
0.0215427745255381
 50
90.0903700748603882
 51
111.5723223306538046
  0
ARC
  5
3F81B
  8
0
 10
2666.3150794745001804
 20
153.1537790488114013
 30
0.0
 40
1.118880754255013
 50
111.5723223306538046
 51
140.4276099500854968
  0
ARC
  5
3F81C
  8
0
 10
2665.4691595501490156
 20
153.8528985313112116
 30
0.0
 40
0.0214525929502448
 50
140.4276099500866906
 51
183.5712093567832994
  0
ARC
  5
3F81D
  8
0
 10
2666.5643748126140054
 20
153.9212511377888859
 30
0.0
 40
1.1187987324836259
 50
183.5712093567832994
 51
212.4287428093126948
  0
ARC
  5
3F81E
  8
0
 10
2665.6381473303499661
 20
153.3327973146438978
 30
0.0
 40
0.0214495397123582
 50
212.4287428093140875
 51
255.5724935383246077
  0
ARC
  5
3F81F
  8
0
 10
2665.9169853846869955
 20
154.4166394221415999
 30
0.0
 40
1.1405850875937289
 50
255.5724935383246077
 51
269.7285346093652265
  0
LINE
  5
3F820
  8
0
 10
2665.6255356622309591
 20
153.3154390352574126
 30
0.0
 11
2665.5585271761269723
 21
153.2183682873987891
 31
0.0
  0
LINE
  5
3F821
  8
0
 10
2665.33725492673193
 20
153.8957648323194007
 30
0.0
 11
2665.4487507209000796
 21
153.8595306810036902
 31
0.0
  0
LINE
  5
3F822
  8
0
 10
2665.9115813528278522
 20
154.3137190846956912
 30
0.0
 11
2665.911581498868145
 21
154.1957958662179067
 31
0.0
  0
LINE
  5
3F823
  8
0
 10
2665.911581322739039
 20
154.3813713684988045
 30
0.0
 11
2665.911581322739039
 21
155.2294811746533014
 31
0.0
  0
ARC
  5
3F824
  8
0
 10
2665.2442102034078744
 20
154.6295267072738966
 30
0.0
 40
0.1644805459097936
 50
126.3732047282391022
 51
161.7014624032860013
  0
ARC
  5
3F825
  8
0
 10
2665.2622053598320235
 20
154.6235758878275988
 30
0.0
 40
0.1834341183131095
 50
161.7014624032860013
 51
189.5823409260356982
  0
ARC
  5
3F826
  8
0
 10
2665.2030586808891712
 20
154.6135907259572946
 30
0.0
 40
0.1234505114891019
 50
189.5823409260356982
 51
226.5656910624842055
  0
ARC
  5
3F827
  8
0
 10
2665.1763775593221908
 20
154.5854100522346926
 30
0.0
 40
0.0846428753903661
 50
226.5656910624842055
 51
264.4483325122731117
  0
ARC
  5
3F828
  8
0
 10
2665.1842247396289167
 20
154.6661429778214085
 30
0.0
 40
0.1657562744842545
 50
264.4483325122731117
 51
294.1063907126394952
  0
ARC
  5
3F829
  8
0
 10
2665.1293205418601246
 20
154.7888461294199942
 30
0.0
 40
0.3001829621059459
 50
294.1063907126394952
 51
310.7464725707420143
  0
ARC
  5
3F82A
  8
0
 10
2665.1825409913858493
 20
154.7270730670863941
 30
0.0
 40
0.2186456854903857
 50
310.7464725707420143
 51
333.1832548284468771
  0
ARC
  5
3F82B
  8
0
 10
2665.2795355637808825
 20
154.6780419970521052
 30
0.0
 40
0.1099626927880621
 50
333.1832548284455129
 51
4.5515308340442919
  0
ARC
  5
3F82C
  8
0
 10
2665.2981979070850684
 20
154.6795276450756944
 30
0.0
 40
0.0912413090872581
 50
4.5515308340442919
 51
37.3429105533643977
  0
ARC
  5
3F82D
  8
0
 10
2665.2405189992891792
 20
154.6319829172994105
 30
0.0
 40
0.1603209980051551
 50
104.354126805642295
 51
125.831615297439896
  0
ARC
  5
3F82E
  8
0
 10
2665.2443207913720471
 20
154.6171265445449876
 30
0.0
 40
0.1756561026496348
 50
80.1174525231071755
 51
104.354126805642295
  0
ARC
  5
3F82F
  8
0
 10
2665.244557616507791
 20
154.6184859360718065
 30
0.0
 40
0.1742762361822556
 50
57.6653144015970227
 51
80.1174525231071755
  0
ARC
  5
3F830
  8
0
 10
2665.2732109292451241
 20
154.6637503030227094
 30
0.0
 40
0.1207050195983252
 50
36.1022917924224132
 51
57.6653144015961487
  0
ARC
  5
3F831
  8
0
 10
2665.2685736943808479
 20
154.6232008134120122
 30
0.0
 40
0.1521761603188757
 50
49.1109358997722012
 51
62.5919976375394782
  0
ARC
  5
3F832
  8
0
 10
2665.2585489891548605
 20
154.6038678058505127
 30
0.0
 40
0.17395366927278
 50
62.5919976375394782
 51
83.9358616337489565
  0
ARC
  5
3F833
  8
0
 10
2665.2561755992460348
 20
154.5815271085602944
 30
0.0
 40
0.1964200827620012
 50
83.9358616337489565
 51
105.2623803953042056
  0
ARC
  5
3F834
  8
0
 10
2665.2424808792297881
 20
154.6317160227389138
 30
0.0
 40
0.1443963145138789
 50
105.2623803953046036
 51
136.6662417576050927
  0
ARC
  5
3F835
  8
0
 10
2665.26710941086003
 20
154.6084798563113054
 30
0.0
 40
0.1782560841604979
 50
136.666241757603899
 51
157.4328296821610138
  0
ARC
  5
3F836
  8
0
 10
2665.2699864862770482
 20
154.6072841791107919
 30
0.0
 40
0.1813717232476339
 50
157.4328296821610138
 51
179.9468112847893053
  0
ARC
  5
3F837
  8
0
 10
2665.2654646344758476
 20
154.6072883768293025
 30
0.0
 40
0.1768498694982823
 50
179.9468112847908969
 51
195.76269806414291
  0
ARC
  5
3F838
  8
0
 10
2665.2021647162409863
 20
154.5894208080189003
 30
0.0
 40
0.111076549195061
 50
195.7626980641443879
 51
203.4274979702479982
  0
LINE
  5
3F839
  8
0
 10
2665.9115813528278522
 20
153.1607358765058962
 30
0.0
 11
2665.9115813528278522
 21
144.7385883475238018
 31
0.0
  0
ARC
  5
3F83A
  8
0
 10
2665.9115446006439925
 20
144.7785938007372124
 30
0.0
 40
0.0400054700951001
 50
254.4387004160903132
 51
270.052636433929024
  0
ARC
  5
3F83B
  8
0
 10
2666.2115221612411915
 20
145.8558012810906916
 30
0.0
 40
1.1582015587089449
 50
216.2596564137824942
 51
254.4387004160898016
  0
ARC
  5
3F83C
  8
0
 10
2665.3078724595429776
 20
145.1929837004933859
 30
0.0
 40
0.0375276861982598
 50
181.6708869645964057
 51
216.2596564137824942
  0
LINE
  5
3F83D
  8
0
 10
2671.4440614554841886
 20
152.6023751249429097
 30
0.0
 11
2671.4440614554841886
 21
150.1124674026401919
 31
0.0
  0
ARC
  5
3F83E
  8
0
 10
2673.2197487349922085
 20
154.1647108806623976
 30
0.0
 40
2.7391688214850678
 50
180.7182047592409049
 51
215.2719729480552928
  0
ARC
  5
3F83F
  8
0
 10
2670.5281188996859782
 20
154.1281677973115052
 30
0.0
 40
0.0473752902709517
 50
147.1182910345733887
 51
177.3281905008429931
  0
ARC
  5
3F840
  8
0
 10
2672.6901770182298606
 20
152.5071728502215933
 30
0.0
 40
2.7495065651607979
 50
108.7250004171293938
 51
143.2079115929645923
  0
ARC
  5
3F841
  8
0
 10
2671.8187754643690823
 20
155.0602132055018956
 30
0.0
 40
0.0521658605436518
 50
91.8480838904270485
 51
102.4679525120508998
  0
ARC
  5
3F842
  8
0
 10
2672.5510639310241459
 20
153.9168400016093017
 30
0.0
 40
1.8535643698865101
 50
175.8291680521963087
 51
179.2031382591559066
  0
ARC
  5
3F843
  8
0
 10
2670.780500279970056
 20
154.0459558855658884
 30
0.0
 40
0.07829916324205
 50
148.1708329889343929
 51
175.8291680521963087
  0
ARC
  5
3F844
  8
0
 10
2672.2228844936807945
 20
153.150622927650204
 30
0.0
 40
1.7759720779970849
 50
103.8525039416312978
 51
148.1708329889343929
  0
ARC
  5
3F845
  8
0
 10
2671.8193665341759697
 20
154.7808201136475077
 30
0.0
 40
0.0965883742565931
 50
91.3486923923483829
 51
102.9777374796965006
  0
ARC
  5
3F846
  8
0
 10
2672.5545681312219131
 20
153.9517668817331071
 30
0.0
 40
1.8569118434884839
 50
180.2822848218972922
 51
219.2511679980707981
  0
ARC
  5
3F847
  8
0
 10
2671.1763977728392092
 20
152.8273049313025069
 30
0.0
 40
0.0782235928862715
 50
220.1572065385664132
 51
247.8427949590461026
  0
ARC
  5
3F848
  8
0
 10
2671.8179126047680256
 20
154.4026514814059965
 30
0.0
 40
1.779181567824508
 50
247.8427949590461026
 51
269.9736103613387854
  0
ARC
  5
3F849
  8
0
 10
2671.0153389476267876
 20
152.6056197829566941
 30
0.0
 40
0.0391340844065357
 50
215.424006755946408
 51
252.4240761169158134
  0
ARC
  5
3F84A
  8
0
 10
2671.8390006579438705
 20
155.2871467202093072
 30
0.0
 40
2.8443073501372451
 50
252.918167534592186
 51
262.0185488557482927
  0
ARC
  5
3F84B
  8
0
 10
2671.3653450135298044
 20
152.6007375109838051
 30
0.0
 40
0.0787334745415884
 50
1.1918073664078439
 51
74.1857716195224413
  0
LINE
  5
3F84C
  8
0
 10
2671.5252237434051494
 20
150.031981038898806
 30
0.0
 11
2672.1089625336508107
 21
150.031981038898806
 31
0.0
  0
ARC
  5
3F84D
  8
0
 10
2671.4776719982519353
 20
150.113509594142414
 30
0.0
 40
0.0336266969579932
 50
181.776051286204904
 51
230.4341160825449037
  0
LINE
  5
3F84E
  8
0
 10
2671.4562529664021895
 20
150.0875870205260014
 30
0.0
 11
2671.5076209403541725
 21
150.0401606775915866
 31
0.0
  0
ARC
  5
3F84F
  8
0
 10
2671.5288895231819879
 20
150.0629005686159019
 30
0.0
 40
0.0311360764917905
 50
226.9148212997872065
 51
263.238647577225322
  0
LINE
  5
3F850
  8
0
 10
2671.4441110727489104
 20
150.1114074457987897
 30
0.0
 11
2672.1900752043061402
 21
150.1114074457987897
 31
0.0
  0
ARC
  5
3F851
  8
0
 10
2671.8194836839847994
 20
154.6987724610220027
 30
0.0
 40
0.0581787062784568
 50
92.3549292438714957
 51
102.2964618543050932
  0
ARC
  5
3F852
  8
0
 10
2672.2196086438880229
 20
153.1551287975347861
 30
0.0
 40
1.652794500106159
 50
104.4530478738631984
 51
147.5647565481258994
  0
ARC
  5
3F853
  8
0
 10
2670.8568127120429381
 20
154.0211617374318962
 30
0.0
 40
0.0381038780852634
 50
147.5647565481231993
 51
176.4387161215558137
  0
ARC
  5
3F854
  8
0
 10
2672.4686406280848132
 20
153.9208475357177122
 30
0.0
 40
1.6530503694590519
 50
176.4387161215558137
 51
219.5617983826871864
  0
ARC
  5
3F855
  8
0
 10
2671.2235742861857943
 20
152.8922365807100903
 30
0.0
 40
0.0380486070782821
 50
219.5617983826859927
 51
248.5780296136080949
  0
ARC
  5
3F856
  8
0
 10
2671.8194996508241275
 20
154.4111441786037915
 30
0.0
 40
1.6696758105651159
 50
248.5780296136080949
 51
269.9174192709695035
  0
LINE
  5
3F857
  8
0
 10
2671.81709313852798
 20
155.1123519318578019
 30
0.0
 11
2671.81709313852798
 21
154.7569020331575018
 31
0.0
  0
LINE
  5
3F858
  8
0
 10
2670.4830056225728185
 20
154.1426319031043874
 30
0.0
 11
2670.8205734136790852
 21
154.0329353850939924
 31
0.0
  0
LINE
  5
3F859
  8
0
 10
2671.2012474537818889
 20
152.8614273441826867
 30
0.0
 11
2670.9922945574749065
 21
152.5739901663791045
 31
0.0
  0
LINE
  5
3F85A
  8
0
 10
2671.81709313852798
 20
152.7414701022987913
 30
0.0
 11
2671.81709313852798
 21
150.031981038898806
 31
0.0
  0
ARC
  5
3F85B
  8
0
 10
2677.7361011038028664
 20
154.9382205833674959
 30
0.0
 40
0.1242042379110925
 50
96.2381340446754052
 51
105.1863301691704038
  0
ARC
  5
3F85C
  8
0
 10
2678.4711612459018397
 20
152.6788475891005135
 30
0.0
 40
2.4999973923050591
 50
107.880873617938903
 51
144.1191249171151014
  0
ARC
  5
3F85D
  8
0
 10
2677.7307154748900757
 20
155.0117490114014913
 30
0.0
 40
2.5301606347511041
 50
251.9110838448058018
 51
257.6858697492880879
  0
ARC
  5
3F85E
  8
0
 10
2676.9643407099511023
 20
152.6654855560234978
 30
0.0
 40
0.0619056879564208
 50
216.0852377777243021
 51
251.9110838448058018
  0
ARC
  5
3F85F
  8
0
 10
2678.9383275923869405
 20
154.1041626520963916
 30
0.0
 40
2.504530505400218
 50
180.1353804100349976
 51
216.0852377777243021
  0
ARC
  5
3F860
  8
0
 10
2676.5281763604648404
 20
154.0984678544687938
 30
0.0
 40
0.0943725455445702
 50
151.0830341109628989
 51
180.1353804100349976
  0
ARC
  5
3F861
  8
0
 10
2677.7250425471670496
 20
154.9385989313271921
 30
0.0
 40
0.0370285132500951
 50
93.7745315928925152
 51
104.4441121539202015
  0
ARC
  5
3F862
  8
0
 10
2678.4715839712839625
 20
152.6782634770395077
 30
0.0
 40
2.417375574663319
 50
108.2186347243253977
 51
143.7813139608632866
  0
ARC
  5
3F863
  8
0
 10
2676.5388667777019691
 20
154.0937668235746116
 30
0.0
 40
0.0217450784427947
 50
143.7813139608607003
 51
180.2182982745368918
  0
ARC
  5
3F864
  8
0
 10
2678.934441855994919
 20
154.1028940654238966
 30
0.0
 40
2.4173375442610889
 50
180.2182982745368918
 51
215.781557283265812
  0
ARC
  5
3F865
  8
0
 10
2676.9910123422519064
 20
152.702199230789688
 30
0.0
 40
0.0217448629690673
 50
215.781557283265812
 51
252.2262091899702057
  0
ARC
  5
3F866
  8
0
 10
2677.725635318129207
 20
154.9938830117978057
 30
0.0
 40
2.4282953961643701
 50
252.2262091899702057
 51
257.2835771711095276
  0
ARC
  5
3F867
  8
0
 10
2677.7226049496280211
 20
153.7091464488987924
 30
0.0
 40
0.5315007056946253
 50
90.0000003180025345
 51
211.5871520278894025
  0
ARC
  5
3F868
  8
0
 10
2677.7226049496280211
 20
153.7091464488987924
 30
0.0
 40
0.4527559055000015
 50
90.0000003733175475
 51
193.9720807279263113
  0
ARC
  5
3F869
  8
0
 10
2677.7385774971080536
 20
153.2879926537472102
 30
0.0
 40
0.6089009618430486
 50
91.5031421726310441
 51
121.5206397044342026
  0
ARC
  5
3F86A
  8
0
 10
2677.5735283957151296
 20
153.5747380669623965
 30
0.0
 40
0.2783282976191084
 50
123.4181037149986935
 51
166.103754331071201
  0
ARC
  5
3F86B
  8
0
 10
2677.7704134031641843
 20
152.9551635364634876
 30
0.0
 40
0.8871842174886069
 50
93.0890430666207038
 51
107.304539273218893
  0
ARC
  5
3F86C
  8
0
 10
2677.6544964899808292
 20
153.4061833269628039
 30
0.0
 40
0.4227521631466172
 50
110.4892294815339966
 51
146.1634384714602106
  0
ARC
  5
3F86D
  8
0
 10
2677.4394567349181671
 20
153.5503386975182138
 30
0.0
 40
0.1638644131134301
 50
146.1634384714602106
 51
166.379317833159206
  0
ARC
  5
3F86E
  8
0
 10
2677.5742179396329448
 20
153.4062838411024927
 30
0.0
 40
0.3459003664798184
 50
129.9027644080221933
 51
151.6341946009393098
  0
ARC
  5
3F86F
  8
0
 10
2677.9035559980161452
 20
152.7326343660608927
 30
0.0
 40
1.088841888877728
 50
104.0008017975222003
 51
120.4145067780536067
  0
ARC
  5
3F870
  8
0
 10
2677.7225588070618869
 20
153.1153748810274067
 30
0.0
 40
0.6787783983395363
 50
89.9961053485610165
 51
96.9753387036235353
  0
ARC
  5
3F871
  8
0
 10
2677.7226049500977751
 20
152.9441080423424921
 30
0.0
 40
0.679284313671039
 50
90.0000002884821271
 51
96.9740388755862739
  0
ARC
  5
3F872
  8
0
 10
2677.0896079026460939
 20
154.5556290811150859
 30
0.0
 40
1.0869829190834961
 50
283.9866693215840883
 51
300.428639262095885
  0
ARC
  5
3F873
  8
0
 10
2677.5679548907678509
 20
153.2406348024888132
 30
0.0
 40
0.3379632026412041
 50
129.6443633815044052
 51
151.8925956273718896
  0
LINE
  5
3F874
  8
0
 10
2677.2698490440279784
 20
153.5706208086990046
 30
0.0
 11
2677.2698490440279784
 21
153.2666034221174982
 31
0.0
  0
ARC
  5
3F875
  8
0
 10
2677.4949280496839492
 20
153.1925499030357116
 30
0.0
 40
0.2369482696191265
 50
161.7882141866687959
 51
175.2932418916568054
  0
ARC
  5
3F876
  8
0
 10
2677.5816174811989185
 20
153.164028107090104
 30
0.0
 40
0.3282091614651443
 50
134.33654451718769
 51
161.7882141866687959
  0
ARC
  5
3F877
  8
0
 10
2677.6593079592298636
 20
153.0845172374245067
 30
0.0
 40
0.4393747531359563
 50
106.7493120250023964
 51
134.33654451718769
  0
ARC
  5
3F878
  8
0
 10
2677.7338763826301147
 20
152.8367427258864097
 30
0.0
 40
0.6981268706855384
 50
90.9250951316819709
 51
106.7493123575829941
  0
ARC
  5
3F879
  8
0
 10
2676.2971299865289438
 20
153.294814279285589
 30
0.0
 40
0.9652087262632253
 50
348.2791212271162067
 51
355.0775876041900005
  0
ARC
  5
3F87A
  8
0
 10
2533.3205586512622176
 20
182.9581784555354886
 30
0.0
 40
146.9864918497910082
 50
348.2220514003241192
 51
348.2791212271162067
  0
ARC
  5
3F87B
  8
0
 10
2678.2041856042910695
 20
152.7482628137414054
 30
0.0
 40
1.013185103068176
 50
168.2032701405580895
 51
179.1772854729310041
  0
LINE
  5
3F87C
  8
0
 10
2677.1911049502509741
 20
152.762810717023001
 30
0.0
 11
2677.1911049502509741
 21
150.7571033722423977
 31
0.0
  0
ARC
  5
3F87D
  8
0
 10
2676.6200536940100392
 20
150.7445266138120985
 30
0.0
 40
0.5711897338955606
 50
347.539380338048602
 51
1.2616708143169231
  0
ARC
  5
3F87E
  8
0
 10
2677.7322181235717835
 20
149.9119854972792041
 30
0.0
 40
0.9043245311992937
 50
90.6090787308623362
 51
119.7099877844188001
  0
ARC
  5
3F87F
  8
0
 10
2677.654696810850055
 20
150.0681301373259089
 30
0.0
 40
0.7303547534201239
 50
120.4989060750202015
 51
130.7667605790470873
  0
ARC
  5
3F880
  8
0
 10
2677.6775939323938474
 20
150.0415724339104031
 30
0.0
 40
0.765420260484966
 50
130.7667605790470873
 51
144.6283670741900096
  0
ARC
  5
3F881
  8
0
 10
2677.5792606085019543
 20
150.1113810430190085
 30
0.0
 40
0.6448272072303192
 50
144.6283670741900096
 51
168.3341111615715988
  0
ARC
  5
3F882
  8
0
 10
2677.5708100347160325
 20
150.1131258265355086
 30
0.0
 40
0.6361983911569226
 50
168.3341111615715988
 51
193.6910949278143903
  0
ARC
  5
3F883
  8
0
 10
2677.5926154590638362
 20
150.1184378256886021
 30
0.0
 40
0.6586415162951555
 50
193.6910949278143903
 51
226.3871734460936977
  0
ARC
  5
3F884
  8
0
 10
2677.7179327743601789
 20
150.2499749944499001
 30
0.0
 40
0.8403183069943867
 50
226.3871734460936977
 51
247.7220552799795996
  0
ARC
  5
3F885
  8
0
 10
2677.7213638144348806
 20
150.2809195193866003
 30
0.0
 40
0.8702957672561678
 50
248.2853561920543939
 51
270.0817097659370916
  0
ARC
  5
3F886
  8
0
 10
2677.7577959215977899
 20
149.9182147919860881
 30
0.0
 40
0.8603153519208323
 50
101.9094438925084063
 51
123.0805187988621014
  0
ARC
  5
3F887
  8
0
 10
2677.7223789601030148
 20
149.9993055019309054
 30
0.0
 40
0.7738687986830078
 50
92.0669838790685162
 51
100.5825410756490044
  0
ARC
  5
3F888
  8
0
 10
2677.6947019015910882
 20
150.7544997929348938
 30
0.0
 40
0.0181725008386868
 50
1.941982435476354
 51
90.7400810621949887
  0
ARC
  5
3F889
  8
0
 10
2658.946792769736021
 20
150.4743380007593032
 30
0.0
 40
18.7681715725891216
 50
359.7142505326473838
 51
0.8571944411019321
  0
ARC
  5
3F88A
  8
0
 10
2678.6793326409228939
 20
150.3576584157198965
 30
0.0
 40
0.9648777382738085
 50
178.6294625382732875
 51
181.3705374617267125
  0
ARC
  5
3F88B
  8
0
 10
2677.7006999966329204
 20
150.334244674163898
 30
0.0
 40
0.0140349522988326
 50
336.5056969899085857
 51
1.3705374617283539
  0
ARC
  5
3F88C
  8
0
 10
2677.6633257670678177
 20
150.1280304421889866
 30
0.0
 40
0.2373994429728265
 50
181.1221006547592083
 51
208.3485994007581894
  0
ARC
  5
3F88D
  8
0
 10
2677.6654551477649875
 20
150.1280721500604045
 30
0.0
 40
0.2395292320934121
 50
144.7497327298762002
 51
181.122100654757503
  0
ARC
  5
3F88E
  8
0
 10
2677.7065514035930391
 20
150.0990279005038133
 30
0.0
 40
0.2898528912941587
 50
112.4042118061086057
 51
144.7497327298748928
  0
ARC
  5
3F88F
  8
0
 10
2677.7243589769650498
 20
150.0558325019196104
 30
0.0
 40
0.3365749645384608
 50
95.8947002370344563
 51
112.4042118061086057
  0
ARC
  5
3F890
  8
0
 10
2677.7143488898927899
 20
150.1527858198599858
 30
0.0
 40
0.239106263393661
 50
94.2464420260146625
 51
95.8947002370344563
  0
ARC
  5
3F891
  8
0
 10
2677.6951708370429515
 20
150.4110747173064908
 30
0.0
 40
0.0198936444349299
 50
274.2464420260146767
 51
351.532188447628414
  0
ARC
  5
3F892
  8
0
 10
2677.7197433232709045
 20
150.0489902041524886
 30
0.0
 40
0.2797274217383589
 50
91.2642705283364108
 51
98.5539525541666848
  0
ARC
  5
3F893
  8
0
 10
2677.7209387143179811
 20
150.0410428556062072
 30
0.0
 40
0.287764169132136
 50
98.5539525541666848
 51
149.7392567825590106
  0
ARC
  5
3F894
  8
0
 10
2677.6315518393807906
 20
150.0931942035049076
 30
0.0
 40
0.1842761191042291
 50
149.7392567825604033
 51
175.3382514106801011
  0
ARC
  5
3F895
  8
0
 10
2677.7048326784702112
 20
150.0872186730647115
 30
0.0
 40
0.2578001855151984
 50
175.3382514106801011
 51
205.4392324114807025
  0
ARC
  5
3F896
  8
0
 10
2677.6352397480068248
 20
150.0541151042525883
 30
0.0
 40
0.1807351335224706
 50
205.4392324114807025
 51
222.9154985355447138
  0
ARC
  5
3F897
  8
0
 10
2677.7365459571929023
 20
150.1483057227578968
 30
0.0
 40
0.3190638024026093
 50
222.9154985355447138
 51
245.7338736367420893
  0
ARC
  5
3F898
  8
0
 10
2677.7221722190997752
 20
150.139279594846613
 30
0.0
 40
0.3050725868778398
 50
247.4984896002706023
 51
270.0810996537180131
  0
ARC
  5
3F899
  8
0
 10
2677.6645225776901498
 20
150.0546674259732924
 30
0.0
 40
0.2372178450741692
 50
165.3302744338820958
 51
172.1777841438562859
  0
ARC
  5
3F89A
  8
0
 10
2677.6723527764888786
 20
150.052617633303413
 30
0.0
 40
0.2453118961757501
 50
144.5389162836758032
 51
165.3302744338820958
  0
ARC
  5
3F89B
  8
0
 10
2677.6788671621611684
 20
150.0479776398350964
 30
0.0
 40
0.2533098184100582
 50
131.7937028594722904
 51
144.5389162836758032
  0
ARC
  5
3F89C
  8
0
 10
2677.4385504478441362
 20
150.0097767737507866
 30
0.0
 40
0.0167811200038876
 50
352.337227287777182
 51
18.7856638686557602
  0
ARC
  5
3F89D
  8
0
 10
2677.4391527526368009
 20
150.0096957374076112
 30
0.0
 40
0.0161733881949984
 50
296.1062189068316002
 51
352.337227287777182
  0
LINE
  5
3F89E
  8
0
 10
2677.4462696360269547
 20
149.9951723611987973
 30
0.0
 11
2677.1317940425378765
 21
149.8580939364032929
 31
0.0
  0
ARC
  5
3F89F
  8
0
 10
2677.1237561715479387
 20
149.878308156491812
 30
0.0
 40
0.021753667975507
 50
219.9656075329484111
 51
291.6844743702358755
  0
ARC
  5
3F8A0
  8
0
 10
2677.6840578548599296
 20
150.0958407029798138
 30
0.0
 40
0.6721548643694978
 50
126.0794897553228964
 51
142.2723572832082937
  0
ARC
  5
3F8A1
  8
0
 10
2677.5763163463961973
 20
150.16634474500529
 30
0.0
 40
0.5438919924173292
 50
141.2015447565960926
 51
159.0154701218800142
  0
ARC
  5
3F8A2
  8
0
 10
2677.6120489471250039
 20
150.1473324104904066
 30
0.0
 40
0.5840843416487244
 50
158.5294061776598085
 51
183.2505114441840135
  0
ARC
  5
3F8A3
  8
0
 10
2677.5878692760670674
 20
150.1528755324276005
 30
0.0
 40
0.5603004283517686
 50
183.9566517032820911
 51
200.9522185614106036
  0
ARC
  5
3F8A4
  8
0
 10
2679.2347912416971667
 20
150.9433106342519864
 30
0.0
 40
2.3856504896696489
 50
204.5390518905672934
 51
206.8898845572716141
  0
ARC
  5
3F8A5
  8
0
 10
2677.4643328097881749
 20
149.9216159839994873
 30
0.0
 40
0.0189103556500938
 50
40.7634056984909989
 51
113.6433056995153947
  0
ARC
  5
3F8A6
  8
0
 10
2677.775491953530036
 20
150.1898547365352101
 30
0.0
 40
0.3919083891707026
 50
220.7634056984909989
 51
233.1986142992475948
  0
ARC
  5
3F8A7
  8
0
 10
2677.7174217928081816
 20
150.1356230930622928
 30
0.0
 40
0.314010398787459
 50
235.7559151568486016
 51
257.4083950387441746
  0
ARC
  5
3F8A8
  8
0
 10
2677.7225259323840874
 20
150.1544731265695134
 30
0.0
 40
0.3335209085456358
 50
257.2585819816944195
 51
270.0135730474646039
  0
ARC
  5
3F8A9
  8
0
 10
2675.7515525510261796
 20
153.7049410546320019
 30
0.0
 40
4.1340617186915223
 50
293.4967368338205915
 51
294.3603950983713844
  0
ARC
  5
3F8AA
  8
0
 10
2693.0553269864130925
 20
113.902785476094806
 30
0.0
 40
39.2667700522412702
 50
113.4967368338207052
 51
113.9051891547146056
  0
ARC
  5
3F8AB
  8
0
 10
2677.1508903345747967
 20
149.7844128879553125
 30
0.0
 40
0.0183014077720851
 50
113.9051891547139945
 51
153.8324045429546914
  0
ARC
  5
3F8AC
  8
0
 10
2677.1485779957201885
 20
149.7855490757571886
 30
0.0
 40
0.0157250084035637
 50
153.832404542950286
 51
191.4164763455331979
  0
ARC
  5
3F8AD
  8
0
 10
2677.1587546902601389
 20
149.7876041029541057
 30
0.0
 40
0.0261071203543474
 50
191.4164763455331979
 51
206.3886141986787095
  0
ARC
  5
3F8AE
  8
0
 10
2677.7216157545740316
 20
150.2564926282921931
 30
0.0
 40
0.7685436851464813
 50
250.658758096332491
 51
270.0737453828622847
  0
ARC
  5
3F8AF
  8
0
 10
2677.7049911003878151
 20
150.209129387139086
 30
0.0
 40
0.7183475125899496
 50
229.7793975408843039
 51
250.658758096332491
  0
ARC
  5
3F8B0
  8
0
 10
2677.6405538183348654
 20
150.132933753106812
 30
0.0
 40
0.6185580443886284
 50
215.2426670549621974
 51
229.7793975408843039
  0
LINE
  5
3F8B1
  8
0
 10
2677.1180832223249126
 20
149.8573072108584086
 30
0.0
 11
2677.1180832223249126
 21
149.7809076263951056
 31
0.0
  0
LINE
  5
3F8B2
  8
0
 10
2677.4553572427280415
 20
150.0104086827988112
 30
0.0
 11
2677.4567489718278921
 21
149.93893900199879
 31
0.0
  0
ARC
  5
3F8B3
  8
0
 10
2677.5767369264281115
 20
150.1094168976628964
 30
0.0
 40
0.5627706816508585
 50
158.944279163757102
 51
172.6621372272616952
  0
ARC
  5
3F8B4
  8
0
 10
2677.5766032397132221
 20
150.1094341131276906
 30
0.0
 40
0.5626358910348844
 50
172.6621372272616952
 51
192.9180429401326933
  0
ARC
  5
3F8B5
  8
0
 10
2677.590685156481868
 20
150.1126639700788985
 30
0.0
 40
0.5770834636968745
 50
192.9180429401326933
 51
209.258769800702396
  0
ARC
  5
3F8B6
  8
0
 10
2677.6404456325390129
 20
150.1405411816828916
 30
0.0
 40
0.6341206787782956
 50
209.258769800702396
 51
221.9035708847956982
  0
ARC
  5
3F8B7
  8
0
 10
2677.6750580956590966
 20
150.1716010627133926
 30
0.0
 40
0.6806259345331139
 50
221.9035708847956982
 51
245.6877886065979055
  0
ARC
  5
3F8B8
  8
0
 10
2677.7315024549011468
 20
150.3007956287902971
 30
0.0
 40
0.8216034472584716
 50
245.8099595165454048
 51
269.3795064565052826
  0
ARC
  5
3F8B9
  8
0
 10
2677.5470963077318629
 20
150.0479324582948948
 30
0.0
 40
0.5362571479497255
 50
164.8990807470927962
 51
173.7971677405909929
  0
LINE
  5
3F8BA
  8
0
 10
2677.0181161530640566
 20
150.1359763376678131
 30
0.0
 11
2677.02803244868619
 21
150.1384302921686924
 31
0.0
  0
ARC
  5
3F8BB
  8
0
 10
2677.7212225109078645
 20
149.9338868360026993
 30
0.0
 40
0.8332386148318168
 50
88.8951006617866142
 51
90.9178758141926551
  0
ARC
  5
3F8BC
  8
0
 10
2677.7226246120958422
 20
150.5798298454120925
 30
0.0
 40
0.1546421293630322
 50
267.1369776307653865
 51
272.8484338519435823
  0
LINE
  5
3F8BD
  8
0
 10
2677.4417565677767925
 20
150.1362442641749055
 30
0.0
 11
2677.4526530337420809
 21
150.1373858929140965
 31
0.0
  0
LINE
  5
3F8BE
  8
0
 10
2677.485174216400992
 20
150.2112225689010927
 30
0.0
 11
2677.4856044239190851
 21
150.2066507926101906
 31
0.0
  0
LINE
  5
3F8BF
  8
0
 10
2677.6401265196268469
 20
153.7891293110988045
 30
0.0
 11
2677.6401265196268469
 21
153.6183665145227053
 31
0.0
  0
LINE
  5
3F8C0
  8
0
 10
2677.3523274740268789
 20
153.6716358427987927
 30
0.0
 11
2677.3523274740268789
 21
153.5008730461987909
 31
0.0
  0
LINE
  5
3F8C1
  8
0
 10
2676.4367649316800453
 20
154.1219226629312971
 30
0.0
 11
2676.5179041465198679
 21
154.0995475268533141
 31
0.0
  0
LINE
  5
3F8C2
  8
0
 10
2676.9279518519051635
 20
152.6154039704711067
 30
0.0
 11
2676.9782322248152013
 21
152.6846064008911128
 31
0.0
  0
LINE
  5
3F8C3
  8
0
 10
2677.7226049466780751
 20
155.0616893909987937
 30
0.0
 11
2677.7226049466780751
 21
154.9755471233987976
 31
0.0
  0
ARC
  5
3F8C4
  8
0
 10
2677.7204823894358015
 20
148.4849424811089875
 30
0.0
 40
2.8289228203596331
 50
246.0541526500622069
 51
270.0429893605522125
  0
ARC
  5
3F8C5
  8
0
 10
2677.5892012203789818
 20
148.1893282292049037
 30
0.0
 40
2.5054687567310712
 50
214.4399098278819906
 51
246.0541498416224897
  0
ARC
  5
3F8C6
  8
0
 10
2677.2063308348469945
 20
147.9267794926066131
 30
0.0
 40
2.0412257479453921
 50
187.2602129396753128
 51
214.4399098278819906
  0
ARC
  5
3F8C7
  8
0
 10
2677.3966406476929478
 20
147.9510244310964993
 30
0.0
 40
2.2330737135527992
 50
179.8338160814369076
 51
187.2602129396753128
  0
ARC
  5
3F8C8
  8
0
 10
2679.0051949349549432
 20
147.9463588762062898
 30
0.0
 40
3.8416347669387738
 50
164.4429033879245026
 51
179.8338160814369076
  0
ARC
  5
3F8C9
  8
0
 10
2677.514238036243114
 20
148.1764636249509977
 30
0.0
 40
2.350352306900076
 50
126.8992296694169966
 51
160.0947068295313045
  0
ARC
  5
3F8CA
  8
0
 10
2677.6604090650248509
 20
147.9990429579686122
 30
0.0
 40
2.5800176228691312
 50
112.0764642877185935
 51
127.1294524837285991
  0
ARC
  5
3F8CB
  8
0
 10
2677.7248610373158044
 20
147.841888559573988
 30
0.0
 40
2.7498738904716351
 50
103.6627145202754008
 51
112.090238257193505
  0
LINE
  5
3F8CC
  8
0
 10
2666.5528019757280163
 20
153.9057946648989059
 30
0.0
 11
2666.5528019757280163
 21
145.1918894552497932
 31
0.0
  0
ARC
  5
3F8CD
  8
0
 10
2665.9081557091030845
 20
155.1647830029133104
 30
0.0
 40
0.0647887992911685
 50
73.4605526227909138
 51
86.9691289554847344
  0
ARC
  5
3F8CE
  8
0
 10
2664.9570974667021801
 20
152.3954113319375097
 30
0.0
 40
2.992860143304644
 50
36.874596662132447
 51
71.098735504744667
  0
ARC
  5
3F8CF
  8
0
 10
2667.3074330639360596
 20
154.1627231436903003
 30
0.0
 40
0.0523153409473775
 50
2.518905843223791
 51
33.1406963023682621
  0
ARC
  5
3F8D0
  8
0
 10
2664.362150324349841
 20
154.2126244338026879
 30
0.0
 40
2.9979254769446122
 50
324.8987540122993209
 51
359.0901998789814797
  0
ARC
  5
3F8D1
  8
0
 10
2665.8262716053518488
 20
155.6622226735277934
 30
0.0
 40
3.332642202679851
 50
282.5918436238168852
 51
286.8265895245208981
  0
ARC
  5
3F8D2
  8
0
 10
2666.7772518162551023
 20
152.5176989937532994
 30
0.0
 40
0.0474645006079876
 50
286.8265895245208981
 51
322.4143851595122783
  0
LINE
  5
3F8D3
  8
0
 10
2666.5528019757280163
 20
152.8236927828421017
 30
0.0
 11
2666.805117320656791
 21
152.4792751407146056
 31
0.0
  0
LINE
  5
3F8D4
  8
0
 10
2667.3572357128491603
 20
154.1787416036555101
 30
0.0
 11
2666.5515117111890504
 21
153.9148180790120932
 31
0.0
  0
ARC
  5
3F8D5
  8
0
 10
2665.9115813780999815
 20
154.3423713674843043
 30
0.0
 40
0.0390000010145155
 50
73.4265988635069675
 51
90.0000371288097369
  0
ARC
  5
3F8D6
  8
0
 10
2665.5923750805559393
 20
153.2697966722741967
 30
0.0
 40
1.1580661908339549
 50
34.5734011191876078
 51
73.4265988635069675
  0
ARC
  5
3F8D7
  8
0
 10
2666.5138140632720933
 20
153.9048237099316054
 30
0.0
 40
0.0390000009134753
 50
1.4265992049862739
 51
34.5734011191889508
  0
ARC
  5
3F8D8
  8
0
 10
2666.4105527130950577
 20
153.8714711028299007
 30
0.0
 40
0.0791743092076188
 50
1.641448350159902
 51
34.0961699682005488
  0
ARC
  5
3F8D9
  8
0
 10
2665.5471648715479205
 20
153.2075646594327054
 30
0.0
 40
1.1681724010019729
 50
37.3241332280631468
 51
70.7286159855563881
  0
ARC
  5
3F8DA
  8
0
 10
2665.9092804482547763
 20
154.2329557020991899
 30
0.0
 40
0.0807961517046088
 50
73.1415729505635426
 51
88.3681160068568232
  0
ARC
  5
3F8DB
  8
0
 10
2665.9114947648699854
 20
154.3244785692143921
 30
0.0
 40
1.1637426954084831
 50
270.0042630768109007
 51
286.745902279609993
  0
ARC
  5
3F8DC
  8
0
 10
2666.2274565089251155
 20
153.2743804995936898
 30
0.0
 40
0.0671398595891788
 50
286.745902279609993
 51
324.8049897437931008
  0
ARC
  5
3F8DD
  8
0
 10
2665.3547947671040674
 20
153.8898618317618059
 30
0.0
 40
1.1350142838009101
 50
324.8049897437931008
 51
359.186090016828814
  0
ARC
  5
3F8DE
  8
0
 10
2665.9115473743850089
 20
154.174253118489105
 30
0.0
 40
0.0215427745255381
 50
68.4276776693462381
 51
89.909629925139626
  0
ARC
  5
3F8DF
  8
0
 10
2665.5080832311550694
 20
153.1537790488114013
 30
0.0
 40
1.118880754255013
 50
39.5723900499145103
 51
68.4276776693462381
  0
ARC
  5
3F8E0
  8
0
 10
2666.3540031555057794
 20
153.8528985313112116
 30
0.0
 40
0.0214525929502448
 50
356.4287906432165869
 51
39.5723900499132526
  0
ARC
  5
3F8E1
  8
0
 10
2665.2587878930407896
 20
153.9212511377888859
 30
0.0
 40
1.1187987324836259
 50
327.5712571906872768
 51
356.4287906432165869
  0
ARC
  5
3F8E2
  8
0
 10
2666.1850153753048289
 20
153.3327973146438978
 30
0.0
 40
0.0214495397123582
 50
284.4275064616754207
 51
327.5712571906844914
  0
ARC
  5
3F8E3
  8
0
 10
2665.9061773209677995
 20
154.4166394221415999
 30
0.0
 40
1.1405850875937289
 50
270.2714653906347735
 51
284.4275064616754207
  0
LINE
  5
3F8E4
  8
0
 10
2666.1976270434238359
 20
153.3154390352574126
 30
0.0
 11
2666.2646355295278227
 21
153.2183682873987891
 31
0.0
  0
LINE
  5
3F8E5
  8
0
 10
2666.485907778922865
 20
153.8957648323194007
 30
0.0
 11
2666.3744119847551701
 21
153.8595306810036902
 31
0.0
  0
ARC
  5
3F8E6
  8
0
 10
2665.9116181050108025
 20
144.7785938007372124
 30
0.0
 40
0.0400054700951001
 50
269.947363566070976
 51
285.5612995839097152
  0
ARC
  5
3F8E7
  8
0
 10
2665.6116405444140582
 20
145.8558012810906916
 30
0.0
 40
1.1582015587089449
 50
285.5612995839102268
 51
323.7403435862174774
  0
ARC
  5
3F8E8
  8
0
 10
2666.5152902461118174
 20
145.1929837004933859
 30
0.0
 40
0.0375276861982598
 50
323.7403435862174774
 51
358.3291130354036227
  0
LINE
  5
3F8E9
  8
0
 10
2672.190124821570862
 20
152.6023751249429097
 30
0.0
 11
2672.190124821570862
 21
150.1124674026401919
 31
0.0
  0
ARC
  5
3F8EA
  8
0
 10
2670.4144375420628421
 20
154.1647108806623976
 30
0.0
 40
2.7391688214850678
 50
324.7280270519447072
 51
359.2817952407589814
  0
ARC
  5
3F8EB
  8
0
 10
2673.1060673773681629
 20
154.1281677973115052
 30
0.0
 40
0.0473752902709517
 50
2.671809499156951
 51
32.8817089654266326
  0
ARC
  5
3F8EC
  8
0
 10
2670.94400925882519
 20
152.5071728502215933
 30
0.0
 40
2.7495065651607979
 50
36.792088407035429
 51
71.2749995828706489
  0
ARC
  5
3F8ED
  8
0
 10
2671.8154108126859683
 20
155.0602132055018956
 30
0.0
 40
0.0521658605436518
 50
77.5320474879490433
 51
88.1519161095729515
  0
ARC
  5
3F8EE
  8
0
 10
2671.0831223460309047
 20
153.9168400016093017
 30
0.0
 40
1.8535643698865101
 50
0.7968617408440365
 51
4.1708319478037206
  0
ARC
  5
3F8EF
  8
0
 10
2672.8536859970849946
 20
154.0459558855658884
 30
0.0
 40
0.07829916324205
 50
4.1708319478053451
 51
31.8291670110655289
  0
ARC
  5
3F8F0
  8
0
 10
2671.4113017833738013
 20
153.150622927650204
 30
0.0
 40
1.7759720779970849
 50
31.8291670110655289
 51
76.1474960583687164
  0
ARC
  5
3F8F1
  8
0
 10
2671.8148197428799904
 20
154.7808201136475077
 30
0.0
 40
0.0965883742565931
 50
77.022262520303471
 51
88.6513076076516455
  0
ARC
  5
3F8F2
  8
0
 10
2671.0796181458331375
 20
153.9517668817331071
 30
0.0
 40
1.8569118434884839
 50
320.7488320019292019
 51
359.7177151781027078
  0
ARC
  5
3F8F3
  8
0
 10
2672.4577885042149319
 20
152.8273049313025069
 30
0.0
 40
0.0782235928862715
 50
292.1572050409297958
 51
319.8427934614337005
  0
ARC
  5
3F8F4
  8
0
 10
2671.8162736722879345
 20
154.4026514814059965
 30
0.0
 40
1.779181567824508
 50
270.0263896386612146
 51
292.1572050409538974
  0
ARC
  5
3F8F5
  8
0
 10
2672.6188473294278083
 20
152.6056197829566941
 30
0.0
 40
0.0391340844065357
 50
287.575923883084215
 51
324.5759932440535067
  0
ARC
  5
3F8F6
  8
0
 10
2671.7951856191111801
 20
155.2871467202093072
 30
0.0
 40
2.8443073501372451
 50
277.9814511442517073
 51
287.0818324654078992
  0
ARC
  5
3F8F7
  8
0
 10
2672.2688412635247914
 20
152.6007375109838051
 30
0.0
 40
0.0787334745415884
 50
105.8142283804776014
 51
178.8081926335921139
  0
ARC
  5
3F8F8
  8
0
 10
2672.1565142788031153
 20
150.113509594142414
 30
0.0
 40
0.0336266969579932
 50
309.5658839174550963
 51
358.2239487137933907
  0
LINE
  5
3F8F9
  8
0
 10
2672.1779333106528611
 20
150.0875870205260014
 30
0.0
 11
2672.1265653367008781
 21
150.0401606775915866
 31
0.0
  0
ARC
  5
3F8FA
  8
0
 10
2672.1052967538730627
 20
150.0629005686159019
 30
0.0
 40
0.0311360764917905
 50
276.761352422774678
 51
313.0851787002129072
  0
ARC
  5
3F8FB
  8
0
 10
2671.8147025930688869
 20
154.6987724610220027
 30
0.0
 40
0.0581787062784568
 50
77.70353814569485
 51
87.6450707561285043
  0
ARC
  5
3F8FC
  8
0
 10
2671.4145776331670277
 20
153.1551287975347861
 30
0.0
 40
1.652794500106159
 50
32.4352434518740509
 51
75.5469521261367589
  0
ARC
  5
3F8FD
  8
0
 10
2672.777373565013022
 20
154.0211617374318962
 30
0.0
 40
0.0381038780852634
 50
3.5612838784441632
 51
32.4352434518768007
  0
ARC
  5
3F8FE
  8
0
 10
2671.1655456489697826
 20
153.9208475357177122
 30
0.0
 40
1.6530503694590519
 50
320.4382016173128136
 51
3.5612838784441632
  0
ARC
  5
3F8FF
  8
0
 10
2672.4106119908701658
 20
152.8922365807100903
 30
0.0
 40
0.0380486070782821
 50
291.4219703863918198
 51
320.4382016173140073
  0
ARC
  5
3F900
  8
0
 10
2671.8146866262309231
 20
154.4111441786037915
 30
0.0
 40
1.6696758105651159
 50
270.0825807290306102
 51
291.4219703863918198
  0
LINE
  5
3F901
  8
0
 10
2673.1511806544808678
 20
154.1426319031043874
 30
0.0
 11
2672.8136128633759654
 21
154.0329353850939924
 31
0.0
  0
LINE
  5
3F902
  8
0
 10
2672.4329388232731617
 20
152.8614273441826867
 30
0.0
 11
2672.6418917195810536
 21
152.5739901663791045
 31
0.0
  0
ARC
  5
3F903
  8
0
 10
2677.7179330652811586
 20
154.9848671547333083
 30
0.0
 40
0.0769641634829266
 50
72.0556456879966731
 51
86.5198900981790615
  0
ARC
  5
3F904
  8
0
 10
2676.9740486474529462
 20
152.6788475891005135
 30
0.0
 40
2.4999973923050591
 50
35.8808750828848417
 51
72.1191263820610544
  0
ARC
  5
3F905
  8
0
 10
2677.7144944184651649
 20
155.0117490114014913
 30
0.0
 40
2.5301606347511041
 50
282.3141302507119121
 51
288.0889161551942266
  0
ARC
  5
3F906
  8
0
 10
2678.4808691834041383
 20
152.6654855560234978
 30
0.0
 40
0.0619056879564208
 50
288.0889161551942266
 51
323.9147622222757263
  0
ARC
  5
3F907
  8
0
 10
2676.5068823009678454
 20
154.1041626520963916
 30
0.0
 40
2.504530505400218
 50
323.9147622222757263
 51
359.8646195899648887
  0
ARC
  5
3F908
  8
0
 10
2678.9170335328899455
 20
154.0984678544687938
 30
0.0
 40
0.0943725455445702
 50
359.8646195899648887
 51
28.9169658890370087
  0
ARC
  5
3F909
  8
0
 10
2677.7210116017408836
 20
154.943864309179304
 30
0.0
 40
0.0317228539850764
 50
74.6603648185581932
 51
87.1209914346354992
  0
ARC
  5
3F90A
  8
0
 10
2676.9736259220708234
 20
152.6782634770395077
 30
0.0
 40
2.417375574663319
 50
36.2186860391366778
 51
71.781365275674645
  0
ARC
  5
3F90B
  8
0
 10
2678.906343115654181
 20
154.0937668235746116
 30
0.0
 40
0.0217450784427947
 50
359.7817017254629945
 51
36.2186860391393068
  0
ARC
  5
3F90C
  8
0
 10
2676.5107680373598669
 20
154.1028940654238966
 30
0.0
 40
2.4173375442610889
 50
324.2184427167341028
 51
359.7817017254629945
  0
ARC
  5
3F90D
  8
0
 10
2678.4541975511028795
 20
152.702199230789688
 30
0.0
 40
0.0217448629690673
 50
287.7737908100298796
 51
324.2184427167341028
  0
ARC
  5
3F90E
  8
0
 10
2677.7195745752260336
 20
154.9938830117978057
 30
0.0
 40
2.4282953961643701
 50
282.7164228288904724
 51
287.7737908100298796
  0
ARC
  5
3F90F
  8
0
 10
2677.722604943728129
 20
153.7091464488987924
 30
0.0
 40
0.5315007056946253
 50
328.412847972110626
 51
89.9999996819974513
  0
ARC
  5
3F910
  8
0
 10
2677.722604943728129
 20
153.7091464488987924
 30
0.0
 40
0.4527559055000015
 50
346.0279192720736887
 51
89.9999996266824667
  0
ARC
  5
3F911
  8
0
 10
2677.7108739437981058
 20
153.30230097319469
 30
0.0
 40
0.5944988650132275
 50
58.1068856826977083
 51
88.8693324402519238
  0
ARC
  5
3F912
  8
0
 10
2677.871681497640111
 20
153.5747380669623965
 30
0.0
 40
0.2783282976191084
 50
13.8962456689287599
 51
56.5818962850012781
  0
ARC
  5
3F913
  8
0
 10
2677.7127398823167823
 20
153.1661118287458123
 30
0.0
 40
0.6750189313853515
 50
70.4437966559499387
 51
89.162621004209285
  0
ARC
  5
3F914
  8
0
 10
2677.7907134033739567
 20
153.4061833269628039
 30
0.0
 40
0.4227521631466172
 50
33.8365615285397965
 51
69.5107705184659608
  0
ARC
  5
3F915
  8
0
 10
2678.0057531584370736
 20
153.5503386975182138
 30
0.0
 40
0.1638644131134301
 50
13.6206821668407692
 51
33.8365615285397965
  0
ARC
  5
3F916
  8
0
 10
2677.8709919537218411
 20
153.4062838411024927
 30
0.0
 40
0.3459003664798184
 50
28.3658053990606902
 51
50.0972355919777996
  0
ARC
  5
3F917
  8
0
 10
2677.5416538953390955
 20
152.7326343660608927
 30
0.0
 40
1.088841888877728
 50
59.585493221946372
 51
75.9991982024777428
  0
ARC
  5
3F918
  8
0
 10
2677.7226510850518935
 20
153.1153748606429019
 30
0.0
 40
0.6787784187239817
 50
83.0246614013212678
 51
90.0038945465150846
  0
ARC
  5
3F919
  8
0
 10
2677.7226049432570107
 20
152.9441080423424921
 30
0.0
 40
0.679284313671039
 50
83.0259611244137403
 51
89.9999997115178871
  0
ARC
  5
3F91A
  8
0
 10
2678.3556019907091468
 20
154.5556290811150859
 30
0.0
 40
1.0869829190834961
 50
239.5713607379040866
 51
256.013330678415798
  0
ARC
  5
3F91B
  8
0
 10
2677.877255002586935
 20
153.2406348024888132
 30
0.0
 40
0.3379632026412041
 50
28.1074043726281104
 51
50.355636618495538
  0
LINE
  5
3F91C
  8
0
 10
2678.1753608493268075
 20
153.5706208086990046
 30
0.0
 11
2678.1753608493268075
 21
153.2666034221174982
 31
0.0
  0
ARC
  5
3F91D
  8
0
 10
2677.9502818436722009
 20
153.1925499030357116
 30
0.0
 40
0.2369482696191265
 50
4.7067581083431618
 51
18.2117858133312289
  0
ARC
  5
3F91E
  8
0
 10
2677.8635924121558674
 20
153.164028107090104
 30
0.0
 40
0.3282091614651443
 50
18.2117858133312289
 51
45.6634554828123171
  0
ARC
  5
3F91F
  8
0
 10
2677.7859019341258318
 20
153.0845172374245067
 30
0.0
 40
0.4393747531359563
 50
45.6634554828123171
 51
73.2506879749975326
  0
ARC
  5
3F920
  8
0
 10
2677.711333510725126
 20
152.836742725886495
 30
0.0
 40
0.6981268706853847
 50
73.2506876424169917
 51
89.0749048683180433
  0
ARC
  5
3F921
  8
0
 10
2679.1480799068272063
 20
153.294814279285589
 30
0.0
 40
0.9652087262632253
 50
184.9224123958101131
 51
191.7208787728837933
  0
ARC
  5
3F922
  8
0
 10
2822.124651242093023
 20
182.9581784555354886
 30
0.0
 40
146.9864918497910082
 50
191.7208787728837933
 51
191.7779485996757955
  0
ARC
  5
3F923
  8
0
 10
2677.2410242890641712
 20
152.7482628137414054
 30
0.0
 40
1.013185103068176
 50
0.8227145270689643
 51
11.7967298594418999
  0
LINE
  5
3F924
  8
0
 10
2678.2541049431038118
 20
152.762810717023001
 30
0.0
 11
2678.2541049431038118
 21
150.7571033722423977
 31
0.0
  0
ARC
  5
3F925
  8
0
 10
2678.8251561993452015
 20
150.7445266138120985
 30
0.0
 40
0.5711897338955606
 50
178.7383291856831136
 51
192.4606196619515117
  0
ARC
  5
3F926
  8
0
 10
2677.7077933152158948
 20
149.8927984569110947
 30
0.0
 40
0.9235792512238166
 50
60.5998371423651889
 51
89.0810963423727884
  0
ARC
  5
3F927
  8
0
 10
2677.7905130825051856
 20
150.0681301373259089
 30
0.0
 40
0.7303547534201239
 50
49.2332394209528701
 51
59.501093924979763
  0
ARC
  5
3F928
  8
0
 10
2677.7676159609609385
 20
150.0415724339104031
 30
0.0
 40
0.765420260484966
 50
35.3716329258099478
 51
49.2332394209528701
  0
ARC
  5
3F929
  8
0
 10
2677.8659492848528316
 20
150.1113810430190085
 30
0.0
 40
0.6448272072303192
 50
11.6658888384283994
 51
35.3716329258099478
  0
ARC
  5
3F92A
  8
0
 10
2677.8743998586392081
 20
150.1131258265355086
 30
0.0
 40
0.6361983911569226
 50
346.3089050721856097
 51
11.6658888384283994
  0
ARC
  5
3F92B
  8
0
 10
2677.8525944342918592
 20
150.1184378256886021
 30
0.0
 40
0.6586415162951555
 50
313.6128265539063023
 51
346.3089050721856097
  0
ARC
  5
3F92C
  8
0
 10
2677.7272771189950618
 20
150.2499749944499001
 30
0.0
 40
0.8403183069943867
 50
292.2779447200202867
 51
313.6128265539063023
  0
ARC
  5
3F92D
  8
0
 10
2677.7238460789199053
 20
150.2809195193866003
 30
0.0
 40
0.8702957672561678
 50
269.9182902340629084
 51
291.7146438079456061
  0
ARC
  5
3F92E
  8
0
 10
2677.687413971756996
 20
149.9182147919860881
 30
0.0
 40
0.8603153519208323
 50
56.9194812011379199
 51
78.0905561074916221
  0
ARC
  5
3F92F
  8
0
 10
2677.7228309332522258
 20
149.9993055019309054
 30
0.0
 40
0.7738687986830078
 50
79.4174589243509956
 51
87.9330161209314696
  0
ARC
  5
3F930
  8
0
 10
2677.7505079917641524
 20
150.7544997929348938
 30
0.0
 40
0.0181725008386868
 50
89.2599189378049829
 51
178.0580175645235954
  0
ARC
  5
3F931
  8
0
 10
2696.4984171236192196
 20
150.4743380007593032
 30
0.0
 40
18.7681715725891216
 50
179.1428055588980897
 51
180.2857494673509109
  0
ARC
  5
3F932
  8
0
 10
2676.765877252431892
 20
150.3576584157198965
 30
0.0
 40
0.9648777382738085
 50
358.6294625382731738
 51
1.3705374617267261
  0
ARC
  5
3F933
  8
0
 10
2677.744509896722775
 20
150.334244674163898
 30
0.0
 40
0.0140349522988326
 50
178.6294625382716106
 51
203.4943030100913859
  0
ARC
  5
3F934
  8
0
 10
2677.7818841262869682
 20
150.1280304421889866
 30
0.0
 40
0.2373994429728265
 50
331.6514005992416969
 51
358.8778993452407917
  0
ARC
  5
3F935
  8
0
 10
2677.7797547455897984
 20
150.1280721500604045
 30
0.0
 40
0.2395292320934121
 50
358.8778993452423833
 51
35.2502672701237572
  0
ARC
  5
3F936
  8
0
 10
2677.7386584897622015
 20
150.0990279005038133
 30
0.0
 40
0.2898528912941587
 50
35.250267270125093
 51
67.5957881938913943
  0
ARC
  5
3F937
  8
0
 10
2677.7208509163911003
 20
150.0558325019196104
 30
0.0
 40
0.3365749645384608
 50
67.5957881938913943
 51
84.1052997629655437
  0
ARC
  5
3F938
  8
0
 10
2677.7308610034629055
 20
150.1527858198599858
 30
0.0
 40
0.239106263393661
 50
84.1052997629655437
 51
85.7535579739853375
  0
ARC
  5
3F939
  8
0
 10
2677.7500390563118344
 20
150.4110747173064908
 30
0.0
 40
0.0198936444349299
 50
188.4678115523715007
 51
265.7535579739853233
  0
ARC
  5
3F93A
  8
0
 10
2677.7254665700838814
 20
150.0489902041524886
 30
0.0
 40
0.2797274217383589
 50
81.4460474458333437
 51
88.7357294716635749
  0
ARC
  5
3F93B
  8
0
 10
2677.7242711790368048
 20
150.0410428556062072
 30
0.0
 40
0.287764169132136
 50
30.260743217441
 51
81.4460474458333437
  0
ARC
  5
3F93C
  8
0
 10
2677.8136580539739953
 20
150.0931942035049076
 30
0.0
 40
0.1842761191042291
 50
4.6617485893198438
 51
30.2607432174395896
  0
ARC
  5
3F93D
  8
0
 10
2677.7403772148850294
 20
150.0872186730647115
 30
0.0
 40
0.2578001855151984
 50
334.5607675885191838
 51
4.6617485893198438
  0
ARC
  5
3F93E
  8
0
 10
2677.8099701453488706
 20
150.0541151042525883
 30
0.0
 40
0.1807351335224706
 50
317.0845014644552862
 51
334.5607675885191838
  0
ARC
  5
3F93F
  8
0
 10
2677.7086639361618836
 20
150.1483057227578968
 30
0.0
 40
0.3190638024026093
 50
294.2661263632579107
 51
317.0845014644552862
  0
ARC
  5
3F940
  8
0
 10
2677.7230376742550106
 20
150.139279594846613
 30
0.0
 40
0.3050725868778398
 50
269.9189003462819869
 51
292.5015103997293977
  0
ARC
  5
3F941
  8
0
 10
2677.7806873156660004
 20
150.0546674259732924
 30
0.0
 40
0.2372178450741692
 50
7.8222158561437301
 51
14.6697255661178296
  0
ARC
  5
3F942
  8
0
 10
2677.7728571168659073
 20
150.052617633303413
 30
0.0
 40
0.2453118961757501
 50
14.6697255661178296
 51
35.4610837163241683
  0
ARC
  5
3F943
  8
0
 10
2677.7663427311949818
 20
150.0479776398350964
 30
0.0
 40
0.2533098184100582
 50
35.4610837163241683
 51
48.206297140527731
  0
ARC
  5
3F944
  8
0
 10
2678.0066594455111044
 20
150.0097767737507866
 30
0.0
 40
0.0167811200038876
 50
161.2143361313441972
 51
187.6627727122211979
  0
ARC
  5
3F945
  8
0
 10
2678.0060571407188945
 20
150.0096957374076112
 30
0.0
 40
0.0161733881949984
 50
187.6627727122227896
 51
243.8937810931682861
  0
LINE
  5
3F946
  8
0
 10
2677.9989402573278312
 20
149.9951723611987973
 30
0.0
 11
2678.3134158508178189
 21
149.8580939364032929
 31
0.0
  0
ARC
  5
3F947
  8
0
 10
2678.3214537218068472
 20
149.878308156491812
 30
0.0
 40
0.021753667975507
 50
248.3155256297640108
 51
320.0343924670514753
  0
ARC
  5
3F948
  8
0
 10
2677.7611520384962205
 20
150.0958407029798138
 30
0.0
 40
0.6721548643694978
 50
37.7276427167916779
 51
53.9205102446770823
  0
ARC
  5
3F949
  8
0
 10
2677.8688935469590433
 20
150.16634474500529
 30
0.0
 40
0.5438919924173292
 50
20.98452987812
 51
38.7984552434039074
  0
ARC
  5
3F94A
  8
0
 10
2677.833160946229782
 20
150.1473324104904066
 30
0.0
 40
0.5840843416487244
 50
356.7494885558160149
 51
21.4705938223402306
  0
ARC
  5
3F94B
  8
0
 10
2677.8573406172881732
 20
150.1528755324276005
 30
0.0
 40
0.5603004283517686
 50
339.0477814385894249
 51
356.0433482967177952
  0
ARC
  5
3F94C
  8
0
 10
2676.2104186516580739
 20
150.9433106342519864
 30
0.0
 40
2.3856504896696489
 50
333.1101154427284996
 51
335.4609481094325929
  0
ARC
  5
3F94D
  8
0
 10
2677.9808770835670657
 20
149.9216159839994873
 30
0.0
 40
0.0189103556500938
 50
66.3566943004845626
 51
139.2365943015090011
  0
ARC
  5
3F94E
  8
0
 10
2677.6697179398252047
 20
150.1898547365352101
 30
0.0
 40
0.3919083891707026
 50
306.8013857007524052
 51
319.2365943015090011
  0
ARC
  5
3F94F
  8
0
 10
2677.727788100547059
 20
150.1356230930622928
 30
0.0
 40
0.314010398787459
 50
282.5916049612558254
 51
304.2440848431514269
  0
ARC
  5
3F950
  8
0
 10
2677.7226839609711533
 20
150.1544731265695134
 30
0.0
 40
0.3335209085456358
 50
269.9864269525353961
 51
282.7414180183056942
  0
ARC
  5
3F951
  8
0
 10
2679.6936573423290611
 20
153.7049410546320019
 30
0.0
 40
4.1340617186915223
 50
245.6396049016287009
 51
246.5032631661792948
  0
ARC
  5
3F952
  8
0
 10
2662.3898829069421481
 20
113.902785476094806
 30
0.0
 40
39.2667700522412702
 50
66.0948108452853234
 51
66.5032631661793232
  0
ARC
  5
3F953
  8
0
 10
2678.2943195587799892
 20
149.7844128879553125
 30
0.0
 40
0.0183014077720851
 50
26.1675954570467297
 51
66.0948108452859913
  0
ARC
  5
3F954
  8
0
 10
2678.2966318976359616
 20
149.7855490757571886
 30
0.0
 40
0.0157250084035637
 50
348.5835236544667737
 51
26.1675954570496501
  0
ARC
  5
3F955
  8
0
 10
2678.2864552030951018
 20
149.7876041029541057
 30
0.0
 40
0.0261071203543474
 50
333.6113858013212052
 51
348.5835236544667737
  0
ARC
  5
3F956
  8
0
 10
2677.723594138781209
 20
150.2564926282921931
 30
0.0
 40
0.7685436851464813
 50
269.9262546171377153
 51
289.3412419036674805
  0
ARC
  5
3F957
  8
0
 10
2677.7402187929669708
 20
150.209129387139086
 30
0.0
 40
0.7183475125899496
 50
289.3412419036674805
 51
310.2206024591155824
  0
ARC
  5
3F958
  8
0
 10
2677.8046560750199205
 20
150.132933753106812
 30
0.0
 40
0.6185580443886284
 50
310.2206024591155824
 51
324.7573329450378878
  0
LINE
  5
3F959
  8
0
 10
2678.3271266710298733
 20
149.8573072108584086
 30
0.0
 11
2678.3271266710298733
 21
149.7809076263951056
 31
0.0
  0
LINE
  5
3F95A
  8
0
 10
2677.9898526506281087
 20
150.0104086827988112
 30
0.0
 11
2677.9884609215278033
 21
149.93893900199879
 31
0.0
  0
ARC
  5
3F95B
  8
0
 10
2677.8684729669271292
 20
150.1094168976628964
 30
0.0
 40
0.5627706816508585
 50
7.337862772738295
 51
21.0557208362428412
  0
ARC
  5
3F95C
  8
0
 10
2677.8686066536420185
 20
150.1094341131276906
 30
0.0
 40
0.5626358910348844
 50
347.0819570598673067
 51
7.337862772738295
  0
ARC
  5
3F95D
  8
0
 10
2677.8545247368729179
 20
150.1126639700788985
 30
0.0
 40
0.5770834636968745
 50
330.741230199297604
 51
347.0819570598673067
  0
ARC
  5
3F95E
  8
0
 10
2677.804764260815773
 20
150.1405411816828916
 30
0.0
 40
0.6341206787782956
 50
318.0964291152042165
 51
330.741230199297604
  0
ARC
  5
3F95F
  8
0
 10
2677.7701517976970536
 20
150.1716010627133926
 30
0.0
 40
0.6806259345331139
 50
294.3122113934020945
 51
318.0964291152042165
  0
ARC
  5
3F960
  8
0
 10
2677.713707438324036
 20
150.3007956293828045
 30
0.0
 40
0.8216034478523841
 50
270.6204935521195125
 51
294.1900404748025153
  0
ARC
  5
3F961
  8
0
 10
2677.898113585622923
 20
150.0479324582948948
 30
0.0
 40
0.5362571479497255
 50
6.2028322594090319
 51
15.1009192529071399
  0
LINE
  5
3F962
  8
0
 10
2678.4270937402911841
 20
150.1359763376678131
 30
0.0
 11
2678.4171774446690506
 21
150.1384302921686924
 31
0.0
  0
LINE
  5
3F963
  8
0
 10
2678.0034533255789029
 20
150.1362442641749055
 30
0.0
 11
2677.9925568596131598
 21
150.1373858929140965
 31
0.0
  0
LINE
  5
3F964
  8
0
 10
2677.9600356769537939
 20
150.2112225689010927
 30
0.0
 11
2677.9596054694361555
 21
150.2066507926101906
 31
0.0
  0
LINE
  5
3F965
  8
0
 10
2677.805083373727939
 20
153.7891293110988045
 30
0.0
 11
2677.805083373727939
 21
153.6183665145227053
 31
0.0
  0
LINE
  5
3F966
  8
0
 10
2678.092882419327907
 20
153.6716358427987927
 30
0.0
 11
2678.092882419327907
 21
153.5008730461987909
 31
0.0
  0
LINE
  5
3F967
  8
0
 10
2679.0084449616761049
 20
154.1219226629312971
 30
0.0
 11
2678.9273057468358274
 21
154.0995475268533141
 31
0.0
  0
LINE
  5
3F968
  8
0
 10
2678.5172580414500771
 20
152.6154039704711067
 30
0.0
 11
2678.4669776685400393
 21
152.6846064008911128
 31
0.0
  0
LINE
  5
3F969
  8
0
 10
2677.7226049466780751
 20
155.0616893909987937
 30
0.0
 11
2677.7226049466780751
 21
154.9755471233987976
 31
0.0
  0
ARC
  5
3F96A
  8
0
 10
2677.7247275039189844
 20
148.4849424811089875
 30
0.0
 40
2.8289228203596548
 50
269.9570106394479012
 51
293.9458473499378215
  0
ARC
  5
3F96B
  8
0
 10
2677.8560086729758041
 20
148.1893282292049037
 30
0.0
 40
2.5054687567310712
 50
293.9458501583774819
 51
325.5600901721180094
  0
ARC
  5
3F96C
  8
0
 10
2678.2388790585077913
 20
147.9267794926066131
 30
0.0
 40
2.0412257479453921
 50
325.5600901721180094
 51
352.739787060324602
  0
ARC
  5
3F96D
  8
0
 10
2678.0485692456632023
 20
147.9510244310964993
 30
0.0
 40
2.2330737135527992
 50
352.739787060324602
 51
0.166183918563127
  0
ARC
  5
3F96E
  8
0
 10
2676.4400149583998427
 20
147.9463588762062898
 30
0.0
 40
3.8416347669387738
 50
0.166183918563127
 51
15.5570966120754708
  0
ARC
  5
3F96F
  8
0
 10
2677.9309718571121266
 20
148.1764636249509977
 30
0.0
 40
2.350352306900076
 50
19.9052931704686387
 51
53.1007703305829466
  0
ARC
  5
3F970
  8
0
 10
2677.784800828329935
 20
147.9990429579686122
 30
0.0
 40
2.5800176228691312
 50
52.8705475162713725
 51
67.9235357122813923
  0
ARC
  5
3F971
  8
0
 10
2677.7203488560389815
 20
147.841888559573988
 30
0.0
 40
2.7498738904716351
 50
67.909761742806495
 51
76.3372854797245139
  0
ENDSEC
  0
EOF
